  0
SECTION
  2
HEADER
  9
$ACADVER
  1
AC1032
  9
$ACADMAINTVER
 90
      155
  9
$DWGCODEPAGE
  3
ANSI_1251
  9
$REQUIREDVERSIONS
160
                 0
  9
$INSBASE
 10
0.0
 20
0.0
 30
0.0
  9
$EXTMIN
 10
1.000000000000000E+20
 20
1.000000000000000E+20
 30
1.000000000000000E+20
  9
$EXTMAX
 10
-1.000000000000000E+20
 20
-1.000000000000000E+20
 30
-1.000000000000000E+20
  9
$LIMMIN
 10
0.0
 20
0.0
  9
$LIMMAX
 10
12.0
 20
9.0
  9
$ORTHOMODE
 70
     0
  9
$REGENMODE
 70
     1
  9
$FILLMODE
 70
     1
  9
$QTEXTMODE
 70
     0
  9
$MIRRTEXT
 70
     0
  9
$LTSCALE
 40
1.0
  9
$ATTMODE
 70
     1
  9
$TEXTSIZE
 40
0.2
  9
$TRACEWID
 40
0.05
  9
$TEXTSTYLE
  7
Standard
  9
$CLAYER
  8
0
  9
$CELTYPE
  6
ByLayer
  9
$CECOLOR
 62
   256
  9
$CELTSCALE
 40
1.0
  9
$DISPSILH
 70
     0
  9
$DIMSCALE
 40
1.0
  9
$DIMASZ
 40
0.18
  9
$DIMEXO
 40
0.0625
  9
$DIMDLI
 40
0.38
  9
$DIMRND
 40
0.0
  9
$DIMDLE
 40
0.0
  9
$DIMEXE
 40
0.18
  9
$DIMTP
 40
0.0
  9
$DIMTM
 40
0.0
  9
$DIMTXT
 40
0.18
  9
$DIMCEN
 40
0.09
  9
$DIMTSZ
 40
0.0
  9
$DIMTOL
 70
     0
  9
$DIMLIM
 70
     0
  9
$DIMTIH
 70
     1
  9
$DIMTOH
 70
     1
  9
$DIMSE1
 70
     0
  9
$DIMSE2
 70
     0
  9
$DIMTAD
 70
     0
  9
$DIMZIN
 70
     0
  9
$DIMBLK
  1

  9
$DIMASO
 70
     1
  9
$DIMSHO
 70
     1
  9
$DIMPOST
  1

  9
$DIMAPOST
  1

  9
$DIMALT
 70
     0
  9
$DIMALTD
 70
     2
  9
$DIMALTF
 40
25.4
  9
$DIMLFAC
 40
1.0
  9
$DIMTOFL
 70
     0
  9
$DIMTVP
 40
0.0
  9
$DIMTIX
 70
     0
  9
$DIMSOXD
 70
     0
  9
$DIMSAH
 70
     0
  9
$DIMBLK1
  1

  9
$DIMBLK2
  1

  9
$DIMSTYLE
  2
Standard
  9
$DIMCLRD
 70
     0
  9
$DIMCLRE
 70
     0
  9
$DIMCLRT
 70
     0
  9
$DIMTFAC
 40
1.0
  9
$DIMGAP
 40
0.09
  9
$DIMJUST
 70
     0
  9
$DIMSD1
 70
     0
  9
$DIMSD2
 70
     0
  9
$DIMTOLJ
 70
     1
  9
$DIMTZIN
 70
     0
  9
$DIMALTZ
 70
     0
  9
$DIMALTTZ
 70
     0
  9
$DIMUPT
 70
     0
  9
$DIMDEC
 70
     4
  9
$DIMTDEC
 70
     4
  9
$DIMALTU
 70
     2
  9
$DIMALTTD
 70
     2
  9
$DIMTXSTY
  7
Standard
  9
$DIMAUNIT
 70
     0
  9
$DIMADEC
 70
     0
  9
$DIMALTRND
 40
0.0
  9
$DIMAZIN
 70
     0
  9
$DIMDSEP
 70
    46
  9
$DIMATFIT
 70
     3
  9
$DIMFRAC
 70
     0
  9
$DIMLDRBLK
  1

  9
$DIMLUNIT
 70
     2
  9
$DIMLWD
 70
    -2
  9
$DIMLWE
 70
    -2
  9
$DIMTMOVE
 70
     0
  9
$DIMFXL
 40
1.0
  9
$DIMFXLON
 70
     0
  9
$DIMJOGANG
 40
0.7853981633974483
  9
$DIMTFILL
 70
     0
  9
$DIMTFILLCLR
 70
     0
  9
$DIMARCSYM
 70
     0
  9
$DIMLTYPE
  6

  9
$DIMLTEX1
  6

  9
$DIMLTEX2
  6

  9
$DIMTXTDIRECTION
 70
     0
  9
$LUNITS
 70
     2
  9
$LUPREC
 70
     4
  9
$SKETCHINC
 40
0.1
  9
$FILLETRAD
 40
0.0
  9
$AUNITS
 70
     0
  9
$AUPREC
 70
     0
  9
$MENU
  1
.
  9
$ELEVATION
 40
0.0
  9
$PELEVATION
 40
0.0
  9
$THICKNESS
 40
0.0
  9
$LIMCHECK
 70
     0
  9
$CHAMFERA
 40
0.0
  9
$CHAMFERB
 40
0.0
  9
$CHAMFERC
 40
0.0
  9
$CHAMFERD
 40
0.0
  9
$SKPOLY
 70
     0
  9
$TDCREATE
 40
2460539.668240741
  9
$TDUCREATE
 40
2460539.543240741
  9
$TDUPDATE
 40
2460539.668240741
  9
$TDUUPDATE
 40
2460539.543240741
  9
$TDINDWG
 40
0.0000000000
  9
$TDUSRTIMER
 40
0.0000000000
  9
$USRTIMER
 70
     1
  9
$ANGBASE
 50
0.0
  9
$ANGDIR
 70
     0
  9
$PDMODE
 70
     0
  9
$PDSIZE
 40
0.0
  9
$PLINEWID
 40
0.0
  9
$SPLFRAME
 70
     0
  9
$SPLINETYPE
 70
     6
  9
$SPLINESEGS
 70
     8
  9
$HANDSEED
  5
1F1
  9
$SURFTAB1
 70
     6
  9
$SURFTAB2
 70
     6
  9
$SURFTYPE
 70
     6
  9
$SURFU
 70
     6
  9
$SURFV
 70
     6
  9
$UCSBASE
  2

  9
$UCSNAME
  2

  9
$UCSORG
 10
0.0
 20
0.0
 30
0.0
  9
$UCSXDIR
 10
1.0
 20
0.0
 30
0.0
  9
$UCSYDIR
 10
0.0
 20
1.0
 30
0.0
  9
$UCSORTHOREF
  2

  9
$UCSORTHOVIEW
 70
     0
  9
$UCSORGTOP
 10
0.0
 20
0.0
 30
0.0
  9
$UCSORGBOTTOM
 10
0.0
 20
0.0
 30
0.0
  9
$UCSORGLEFT
 10
0.0
 20
0.0
 30
0.0
  9
$UCSORGRIGHT
 10
0.0
 20
0.0
 30
0.0
  9
$UCSORGFRONT
 10
0.0
 20
0.0
 30
0.0
  9
$UCSORGBACK
 10
0.0
 20
0.0
 30
0.0
  9
$PUCSBASE
  2

  9
$PUCSNAME
  2

  9
$PUCSORG
 10
0.0
 20
0.0
 30
0.0
  9
$PUCSXDIR
 10
1.0
 20
0.0
 30
0.0
  9
$PUCSYDIR
 10
0.0
 20
1.0
 30
0.0
  9
$PUCSORTHOREF
  2

  9
$PUCSORTHOVIEW
 70
     0
  9
$PUCSORGTOP
 10
0.0
 20
0.0
 30
0.0
  9
$PUCSORGBOTTOM
 10
0.0
 20
0.0
 30
0.0
  9
$PUCSORGLEFT
 10
0.0
 20
0.0
 30
0.0
  9
$PUCSORGRIGHT
 10
0.0
 20
0.0
 30
0.0
  9
$PUCSORGFRONT
 10
0.0
 20
0.0
 30
0.0
  9
$PUCSORGBACK
 10
0.0
 20
0.0
 30
0.0
  9
$USERI1
 70
     0
  9
$USERI2
 70
     0
  9
$USERI3
 70
     0
  9
$USERI4
 70
     0
  9
$USERI5
 70
     0
  9
$USERR1
 40
0.0
  9
$USERR2
 40
0.0
  9
$USERR3
 40
0.0
  9
$USERR4
 40
0.0
  9
$USERR5
 40
0.0
  9
$WORLDVIEW
 70
     1
  9
$SHADEDGE
 70
     3
  9
$SHADEDIF
 70
    70
  9
$TILEMODE
 70
     1
  9
$MAXACTVP
 70
    64
  9
$PINSBASE
 10
0.0
 20
0.0
 30
0.0
  9
$PLIMCHECK
 70
     0
  9
$PEXTMIN
 10
1.000000000000000E+20
 20
1.000000000000000E+20
 30
1.000000000000000E+20
  9
$PEXTMAX
 10
-1.000000000000000E+20
 20
-1.000000000000000E+20
 30
-1.000000000000000E+20
  9
$PLIMMIN
 10
0.0
 20
0.0
  9
$PLIMMAX
 10
12.0
 20
9.0
  9
$UNITMODE
 70
     0
  9
$VISRETAIN
 70
     1
  9
$PLINEGEN
 70
     0
  9
$PSLTSCALE
 70
     1
  9
$TREEDEPTH
 70
  3020
  9
$CMLSTYLE
  2
Standard
  9
$CMLJUST
 70
     0
  9
$CMLSCALE
 40
1.0
  9
$PROXYGRAPHICS
 70
     1
  9
$MEASUREMENT
 70
     0
  9
$CELWEIGHT
370
    -1
  9
$ENDCAPS
280
     0
  9
$JOINSTYLE
280
     0
  9
$LWDISPLAY
290
     1
  9
$INSUNITS
 70
     4
  9
$HYPERLINKBASE
  1

  9
$STYLESHEET
  1

  9
$XEDIT
290
     1
  9
$CEPSNTYPE
380
     0
  9
$PSTYLEMODE
290
     1
  9
$FINGERPRINTGUID
  2
{24CC0475-1D58-7F4F-90DD-C6A83343B529}
  9
$VERSIONGUID
  2
{F0F81120-2B38-B145-A633-BF698372A638}
  9
$EXTNAMES
290
     1
  9
$PSVPSCALE
 40
0.0
  9
$OLESTARTUP
290
     0
  9
$SORTENTS
280
   127
  9
$INDEXCTL
280
     0
  9
$HIDETEXT
280
     1
  9
$XCLIPFRAME
280
     2
  9
$HALOGAP
280
     0
  9
$OBSCOLOR
 70
   257
  9
$OBSLTYPE
280
     0
  9
$INTERSECTIONDISPLAY
280
     0
  9
$INTERSECTIONCOLOR
 70
   257
  9
$DIMASSOC
280
     2
  9
$PROJECTNAME
  1

  9
$CAMERADISPLAY
290
     0
  9
$LENSLENGTH
 40
50.0
  9
$CAMERAHEIGHT
 40
0.0
  9
$STEPSPERSEC
 40
2.0
  9
$STEPSIZE
 40
6.0
  9
$3DDWFPREC
 40
2.0
  9
$PSOLWIDTH
 40
0.25
  9
$PSOLHEIGHT
 40
4.0
  9
$LOFTANG1
 40
1.570796326794896
  9
$LOFTANG2
 40
1.570796326794896
  9
$LOFTMAG1
 40
0.0
  9
$LOFTMAG2
 40
0.0
  9
$LOFTPARAM
 70
     7
  9
$LOFTNORMALS
280
     1
  9
$LATITUDE
 40
37.795
  9
$LONGITUDE
 40
-122.394
  9
$NORTHDIRECTION
 40
0.0
  9
$TIMEZONE
 70
 -8000
  9
$LIGHTGLYPHDISPLAY
280
     1
  9
$TILEMODELIGHTSYNCH
280
     1
  9
$CMATERIAL
347
11
  9
$SOLIDHIST
280
     0
  9
$SHOWHIST
280
     1
  9
$DWFFRAME
280
     2
  9
$DGNFRAME
280
     0
  9
$REALWORLDSCALE
290
     1
  9
$INTERFERECOLOR
 62
     1
  9
$INTERFEREOBJVS
345
33
  9
$INTERFEREVPVS
346
30
  9
$CSHADOW
280
     0
  9
$SHADOWPLANELOCATION
 40
0.0
  0
ENDSEC
  0
SECTION
  2
CLASSES
  0
CLASS
  1
ACDBDICTIONARYWDFLT
  2
AcDbDictionaryWithDefault
  3
ObjectDBX Classes
 90
        0
 91
        1
280
     0
281
     0
  0
CLASS
  1
MATERIAL
  2
AcDbMaterial
  3
ObjectDBX Classes
 90
     1153
 91
        3
280
     0
281
     0
  0
CLASS
  1
VISUALSTYLE
  2
AcDbVisualStyle
  3
ObjectDBX Classes
 90
     4095
 91
       24
280
     0
281
     0
  0
CLASS
  1
SCALE
  2
AcDbScale
  3
ObjectDBX Classes
 90
     1153
 91
       17
280
     0
281
     0
  0
CLASS
  1
TABLESTYLE
  2
AcDbTableStyle
  3
ObjectDBX Classes
 90
     4095
 91
        1
280
     0
281
     0
  0
CLASS
  1
MLEADERSTYLE
  2
AcDbMLeaderStyle
  3
ACDB_MLEADERSTYLE_CLASS
 90
     4095
 91
        1
280
     0
281
     0
  0
CLASS
  1
ACDBSECTIONVIEWSTYLE
  2
AcDbSectionViewStyle
  3
ObjectDBX Classes
 90
     1025
 91
        1
280
     0
281
     0
  0
CLASS
  1
ACDBDETAILVIEWSTYLE
  2
AcDbDetailViewStyle
  3
ObjectDBX Classes
 90
     1025
 91
        1
280
     0
281
     0
  0
CLASS
  1
DICTIONARYVAR
  2
AcDbDictionaryVar
  3
ObjectDBX Classes
 90
        0
 91
        5
280
     0
281
     0
  0
CLASS
  1
CELLSTYLEMAP
  2
AcDbCellStyleMap
  3
ObjectDBX Classes
 90
     1152
 91
        1
280
     0
281
     0
  0
ENDSEC
  0
SECTION
  2
TABLES
  0
TABLE
  2
VPORT
  5
8
330
0
100
AcDbSymbolTable
 70
     1
  0
VPORT
  5
57
330
8
100
AcDbSymbolTableRecord
100
AcDbViewportTableRecord
  2
*Active
 70
     0
 10
0.0
 20
0.0
 11
1.0
 21
1.0
 12
0.0
 22
0.0
 13
0.0
 23
0.0
 14
1.0
 24
1.0
 15
0.0
 25
0.0
 16
0.0
 26
0.0
 36
1.0
 17
105.6535468009907
 27
-147.9782796564918
 37
0.0
 40
214.172459946457
 41
1.00113195111493
 42
50.0
 43
0.0
 44
0.0
 50
0.0
 51
0.0
 71
     0
 72
   100
 73
     1
 74
     0
 75
     1
 76
     0
 77
     0
 78
     0
281
     0
 65
     1
110
0.0
120
0.0
130
0.0
111
1.0
121
0.0
131
0.0
112
0.0
122
1.0
132
0.0
 79
     0
146
0.0
 60
     3
 61
     5
292
     1
282
     1
141
0.0
142
0.0
 63
   250
421
  3355443
  0
ENDTAB
  0
TABLE
  2
LTYPE
  5
5
330
0
100
AcDbSymbolTable
 70
     1
  0
LTYPE
  5
5B
330
5
100
AcDbSymbolTableRecord
100
AcDbLinetypeTableRecord
  2
ByBlock
 70
     0
  3

 72
    65
 73
     0
 40
0.0
  0
LTYPE
  5
5C
330
5
100
AcDbSymbolTableRecord
100
AcDbLinetypeTableRecord
  2
ByLayer
 70
     0
  3

 72
    65
 73
     0
 40
0.0
  0
LTYPE
  5
5D
330
5
100
AcDbSymbolTableRecord
100
AcDbLinetypeTableRecord
  2
Continuous
 70
     0
  3
Solid line
 72
    65
 73
     0
 40
0.0
  0
ENDTAB
  0
TABLE
  2
LAYER
  5
2
330
0
100
AcDbSymbolTable
 70
     4
  0
LAYER
  5
54
330
2
100
AcDbSymbolTableRecord
100
AcDbLayerTableRecord
  2
0
 70
     0
 62
     7
  6
Continuous
370
    -3
390
F
347
21
348
0
  0
LAYER
  5
78
330
2
100
AcDbSymbolTableRecord
100
AcDbLayerTableRecord
  2
Слой 3
 70
     4
 62
     7
  6
Continuous
370
     0
390
F
347
21
348
0
  0
LAYER
  5
7A
330
2
100
AcDbSymbolTableRecord
100
AcDbLayerTableRecord
  2
Слой 1
 70
     0
 62
     7
  6
Continuous
370
     0
390
F
347
21
348
0
  0
LAYER
  5
1A4
330
2
100
AcDbSymbolTableRecord
100
AcDbLayerTableRecord
  2
Слой 2
 70
     0
 62
     7
  6
Continuous
370
     0
390
F
347
21
348
0
  0
ENDTAB
  0
TABLE
  2
STYLE
  5
3
330
0
100
AcDbSymbolTable
 70
     2
  0
STYLE
  5
55
330
3
100
AcDbSymbolTableRecord
100
AcDbTextStyleTableRecord
  2
Standard
 70
     0
 40
0.0
 41
1.0
 50
0.0
 71
     0
 42
0.2
  3
txt
  4

  0
STYLE
  5
5A
330
3
100
AcDbSymbolTableRecord
100
AcDbTextStyleTableRecord
  2
Annotative
 70
     0
 40
0.0
 41
1.0
 50
0.0
 71
     0
 42
0.2
  3
txt
  4

1001
AcadAnnotative
1000
AnnotativeData
1002
{
1070
     1
1070
     1
1002
}
  0
ENDTAB
  0
TABLE
  2
VIEW
  5
6
330
0
100
AcDbSymbolTable
 70
     0
  0
ENDTAB
  0
TABLE
  2
UCS
  5
7
330
0
100
AcDbSymbolTable
 70
     0
  0
ENDTAB
  0
TABLE
  2
APPID
  5
9
330
0
100
AcDbSymbolTable
 70
     2
  0
APPID
  5
56
330
9
100
AcDbSymbolTableRecord
100
AcDbRegAppTableRecord
  2
ACAD
 70
     0
  0
APPID
  5
5E
330
9
100
AcDbSymbolTableRecord
100
AcDbRegAppTableRecord
  2
AcadAnnotative
 70
     0
  0
ENDTAB
  0
TABLE
  2
DIMSTYLE
  5
A
330
0
100
AcDbSymbolTable
 70
     2
100
AcDbDimStyleTable
 71
     0
  0
DIMSTYLE
105
58
330
A
100
AcDbSymbolTableRecord
100
AcDbDimStyleTableRecord
  2
Standard
 70
     0
340
55
  0
DIMSTYLE
105
59
330
A
100
AcDbSymbolTableRecord
100
AcDbDimStyleTableRecord
  2
Annotative
 70
     0
340
55
1001
AcadAnnotative
1000
AnnotativeData
1002
{
1070
     1
1070
     1
1002
}
  0
ENDTAB
  0
TABLE
  2
BLOCK_RECORD
  5
1
330
0
100
AcDbSymbolTable
 70
    11
  0
BLOCK_RECORD
  5
70
330
1
100
AcDbSymbolTableRecord
100
AcDbBlockTableRecord
  2
*Model_Space
340
73
 70
     0
280
     1
281
     0
  0
BLOCK_RECORD
  5
6C
330
1
100
AcDbSymbolTableRecord
100
AcDbBlockTableRecord
  2
*Paper_Space
340
6F
 70
     0
280
     1
281
     0
  0
BLOCK_RECORD
  5
74
330
1
100
AcDbSymbolTableRecord
100
AcDbBlockTableRecord
  2
*Paper_Space0
340
77
 70
     0
280
     1
281
     0
  0
BLOCK_RECORD
  5
90
330
1
100
AcDbSymbolTableRecord
100
AcDbBlockTableRecord
  2
Block_0
340
0
102
{BLKREFS
331
91
102
}
 70
     0
280
     1
281
     0
  0
BLOCK_RECORD
  5
DC
330
1
100
AcDbSymbolTableRecord
100
AcDbBlockTableRecord
  2
Block_1
340
0
102
{BLKREFS
331
DD
102
}
 70
     0
280
     1
281
     0
  0
BLOCK_RECORD
  5
E7
330
1
100
AcDbSymbolTableRecord
100
AcDbBlockTableRecord
  2
Block_2
340
0
102
{BLKREFS
331
E8
102
}
 70
     0
280
     1
281
     0
  0
BLOCK_RECORD
  5
1A5
330
1
100
AcDbSymbolTableRecord
100
AcDbBlockTableRecord
  2
Block_3
340
0
102
{BLKREFS
331
1A6
102
}
 70
     0
280
     1
281
     0
  0
BLOCK_RECORD
  5
1A9
330
1
100
AcDbSymbolTableRecord
100
AcDbBlockTableRecord
  2
Block_4
340
0
102
{BLKREFS
331
1AA
102
}
 70
     0
280
     1
281
     0
  0
BLOCK_RECORD
  5
1AD
330
1
100
AcDbSymbolTableRecord
100
AcDbBlockTableRecord
  2
Block_5
340
0
102
{BLKREFS
331
1AE
102
}
 70
     0
280
     1
281
     0
  0
BLOCK_RECORD
  5
1CC
330
1
100
AcDbSymbolTableRecord
100
AcDbBlockTableRecord
  2
Block_6
340
0
102
{BLKREFS
331
1CD
102
}
 70
     0
280
     1
281
     0
  0
BLOCK_RECORD
  5
1D2
330
1
100
AcDbSymbolTableRecord
100
AcDbBlockTableRecord
  2
Block_7
340
0
102
{BLKREFS
331
1D3
102
}
 70
     0
280
     1
281
     0
  0
BLOCK_RECORD
  5
1D9
330
1
100
AcDbSymbolTableRecord
100
AcDbBlockTableRecord
  2
Block_8
340
0
102
{BLKREFS
331
1DA
102
}
 70
     0
280
     1
281
     0
  0
BLOCK_RECORD
  5
1E0
330
1
100
AcDbSymbolTableRecord
100
AcDbBlockTableRecord
  2
Block_9
340
0
102
{BLKREFS
331
1E1
102
}
 70
     0
280
     1
281
     0
  0
ENDTAB
  0
ENDSEC
  0
SECTION
  2
BLOCKS
  0
BLOCK
  5
71
330
70
100
AcDbEntity
  8
0
100
AcDbBlockBegin
  2
*Model_Space
 70
     0
 10
0.0
 20
0.0
 30
0.0
  3
*Model_Space
  1

  0
ENDBLK
  5
72
330
70
100
AcDbEntity
  8
0
100
AcDbBlockEnd
  0
BLOCK
  5
6D
330
6C
100
AcDbEntity
 67
     1
  8
0
100
AcDbBlockBegin
  2
*Paper_Space
 70
     0
 10
0.0
 20
0.0
 30
0.0
  3
*Paper_Space
  1

  0
ENDBLK
  5
6E
330
6C
100
AcDbEntity
 67
     1
  8
0
100
AcDbBlockEnd
  0
BLOCK
  5
75
330
74
100
AcDbEntity
 67
     1
  8
0
100
AcDbBlockBegin
  2
*Paper_Space0
 70
     0
 10
0.0
 20
0.0
 30
0.0
  3
*Paper_Space0
  1

  0
ENDBLK
  5
76
330
74
100
AcDbEntity
 67
     1
  8
0
100
AcDbBlockEnd
  0
BLOCK
  5
92
330
90
100
AcDbEntity
  8
0
100
AcDbBlockBegin
  2
Block_0
 70
     0
 10
0.0
 20
0.0
 30
0.0
  3
Block_0
  1

  0
LINE
  5
94
330
90
100
AcDbEntity
  8
Слой 1
 62
   250
420
  3947579
370
    25
100
AcDbLine
 10
70.73730857233012
 20
-191.2770971971705
 30
0.0
 11
78.49226747695481
 21
-191.4896286992535
 31
0.0
  0
LINE
  5
95
330
90
100
AcDbEntity
  8
Слой 1
 62
   250
420
  3947579
370
    25
100
AcDbLine
 10
70.47855600026173
 20
-191.2770971971705
 30
0.0
 11
46.3466282316862
 21
-190.6447098244597
 31
0.0
  0
LINE
  5
96
330
90
100
AcDbEntity
  8
Слой 1
 62
   250
420
  3947579
370
    25
100
AcDbLine
 10
70.47855600026173
 20
-190.4569153106193
 30
0.0
 11
70.73730857233012
 21
-190.4569153106193
 31
0.0
  0
LINE
  5
97
330
90
100
AcDbEntity
  8
Слой 1
 62
   250
420
  3947579
370
    25
100
AcDbLine
 10
45.78258914259419
 20
-179.2819200348112
 30
0.0
 11
35.54494246587097
 21
-178.9522193370579
 31
0.0
  0
LINE
  5
98
330
90
100
AcDbEntity
  8
Слой 1
 62
   250
420
  3947579
370
    25
100
AcDbLine
 10
77.92855616164882
 20
-164.1453167018221
 30
0.0
 11
76.50039611684473
 21
-165.8781126823496
 31
0.0
  0
LINE
  5
99
330
90
100
AcDbEntity
  8
Слой 1
 62
   250
420
  3947579
370
    25
100
AcDbLine
 10
59.87357566632132
 20
-156.81412576862
 30
0.0
 11
59.75001194611992
 21
-156.8627231072435
 31
0.0
  0
LINE
  5
9A
330
90
100
AcDbEntity
  8
Слой 1
 62
   250
420
  3947579
370
    25
100
AcDbLine
 10
59.75001194611992
 20
-156.8627231072435
 30
0.0
 11
64.19400384827165
 21
-156.8627231072435
 31
0.0
  0
LINE
  5
9B
330
90
100
AcDbEntity
  8
Слой 1
 62
   250
420
  3947579
370
    25
100
AcDbLine
 10
70.73730857233012
 20
-176.984757191405
 30
0.0
 11
70.47855600026173
 21
-176.984757191405
 31
0.0
  0
LINE
  5
9C
330
90
100
AcDbEntity
  8
Слой 1
 62
   250
420
  3947579
370
    25
100
AcDbLine
 10
78.49226747695481
 20
-191.4896286992535
 30
0.0
 11
78.49226747695481
 21
-164.1453167018221
 31
0.0
  0
LINE
  5
9D
330
90
100
AcDbEntity
  8
Слой 1
 62
   250
420
  3947579
370
    25
100
AcDbLine
 10
78.49226747695481
 20
-132.8172545347663
 30
0.0
 11
78.49226747695481
 21
-108.167503780811
 31
0.0
  0
LINE
  5
9E
330
90
100
AcDbEntity
  8
Слой 1
 62
   250
420
  3947579
370
    25
100
AcDbLine
 10
74.90657125497141
 20
-166.2055388286849
 30
0.0
 11
75.84392482032594
 21
-162.8564555494588
 31
0.0
  0
LINE
  5
9F
330
90
100
AcDbEntity
  8
Слой 1
 62
   250
420
  3947579
370
    25
100
AcDbLine
 10
64.07044012807216
 20
-151.5905333025981
 30
0.0
 11
64.19400384827165
 21
-151.541930741822
 31
0.0
  0
LINE
  5
A0
330
90
100
AcDbEntity
  8
Слой 1
 62
   250
420
  3947579
370
    25
100
AcDbLine
 10
70.47855600026173
 20
-172.6742438724197
 30
0.0
 11
70.73730857233012
 21
-172.6742438724197
 31
0.0
  0
LINE
  5
A1
330
90
100
AcDbEntity
  8
Слой 1
 62
   250
420
  3947579
370
    25
100
AcDbLine
 10
76.50039611684473
 20
-165.8781126823496
 30
0.0
 11
76.50039611684473
 21
-166.2540294838164
 31
0.0
  0
LINE
  5
A2
330
90
100
AcDbEntity
  8
Слой 1
 62
   250
420
  3947579
370
    25
100
AcDbLine
 10
74.90657125497141
 20
-133.4493116505564
 30
0.0
 11
74.90657125497141
 21
-160.3005451002568
 31
0.0
  0
LINE
  5
A3
330
90
100
AcDbEntity
  8
Слой 1
 62
   250
420
  3947579
370
    25
100
AcDbLine
 10
64.19400384827165
 20
-151.541930741822
 30
0.0
 11
59.75001194611992
 21
-151.541930741822
 31
0.0
  0
LINE
  5
A4
330
90
100
AcDbEntity
  8
Слой 1
 62
   250
420
  3947579
370
    25
100
AcDbLine
 10
35.07627561573277
 20
-170.774799753468
 30
0.0
 11
26.38396314575196
 21
-170.5407891359134
 31
0.0
  0
LINE
  5
A5
330
90
100
AcDbEntity
  8
Слой 1
 62
   250
420
  3947579
370
    25
100
AcDbLine
 10
70.73730857233012
 20
-108.3777557652061
 30
0.0
 11
70.73730857233012
 21
-191.2770971971705
 31
0.0
  0
LINE
  5
A6
330
90
100
AcDbEntity
  8
Слой 1
 62
   250
420
  3947579
370
    25
100
AcDbLine
 10
70.47855600026173
 20
-191.2770971971705
 30
0.0
 11
70.47855600026173
 21
-108.3777557652061
 31
0.0
  0
LINE
  5
A7
330
90
100
AcDbEntity
  8
Слой 1
 62
   250
420
  3947579
370
    25
100
AcDbLine
 10
64.19400384827165
 20
-142.9051947848512
 30
0.0
 11
64.19400384827165
 21
-148.0990565096197
 31
0.0
  0
LINE
  5
A8
330
90
100
AcDbEntity
  8
Слой 1
 62
   250
420
  3947579
370
    25
100
AcDbLine
 10
64.19400384827165
 20
-156.8627231072435
 30
0.0
 11
64.19400384827165
 21
-151.541930741822
 31
0.0
  0
LINE
  5
A9
330
90
100
AcDbEntity
  8
Слой 1
 62
   250
420
  3947579
370
    25
100
AcDbLine
 10
78.49226747695481
 20
-164.1453167018221
 30
0.0
 11
77.92855616164882
 21
-164.1453167018221
 31
0.0
  0
LINE
  5
AA
330
90
100
AcDbEntity
  8
Слой 1
 62
   250
420
  3947579
370
    25
100
AcDbLine
 10
76.50039611684473
 20
-166.2540294838164
 30
0.0
 11
74.90657125497141
 21
-166.2055388286849
 31
0.0
  0
LINE
  5
AB
330
90
100
AcDbEntity
  8
Слой 1
 62
   250
420
  3947579
370
    25
100
AcDbLine
 10
59.75001194611992
 20
-151.541930741822
 30
0.0
 11
59.75001194611992
 21
-156.8627231072435
 31
0.0
  0
LINE
  5
AC
330
90
100
AcDbEntity
  8
Слой 1
 62
   250
420
  3947579
370
    25
100
AcDbLine
 10
59.75001194611992
 20
-148.0990565096197
 30
0.0
 11
59.75001194611992
 21
-142.9051947848512
 31
0.0
  0
LINE
  5
AD
330
90
100
AcDbEntity
  8
Слой 1
 62
   250
420
  3947579
370
    25
100
AcDbLine
 10
70.47855600026173
 20
-156.3877505057241
 30
0.0
 11
70.73730857233012
 21
-156.3656208089535
 31
0.0
  0
LINE
  5
AE
330
90
100
AcDbEntity
  8
Слой 1
 62
   250
420
  3947579
370
    25
100
AcDbLine
 10
70.73730857233012
 20
-156.2705813100538
 30
0.0
 11
70.47855600026173
 21
-156.2949905245122
 31
0.0
  0
LINE
  5
AF
330
90
100
AcDbEntity
  8
Слой 1
 62
   250
420
  3947579
370
    25
100
AcDbLine
 10
64.07044012807216
 20
-156.81412576862
 30
0.0
 11
64.19400384827165
 21
-156.8627231072435
 31
0.0
  0
LINE
  5
B0
330
90
100
AcDbEntity
  8
Слой 1
 62
   250
420
  3947579
370
    25
100
AcDbLine
 10
59.87357566632132
 20
-151.5905333025981
 30
0.0
 11
59.75001194611992
 21
-151.541930741822
 31
0.0
  0
LINE
  5
B1
330
90
100
AcDbEntity
  8
Слой 1
 62
   250
420
  3947579
370
    25
100
AcDbLine
 10
46.15850594406039
 20
-190.4569153106193
 30
0.0
 11
45.78258914259419
 21
-179.2819200348112
 31
0.0
  0
LINE
  5
B2
330
90
100
AcDbEntity
  8
Слой 1
 62
   250
420
  3947579
370
    25
100
AcDbLine
 10
45.78258914259419
 20
-120.375209962119
 30
0.0
 11
46.15850594406039
 21
-109.1979351686229
 31
0.0
  0
LINE
  5
B3
330
90
100
AcDbEntity
  8
Слой 1
 62
   250
420
  3947579
370
    25
100
AcDbLine
 10
59.87357566632132
 20
-148.0512951976429
 30
0.0
 11
59.75001194611992
 21
-148.0990565096197
 31
0.0
  0
LINE
  5
B4
330
90
100
AcDbEntity
  8
Слой 1
 62
   250
420
  3947579
370
    25
100
AcDbLine
 10
70.73730857233012
 20
-143.3842741354562
 30
0.0
 11
70.47855600026173
 21
-143.3842741354562
 31
0.0
  0
LINE
  5
B5
330
90
100
AcDbEntity
  8
Слой 1
 62
   250
420
  3947579
370
    25
100
AcDbLine
 10
70.47855600026173
 20
-143.2915141542452
 30
0.0
 11
70.73730857233012
 21
-143.2915141542452
 31
0.0
  0
LINE
  5
B6
330
90
100
AcDbEntity
  8
Слой 1
 62
   250
420
  3947579
370
    25
100
AcDbLine
 10
64.07044012807216
 20
-142.952956096827
 30
0.0
 11
64.19400384827165
 21
-142.9051947848512
 31
0.0
  0
LINE
  5
B7
330
90
100
AcDbEntity
  8
Слой 1
 62
   250
420
  3947579
370
    25
100
AcDbLine
 10
78.49226747695481
 20
-132.8172545347663
 30
0.0
 11
74.90657125497141
 21
-133.4493116505564
 31
0.0
  0
LINE
  5
B8
330
90
100
AcDbEntity
  8
Слой 1
 62
   250
420
  3947579
370
    25
100
AcDbLine
 10
75.79738094282699
 20
-162.3877787667827
 30
0.0
 11
74.90657125497141
 21
-160.3005451002568
 31
0.0
  0
LINE
  5
B9
330
90
100
AcDbEntity
  8
Слой 1
 62
   250
420
  3947579
370
    25
100
AcDbLine
 10
35.35714795203056
 20
-178.7644248232168
 30
0.0
 11
35.07627561573277
 21
-170.774799753468
 31
0.0
  0
LINE
  5
BA
330
90
100
AcDbEntity
  8
Слой 1
 62
   250
420
  3947579
370
    25
100
AcDbLine
 10
35.07627561573277
 20
-128.9041321664485
 30
0.0
 11
35.35714795203056
 21
-120.8901028485099
 31
0.0
  0
LINE
  5
BB
330
90
100
AcDbEntity
  8
Слой 1
 62
   250
420
  3947579
370
    25
100
AcDbLine
 10
26.38396314575196
 20
-129.1140663095971
 30
0.0
 11
35.07627561573277
 21
-128.9041321664485
 31
0.0
  0
LINE
  5
BC
330
90
100
AcDbEntity
  8
Слой 1
 62
   250
420
  3947579
370
    25
100
AcDbLine
 10
64.19400384827165
 20
-148.0990565096197
 30
0.0
 11
59.75001194611992
 21
-148.0990565096197
 31
0.0
  0
LINE
  5
BD
330
90
100
AcDbEntity
  8
Слой 1
 62
   250
420
  3947579
370
    25
100
AcDbLine
 10
35.54494246587097
 20
-120.7023083346686
 30
0.0
 11
45.78258914259419
 21
-120.375209962119
 31
0.0
  0
LINE
  5
BE
330
90
100
AcDbEntity
  8
Слой 1
 62
   250
420
  3947579
370
    25
100
AcDbLine
 10
59.75001194611992
 20
-142.9051947848512
 30
0.0
 11
64.19400384827165
 21
-142.9051947848512
 31
0.0
  0
LINE
  5
BF
330
90
100
AcDbEntity
  8
Слой 1
 62
   250
420
  3947579
370
    25
100
AcDbLine
 10
64.07044012807216
 20
-148.0512951976429
 30
0.0
 11
64.19400384827165
 21
-148.0990565096197
 31
0.0
  0
LINE
  5
C0
330
90
100
AcDbEntity
  8
Слой 1
 62
   250
420
  3947579
370
    25
100
AcDbLine
 10
59.87357566632132
 20
-142.952956096827
 30
0.0
 11
59.75001194611992
 21
-142.9051947848512
 31
0.0
  0
LINE
  5
C1
330
90
100
AcDbEntity
  8
Слой 1
 62
   250
420
  3947579
370
    25
100
AcDbLine
 10
24.57988629948262
 20
-168.6901684121455
 30
0.0
 11
24.57988629948262
 21
-130.9669615847824
 31
0.0
  0
LINE
  5
C2
330
90
100
AcDbEntity
  8
Слой 1
 62
   250
420
  3947579
370
    25
100
AcDbLine
 10
70.73730857233012
 20
-109.1979351686229
 30
0.0
 11
70.47855600026173
 21
-109.2223493493494
 31
0.0
  0
LINE
  5
C3
330
90
100
AcDbEntity
  8
Слой 1
 62
   250
420
  3947579
370
    25
100
AcDbLine
 10
46.3466282316862
 20
-109.0098128809965
 30
0.0
 11
70.47855600026173
 21
-108.3777557652061
 31
0.0
  0
LINE
  5
C4
330
90
100
AcDbEntity
  8
Слой 1
 62
   250
420
  3947579
370
    25
100
AcDbLine
 10
78.49226747695481
 20
-108.167503780811
 30
0.0
 11
70.73730857233012
 21
-108.3777557652061
 31
0.0
  0
SPLINE
  5
C5
330
90
100
AcDbEntity
  8
Слой 1
 62
   250
420
  3947579
370
    25
100
AcDbSpline
210
0.0
220
0.0
230
1.0
 70
     8
 71
     3
 72
     8
 73
     4
 74
     0
 42
0.0000000001
 43
0.0000000001
 40
0.0
 40
0.0
 40
0.0
 40
0.0
 40
1.0
 40
1.0
 40
1.0
 40
1.0
 10
26.38396314575196
 20
-129.1602824133103
 30
0.0
 10
25.3951788937379
 20
-129.1677616151364
 30
0.0
 10
24.5922523104699
 20
-129.9684235795243
 30
0.0
 10
24.57988629948262
 20
-130.9643592595803
 30
0.0
  0
SPLINE
  5
C6
330
90
100
AcDbEntity
  8
Слой 1
 62
   250
420
  3947579
370
    25
100
AcDbSpline
210
0.0
220
0.0
230
1.0
 70
     8
 71
     3
 72
    11
 73
     7
 74
     0
 42
0.0000000001
 43
0.0000000001
 40
0.0
 40
0.0
 40
0.0
 40
0.0
 40
1.0
 40
1.0
 40
1.0
 40
2.0
 40
2.0
 40
2.0
 40
2.0
 10
24.57988629948262
 20
-168.6901684121455
 30
0.0
 10
24.57988629948262
 20
-168.6830120178355
 30
0.0
 10
24.57988629948262
 20
-168.6950502550381
 30
0.0
 10
24.57988629948262
 20
-168.7246690861719
 30
0.0
 10
24.57988629948262
 20
-169.7228842839155
 30
0.0
 10
25.38541520795464
 20
-170.5333049678174
 30
0.0
 10
26.38396314575196
 20
-170.5407891359134
 30
0.0
  0
LINE
  5
C7
330
90
100
AcDbEntity
  8
Слой 1
 62
   250
420
  3947579
370
    25
100
AcDbLine
 10
75.84392482032594
 20
-162.8564555494588
 30
0.0
 11
75.84392482032594
 21
-162.7855024575021
 31
0.0
  0
LINE
  5
C8
330
90
100
AcDbEntity
  8
Слой 1
 62
   250
420
  3947579
370
    25
100
AcDbLine
 10
75.84392482032594
 20
-162.7855024575021
 30
0.0
 11
75.86832906851544
 21
-162.7145493655472
 31
0.0
  0
LINE
  5
C9
330
90
100
AcDbEntity
  8
Слой 1
 62
   250
420
  3947579
370
    25
100
AcDbLine
 10
75.86832906851544
 20
-162.7145493655472
 30
0.0
 11
75.86832906851544
 21
-162.6439240473746
 31
0.0
  0
LINE
  5
CA
330
90
100
AcDbEntity
  8
Слой 1
 62
   250
420
  3947579
370
    25
100
AcDbLine
 10
75.86832906851544
 20
-162.6439240473746
 30
0.0
 11
75.86832906851544
 21
-162.5729709554178
 31
0.0
  0
LINE
  5
CB
330
90
100
AcDbEntity
  8
Слой 1
 62
   250
420
  3947579
370
    25
100
AcDbLine
 10
75.86832906851544
 20
-162.5729709554178
 30
0.0
 11
75.84392482032594
 21
-162.5049479624505
 31
0.0
  0
LINE
  5
CC
330
90
100
AcDbEntity
  8
Слой 1
 62
   250
420
  3947579
370
    25
100
AcDbLine
 10
75.84392482032594
 20
-162.5049479624505
 30
0.0
 11
75.82178519101681
 21
-162.4584090512221
 31
0.0
  0
LINE
  5
CD
330
90
100
AcDbEntity
  8
Слой 1
 62
   250
420
  3947579
370
    25
100
AcDbLine
 10
75.82178519101681
 20
-162.4584090512221
 30
0.0
 11
75.79738094282699
 21
-162.3877787667827
 31
0.0
  0
SPLINE
  5
CE
330
90
100
AcDbEntity
  8
Слой 1
 62
   250
420
  3947579
370
    25
100
AcDbSpline
210
0.0
220
0.0
230
1.0
 70
     8
 71
     3
 72
    11
 73
     7
 74
     0
 42
0.0000000001
 43
0.0000000001
 40
0.0
 40
0.0
 40
0.0
 40
0.0
 40
1.0
 40
1.0
 40
1.0
 40
2.0
 40
2.0
 40
2.0
 40
2.0
 10
46.33913909732158
 20
-109.0586412424523
 30
0.0
 10
46.33426222069892
 20
-109.0586412424523
 30
0.0
 10
46.32937541153832
 20
-109.0586412424523
 30
0.0
 10
46.32221405095941
 20
-109.0586412424523
 30
0.0
 10
46.24150223948803
 20
-109.0586412424523
 30
0.0
 10
46.170871955048
 20
-109.1198256823562
 30
0.0
 10
46.1611082692641
 20
-109.2002196525798
 30
0.0
  0
SPLINE
  5
CF
330
90
100
AcDbEntity
  8
Слой 1
 62
   250
420
  3947579
370
    25
100
AcDbSpline
210
0.0
220
0.0
230
1.0
 70
     8
 71
     3
 72
    14
 73
    10
 74
     0
 42
0.0000000001
 43
0.0000000001
 40
0.0
 40
0.0
 40
0.0
 40
0.0
 40
1.0
 40
1.0
 40
1.0
 40
2.0
 40
2.0
 40
2.0
 40
3.0
 40
3.0
 40
3.0
 40
3.0
 10
35.35943243598842
 20
-178.7670271484195
 30
0.0
 10
35.35714795203056
 20
-178.7741885089994
 30
0.0
 10
35.35714795203056
 20
-178.7816776433647
 30
0.0
 10
35.35714795203056
 20
-178.7888340376746
 30
0.0
 10
35.35714795203056
 20
-178.8815940188865
 30
0.0
 10
35.43038056167525
 20
-178.9522193370579
 30
0.0
 10
35.52053821768211
 20
-178.9522193370579
 30
0.0
 10
35.52802735204738
 20
-178.9522193370579
 30
0.0
 10
35.53517878008803
 20
-178.9522193370579
 30
0.0
 10
35.54266791445265
 20
-178.9499447856386
 30
0.0
  0
SPLINE
  5
D0
330
90
100
AcDbEntity
  8
Слой 1
 62
   250
420
  3947579
370
    25
100
AcDbSpline
210
0.0
220
0.0
230
1.0
 70
     8
 71
     3
 72
    11
 73
     7
 74
     0
 42
0.0000000001
 43
0.0000000001
 40
0.0
 40
0.0
 40
0.0
 40
0.0
 40
1.0
 40
1.0
 40
1.0
 40
2.0
 40
2.0
 40
2.0
 40
2.0
 10
35.53779103783
 20
-120.7462399544233
 30
0.0
 10
35.53290422866972
 20
-120.7462399544233
 30
0.0
 10
35.52802735204738
 20
-120.7462399544233
 30
0.0
 10
35.52053821768211
 20
-120.7462399544233
 30
0.0
 10
35.44014424745787
 20
-120.7462399544233
 30
0.0
 10
35.36919612177103
 20
-120.8074343268664
 30
0.0
 10
35.35943243598842
 20
-120.8878183645518
 30
0.0
  0
SPLINE
  5
D1
330
90
100
AcDbEntity
  8
Слой 1
 62
   250
420
  3947579
370
    25
100
AcDbSpline
210
0.0
220
0.0
230
1.0
 70
     8
 71
     3
 72
    14
 73
    10
 74
     0
 42
0.0000000001
 43
0.0000000001
 40
0.0
 40
0.0
 40
0.0
 40
0.0
 40
1.0
 40
1.0
 40
1.0
 40
2.0
 40
2.0
 40
2.0
 40
3.0
 40
3.0
 40
3.0
 40
3.0
 10
46.1611082692641
 20
-190.4595176358233
 30
0.0
 10
46.15850594406039
 20
-190.4666789964025
 30
0.0
 10
46.15850594406039
 20
-190.4741656476319
 30
0.0
 10
46.15850594406039
 20
-190.4813245250771
 30
0.0
 10
46.15850594406039
 20
-190.5740845062877
 30
0.0
 10
46.23173855370509
 20
-190.6447098244597
 30
0.0
 10
46.32221405095941
 20
-190.6447098244597
 30
0.0
 10
46.32937541153832
 20
-190.6447098244597
 30
0.0
 10
46.33686454590263
 20
-190.6447098244597
 30
0.0
 10
46.34402590648218
 20
-190.6424327899064
 30
0.0
  0
ENDBLK
  5
93
330
90
100
AcDbEntity
  8
0
100
AcDbBlockEnd
  0
BLOCK
  5
DE
330
DC
100
AcDbEntity
  8
0
100
AcDbBlockBegin
  2
Block_1
 70
     0
 10
0.0
 20
0.0
 30
0.0
  3
Block_1
  1

  0
LINE
  5
E0
330
DC
100
AcDbEntity
  8
Слой 1
 62
   250
420
  3947579
370
    25
100
AcDbLine
 10
78.42356733268356
 20
-108.1458908191923
 30
0.0
 11
78.42356733268356
 21
-105.9228190427031
 31
0.0
  0
LINE
  5
E1
330
DC
100
AcDbEntity
  8
Слой 1
 62
   250
420
  3947579
370
    25
100
AcDbLine
 10
74.32036964710971
 20
-108.2729697882234
 30
0.0
 11
74.32036964710971
 21
-105.9228190427031
 31
0.0
  0
LINE
  5
E2
330
DC
100
AcDbEntity
  8
Слой 1
 62
   250
420
  3947579
370
    25
100
AcDbLine
 10
74.44440711489697
 20
-105.7957400736719
 30
0.0
 11
76.35717935611435
 21
-105.733502192309
 31
0.0
  0
LINE
  5
E3
330
DC
100
AcDbEntity
  8
Слой 1
 62
   250
420
  3947579
370
    25
100
AcDbLine
 10
74.38260752847266
 20
-106.2984112422451
 30
0.0
 11
74.32036964710971
 21
-106.2984112422451
 31
0.0
  0
LINE
  5
E4
330
DC
100
AcDbEntity
  8
Слой 1
 62
   250
420
  3947579
370
    25
100
AcDbLine
 10
78.29952986489565
 20
-105.7957400736719
 30
0.0
 11
76.35717935611435
 21
-105.733502192309
 31
0.0
  0
SPLINE
  5
E5
330
DC
100
AcDbEntity
  8
Слой 1
 62
   250
420
  3947579
370
    25
100
AcDbSpline
210
0.0
220
0.0
230
1.0
 70
     8
 71
     3
 72
     8
 73
     4
 74
     0
 42
0.0000000001
 43
0.0000000001
 40
0.0
 40
0.0
 40
0.0
 40
0.0
 40
1.0
 40
1.0
 40
1.0
 40
1.0
 10
78.42356733268356
 20
-105.945695052894
 30
0.0
 10
78.40048602950869
 20
-105.8707175632825
 30
0.0
 10
78.333293111117
 20
-105.8140712944267
 30
0.0
 10
78.25002899356464
 20
-105.7957400736719
 30
0.0
  0
SPLINE
  5
E6
330
DC
100
AcDbEntity
  8
Слой 1
 62
   250
420
  3947579
370
    25
100
AcDbSpline
210
0.0
220
0.0
230
1.0
 70
     8
 71
     3
 72
    11
 73
     7
 74
     0
 42
0.0000000001
 43
0.0000000001
 40
0.0
 40
0.0
 40
0.0
 40
0.0
 40
1.0
 40
1.0
 40
1.0
 40
2.0
 40
2.0
 40
2.0
 40
2.0
 10
74.49609154772727
 20
-105.7957400736719
 30
0.0
 10
74.49042588959838
 20
-105.7957400736719
 30
0.0
 10
74.48545222024768
 20
-105.7957400736719
 30
0.0
 10
74.4797865621188
 20
-105.7957400736719
 30
0.0
 10
74.41106342648517
 20
-105.7957400736719
 30
0.0
 10
74.34729233554975
 20
-105.8513991203299
 30
0.0
 10
74.32036964710971
 20
-105.9423051217674
 30
0.0
  0
ENDBLK
  5
DF
330
DC
100
AcDbEntity
  8
0
100
AcDbBlockEnd
  0
BLOCK
  5
E9
330
E7
100
AcDbEntity
  8
0
100
AcDbBlockBegin
  2
Block_2
 70
     0
 10
0.0
 20
0.0
 30
0.0
  3
Block_2
  1

  0
SPLINE
  5
EB
330
E7
100
AcDbEntity
  8
Слой 1
 62
   250
420
  3947579
370
    25
100
AcDbSpline
210
0.0
220
0.0
230
1.0
 70
    24
 71
     3
 72
     8
 73
     4
 74
     0
 42
0.0000000001
 43
0.0000000001
 40
0.0
 40
0.0
 40
0.0
 40
0.0
 40
1.0
 40
1.0
 40
1.0
 40
1.0
 10
103.7340091999122
 20
-191.1492095325619
 30
0.0
 10
103.7340091999122
 20
-191.1492095325619
 30
0.0
 10
104.1322957036612
 20
-191.6470673287194
 30
0.0
 10
104.1322957036612
 20
-191.6470673287194
 30
0.0
  0
SPLINE
  5
EC
330
E7
100
AcDbEntity
  8
Слой 1
 62
   250
420
  3947579
370
    25
100
AcDbSpline
210
0.0
220
0.0
230
1.0
 70
    27
 71
     3
 72
    11
 73
     7
 74
     0
 42
0.0000000001
 43
0.0000000001
 40
0.0
 40
0.0
 40
0.0
 40
0.0
 40
1.0
 40
1.0
 40
1.0
 40
2.0
 40
2.0
 40
2.0
 40
2.0
 10
104.2318672238447
 20
-191.4479241256529
 30
0.0
 10
104.2318672238447
 20
-191.4479241256529
 30
0.0
 10
103.8335807200877
 20
-190.9500410061018
 30
0.0
 10
103.8335807200877
 20
-190.9500410061018
 30
0.0
 10
103.8335807200877
 20
-190.9500410061018
 30
0.0
 10
104.2318672238447
 20
-191.4479241256529
 30
0.0
 10
104.2318672238447
 20
-191.4479241256529
 30
0.0
  0
LINE
  5
ED
330
E7
100
AcDbEntity
  8
Слой 1
 62
   250
420
  3947579
370
    25
100
AcDbLine
 10
200.1232290231325
 20
-191.6470359593709
 30
0.0
 11
200.5215405248797
 21
-191.1491779028909
 31
0.0
  0
LWPOLYLINE
  5
EE
330
E7
100
AcDbEntity
  8
Слой 1
 62
   250
420
  3947579
370
    25
100
AcDbPolyline
 90
        8
 70
     0
 43
0.0
 10
188.4728703853681
 20
-185.4733735698061
 10
188.0745841744739
 20
-185.8716600410145
 10
187.5767010223931
 20
-186.1704002829027
 10
186.9792462525015
 20
-186.3695436486733
 10
186.3817660941364
 20
-186.3695438439269
 10
185.7843365174806
 20
-186.1704008686385
 10
185.2864784935372
 20
-185.8716609521533
 10
184.8881413755404
 20
-185.4733747412764
  0
SPLINE
  5
EF
330
E7
100
AcDbEntity
  8
Слой 1
 62
   250
420
  3947579
370
    25
100
AcDbSpline
210
0.0
220
0.0
230
1.0
 70
    24
 71
     3
 72
     8
 73
     4
 74
     0
 42
0.0000000001
 43
0.0000000001
 40
0.0
 40
0.0
 40
0.0
 40
0.0
 40
1.0
 40
1.0
 40
1.0
 40
1.0
 10
200.023653175031
 20
-178.6026518545954
 30
0.0
 10
200.023653175031
 20
-178.6026518545954
 30
0.0
 10
199.5257700554805
 20
-179.0009383583527
 30
0.0
 10
199.5257700554805
 20
-179.0009383583527
 30
0.0
  0
SPLINE
  5
F0
330
E7
100
AcDbEntity
  8
Слой 1
 62
   250
420
  3947579
370
    25
100
AcDbSpline
210
0.0
220
0.0
230
1.0
 70
    24
 71
     3
 72
     8
 73
     4
 74
     0
 42
0.0000000001
 43
0.0000000001
 40
0.0
 40
0.0
 40
0.0
 40
0.0
 40
1.0
 40
1.0
 40
1.0
 40
1.0
 10
104.8293406137229
 20
-170.736198523722
 30
0.0
 10
104.8293406137229
 20
-170.736198523722
 30
0.0
 10
104.3314825572435
 20
-170.3378870219742
 30
0.0
 10
104.3314825572435
 20
-170.3378870219742
 30
0.0
  0
LINE
  5
F1
330
E7
100
AcDbEntity
  8
Слой 1
 62
   250
420
  3947579
370
    25
100
AcDbLine
 10
199.5257511167306
 20
-121.0479206597241
 30
0.0
 11
199.5257511492711
 21
-121.1474922449865
 31
0.0
  0
LINE
  5
F2
330
E7
100
AcDbEntity
  8
Слой 1
 62
   250
420
  3947579
370
    25
100
AcDbLine
 10
200.5215305348519
 20
-160.5794603808868
 30
0.0
 11
200.5215311856663
 21
-162.5709680563254
 31
0.0
  0
SPLINE
  5
F3
330
E7
100
AcDbEntity
  8
Слой 1
 62
   250
420
  3947579
370
    25
100
AcDbSpline
210
0.0
220
0.0
230
1.0
 70
    24
 71
     3
 72
     8
 73
     4
 74
     0
 42
0.0000000001
 43
0.0000000001
 40
0.0
 40
0.0
 40
0.0
 40
0.0
 40
1.0
 40
1.0
 40
1.0
 40
1.0
 10
200.023653175031
 20
-178.6026518545954
 30
0.0
 10
200.023653175031
 20
-178.6026518545954
 30
0.0
 10
200.0236505392252
 20
-170.5370242441824
 30
0.0
 10
200.0236505392252
 20
-170.5370242441824
 30
0.0
  0
SPLINE
  5
F4
330
E7
100
AcDbEntity
  8
Слой 1
 62
   250
420
  3947579
370
    25
100
AcDbSpline
210
0.0
220
0.0
230
1.0
 70
    24
 71
     3
 72
     8
 73
     4
 74
     0
 42
0.0000000001
 43
0.0000000001
 40
0.0
 40
0.0
 40
0.0
 40
0.0
 40
1.0
 40
1.0
 40
1.0
 40
1.0
 10
200.5215136787118
 20
-108.9992773730207
 30
0.0
 10
200.5215136787118
 20
-108.9992773730207
 30
0.0
 10
200.5215215535828
 20
-133.0965632956055
 30
0.0
 10
200.5215215535828
 20
-133.0965632956055
 30
0.0
  0
SPLINE
  5
F5
330
E7
100
AcDbEntity
  8
Слой 1
 62
   250
420
  3947579
370
    25
100
AcDbSpline
210
0.0
220
0.0
230
1.0
 70
    24
 71
     3
 72
     8
 73
     4
 74
     0
 42
0.0000000001
 43
0.0000000001
 40
0.0
 40
0.0
 40
0.0
 40
0.0
 40
1.0
 40
1.0
 40
1.0
 40
1.0
 10
200.5215405248797
 20
-191.1491779028909
 30
0.0
 10
200.5215405248797
 20
-191.1491779028909
 30
0.0
 10
200.5215317714028
 20
-164.3633325612386
 30
0.0
 10
200.5215317714028
 20
-164.3633325612386
 30
0.0
  0
SPLINE
  5
F6
330
E7
100
AcDbEntity
  8
Слой 1
 62
   250
420
  3947579
370
    25
100
AcDbSpline
210
0.0
220
0.0
230
1.0
 70
    24
 71
     3
 72
     8
 73
     4
 74
     0
 42
0.0000000001
 43
0.0000000001
 40
0.0
 40
0.0
 40
0.0
 40
0.0
 40
1.0
 40
1.0
 40
1.0
 40
1.0
 10
200.5215305348519
 20
-160.5794603808868
 30
0.0
 10
200.5215305348519
 20
-160.5794603808868
 30
0.0
 10
200.5215217488268
 20
-133.6940181305763
 30
0.0
 10
200.5215217488268
 20
-133.6940181305763
 30
0.0
  0
SPLINE
  5
F7
330
E7
100
AcDbEntity
  8
Слой 1
 62
   250
420
  3947579
370
    25
100
AcDbSpline
210
0.0
220
0.0
230
1.0
 70
    24
 71
     3
 72
     8
 73
     4
 74
     0
 42
0.0000000001
 43
0.0000000001
 40
0.0
 40
0.0
 40
0.0
 40
0.0
 40
1.0
 40
1.0
 40
1.0
 40
1.0
 10
200.4219278990048
 20
-143.0541270287436
 30
0.0
 10
200.4219278990048
 20
-143.0541270287436
 30
0.0
 10
200.421929623673
 20
-148.3316489582219
 30
0.0
 10
200.421929623673
 20
-148.3316489582219
 30
0.0
  0
SPLINE
  5
F8
330
E7
100
AcDbEntity
  8
Слой 1
 62
   250
420
  3947579
370
    25
100
AcDbSpline
210
0.0
220
0.0
230
1.0
 70
    24
 71
     3
 72
     8
 73
     4
 74
     0
 42
0.0000000001
 43
0.0000000001
 40
0.0
 40
0.0
 40
0.0
 40
0.0
 40
1.0
 40
1.0
 40
1.0
 40
1.0
 10
200.421930762597
 20
-151.8167810593911
 30
0.0
 10
200.421930762597
 20
-151.8167810593911
 30
0.0
 10
200.4219324872633
 20
-157.0943029888694
 30
0.0
 10
200.4219324872633
 20
-157.0943029888694
 30
0.0
  0
SPLINE
  5
F9
330
E7
100
AcDbEntity
  8
Слой 1
 62
   250
420
  3947579
370
    25
100
AcDbSpline
210
0.0
220
0.0
230
1.0
 70
    24
 71
     3
 72
     8
 73
     4
 74
     0
 42
0.0000000001
 43
0.0000000001
 40
0.0
 40
0.0
 40
0.0
 40
0.0
 40
1.0
 40
1.0
 40
1.0
 40
1.0
 10
200.3223609020007
 20
-157.0943030214086
 30
0.0
 10
200.3223609020007
 20
-157.0943030214086
 30
0.0
 10
200.3223591773318
 20
-151.8167810919317
 30
0.0
 10
200.3223591773318
 20
-151.8167810919317
 30
0.0
  0
SPLINE
  5
FA
330
E7
100
AcDbEntity
  8
Слой 1
 62
   250
420
  3947579
370
    25
100
AcDbSpline
210
0.0
220
0.0
230
1.0
 70
    24
 71
     3
 72
     8
 73
     4
 74
     0
 42
0.0000000001
 43
0.0000000001
 40
0.0
 40
0.0
 40
0.0
 40
0.0
 40
1.0
 40
1.0
 40
1.0
 40
1.0
 10
200.3223580384097
 20
-148.3316489907605
 30
0.0
 10
200.3223580384097
 20
-148.3316489907605
 30
0.0
 10
200.3223563137421
 20
-143.0541270612835
 30
0.0
 10
200.3223563137421
 20
-143.0541270612835
 30
0.0
  0
SPLINE
  5
FB
330
E7
100
AcDbEntity
  8
Слой 1
 62
   250
420
  3947579
370
    25
100
AcDbSpline
210
0.0
220
0.0
230
1.0
 70
    24
 71
     3
 72
     8
 73
     4
 74
     0
 42
0.0000000001
 43
0.0000000001
 40
0.0
 40
0.0
 40
0.0
 40
0.0
 40
1.0
 40
1.0
 40
1.0
 40
1.0
 10
199.824469191678
 20
-131.2046274332212
 30
0.0
 10
199.824469191678
 20
-131.2046274332212
 30
0.0
 10
199.8244815246477
 20
-168.9438029748814
 30
0.0
 10
199.8244815246477
 20
-168.9438029748814
 30
0.0
  0
SPLINE
  5
FC
330
E7
100
AcDbEntity
  8
Слой 1
 62
   250
420
  3947579
370
    25
100
AcDbSpline
210
0.0
220
0.0
230
1.0
 70
    24
 71
     3
 72
     8
 73
     4
 74
     0
 42
0.0000000001
 43
0.0000000001
 40
0.0
 40
0.0
 40
0.0
 40
0.0
 40
1.0
 40
1.0
 40
1.0
 40
1.0
 10
198.9283112830739
 20
-166.9522955923065
 30
0.0
 10
198.9283112830739
 20
-166.9522955923065
 30
0.0
 10
198.9283002191929
 20
-133.0965638162615
 30
0.0
 10
198.9283002191929
 20
-133.0965638162615
 30
0.0
  0
SPLINE
  5
FD
330
E7
100
AcDbEntity
  8
Слой 1
 62
   250
420
  3947579
370
    25
100
AcDbSpline
210
0.0
220
0.0
230
1.0
 70
    24
 71
     3
 72
     8
 73
     4
 74
     0
 42
0.0000000001
 43
0.0000000001
 40
0.0
 40
0.0
 40
0.0
 40
0.0
 40
1.0
 40
1.0
 40
1.0
 40
1.0
 10
200.0236371649499
 20
-129.6114313571413
 30
0.0
 10
200.0236371649499
 20
-129.6114313571413
 30
0.0
 10
200.0236345291441
 20
-121.5458037467279
 30
0.0
 10
200.0236345291441
 20
-121.5458037467279
 30
0.0
  0
LWPOLYLINE
  5
FE
330
E7
100
AcDbEntity
  8
Слой 1
 62
   250
420
  3947579
370
    25
100
AcDbPolyline
 90
        6
 70
     0
 43
0.0
 10
199.824469191678
 20
-131.2046274332212
 10
199.9240659701765
 20
-130.8063410596229
 10
199.9240658400123
 20
-130.4080293951761
 10
199.9240657423919
 20
-130.1093146393884
 10
199.9240656773057
 20
-129.9101461454689
 10
199.9240656447657
 20
-129.8105745602052
  0
LINE
  5
FF
330
E7
100
AcDbEntity
  8
Слой 1
 62
   250
420
  3947579
370
    25
100
AcDbLine
 10
200.5215313809129
 20
-163.1684228912962
 30
0.0
 11
200.5215324872957
 21
-166.5539834072037
 31
0.0
  0
LINE
  5
100
330
E7
100
AcDbEntity
  8
Слой 1
 62
   250
420
  3947579
370
    25
100
AcDbLine
 10
200.5215324872957
 20
-166.5539834072037
 30
0.0
 11
200.5215317714028
 21
-164.3633325612386
 31
0.0
  0
SPLINE
  5
101
330
E7
100
AcDbEntity
  8
Слой 1
 62
   250
420
  3947579
370
    25
100
AcDbSpline
210
0.0
220
0.0
230
1.0
 70
    24
 71
     3
 72
     8
 73
     4
 74
     0
 42
0.0000000001
 43
0.0000000001
 40
0.0
 40
0.0
 40
0.0
 40
0.0
 40
1.0
 40
1.0
 40
1.0
 40
1.0
 10
200.5215217488268
 20
-133.6940181305763
 30
0.0
 10
200.5215217488268
 20
-133.6940181305763
 30
0.0
 10
200.5215215535828
 20
-133.0965632956055
 30
0.0
 10
200.5215215535828
 20
-133.0965632956055
 30
0.0
  0
LWPOLYLINE
  5
102
330
E7
100
AcDbEntity
  8
Слой 1
 62
   250
420
  3947579
370
    25
100
AcDbPolyline
 90
        8
 70
     0
 43
0.0
 10
183.7928032908607
 20
-185.473375099229
 10
183.3945170799678
 20
-185.8716615704361
 10
182.8966592512806
 20
-186.1704018123166
 10
182.3987507432561
 20
-186.3695451455563
 10
181.8013212316788
 20
-186.3695453407933
 10
181.2038410082345
 20
-186.1704023655216
 10
180.7059829842944
 20
-185.8716624490351
 10
180.3076965130854
 20
-185.4733762381421
  0
LWPOLYLINE
  5
103
330
E7
100
AcDbEntity
  8
Слой 1
 62
   250
420
  3947579
370
    25
100
AcDbPolyline
 90
        8
 70
     0
 43
0.0
 10
184.8881405294724
 20
-182.8843869074716
 10
185.2864773871537
 20
-182.4861004362452
 10
185.7843352158429
 20
-182.1873601943666
 10
186.3817646948809
 20
-182.0877884138657
 10
186.9792448532453
 20
-182.0877882186127
 10
187.5766997207567
 20
-182.1873596086307
 10
188.0745830680904
 20
-182.4860995251057
 10
188.4728695393001
 20
-182.8843857359992
  0
SPLINE
  5
104
330
E7
100
AcDbEntity
  8
Слой 1
 62
   250
420
  3947579
370
    25
100
AcDbSpline
210
0.0
220
0.0
230
1.0
 70
    24
 71
     3
 72
     8
 73
     4
 74
     0
 42
0.0000000001
 43
0.0000000001
 40
0.0
 40
0.0
 40
0.0
 40
0.0
 40
1.0
 40
1.0
 40
1.0
 40
1.0
 10
199.924078888875
 20
-170.3378557828014
 30
0.0
 10
199.924078888875
 20
-170.3378557828014
 30
0.0
 10
199.4261957693323
 20
-170.7361676099523
 30
0.0
 10
199.4261957693323
 20
-170.7361676099523
 30
0.0
  0
SPLINE
  5
105
330
E7
100
AcDbEntity
  8
Слой 1
 62
   250
420
  3947579
370
    25
100
AcDbSpline
210
0.0
220
0.0
230
1.0
 70
    24
 71
     3
 72
     8
 73
     4
 74
     0
 42
0.0000000001
 43
0.0000000001
 40
0.0
 40
0.0
 40
0.0
 40
0.0
 40
1.0
 40
1.0
 40
1.0
 40
1.0
 10
104.1322957036612
 20
-191.6470673287194
 30
0.0
 10
104.1322957036612
 20
-191.6470673287194
 30
0.0
 10
200.1232290231325
 20
-191.6470359593709
 30
0.0
 10
200.1232290231325
 20
-191.6470359593709
 30
0.0
  0
LWPOLYLINE
  5
106
330
E7
100
AcDbEntity
  8
Слой 1
 62
   250
420
  3947579
370
    25
100
AcDbPolyline
 90
        6
 70
     0
 43
0.0
 10
199.924078888875
 20
-170.3378557828014
 10
199.9240788563357
 20
-170.2382841975388
 10
199.9240787912546
 20
-170.0391410270121
 10
199.9240786936278
 20
-169.7404009478306
 10
199.9240785634713
 20
-169.342114606778
 10
199.8244815246477
 20
-168.9438029748814
  0
LWPOLYLINE
  5
107
330
E7
100
AcDbEntity
  8
Слой 1
 62
   250
420
  3947579
370
    25
100
AcDbPolyline
 90
        8
 70
     0
 43
0.0
 10
180.307695667018
 20
-182.8843884043378
 10
180.7059818779103
 20
-182.4861019331282
 10
181.2038397065975
 20
-182.1873616912483
 10
181.8013198324232
 20
-182.0877899107327
 10
182.3987493440005
 20
-182.0877897154944
 10
182.8966579496442
 20
-182.187361138044
 10
183.3945159735824
 20
-182.486101054528
 10
183.792802444794
 20
-182.8843872654209
  0
LWPOLYLINE
  5
108
330
E7
100
AcDbEntity
  8
Слой 1
 62
   250
420
  3947579
370
    25
100
AcDbPolyline
 90
        4
 70
     0
 43
0.0
 10
188.7716103994634
 20
-185.2742049782578
 10
188.6720388142001
 20
-185.2742050107971
 10
188.5724419380838
 20
-185.373776628608
 10
188.4728703853681
 20
-185.4733735698061
  0
SPLINE
  5
109
330
E7
100
AcDbEntity
  8
Слой 1
 62
   250
420
  3947579
370
    25
100
AcDbSpline
210
0.0
220
0.0
230
1.0
 70
    24
 71
     3
 72
     8
 73
     4
 74
     0
 42
0.0000000001
 43
0.0000000001
 40
0.0
 40
0.0
 40
0.0
 40
0.0
 40
1.0
 40
1.0
 40
1.0
 40
1.0
 10
190.663540599754
 20
-167.2510130489795
 30
0.0
 10
190.663540599754
 20
-167.2510130489795
 30
0.0
 10
190.6635400791038
 20
-165.6578170379859
 30
0.0
 10
190.6635400791038
 20
-165.6578170379859
 30
0.0
  0
SPLINE
  5
10A
330
E7
100
AcDbEntity
  8
Слой 1
 62
   250
420
  3947579
370
    25
100
AcDbSpline
210
0.0
220
0.0
230
1.0
 70
    24
 71
     3
 72
     8
 73
     4
 74
     0
 42
0.0000000001
 43
0.0000000001
 40
0.0
 40
0.0
 40
0.0
 40
0.0
 40
1.0
 40
1.0
 40
1.0
 40
1.0
 10
186.8796684193997
 20
-167.2510142855297
 30
0.0
 10
186.8796684193997
 20
-167.2510142855297
 30
0.0
 10
186.8796683868616
 20
-167.1514427002657
 30
0.0
 10
186.8796683868616
 20
-167.1514427002657
 30
0.0
  0
LWPOLYLINE
  5
10B
330
E7
100
AcDbEntity
  8
Слой 1
 62
   250
420
  3947579
370
    25
100
AcDbPolyline
 90
        4
 70
     0
 43
0.0
 10
184.1911402136135
 20
-185.2742064751331
 10
184.0915686283502
 20
-185.2742065076717
 10
183.8923748435764
 20
-185.3737781580309
 10
183.7928032908607
 20
-185.473375099229
  0
LWPOLYLINE
  5
10C
330
E7
100
AcDbEntity
  8
Слой 1
 62
   250
420
  3947579
370
    25
100
AcDbPolyline
 90
        4
 70
     0
 43
0.0
 10
179.6106447043701
 20
-185.2742079720155
 10
179.4115015338441
 20
-185.274208037094
 10
179.3119299811213
 20
-185.3737796548973
 10
179.2123584284057
 20
-185.4733765960934
  0
LWPOLYLINE
  5
10D
330
E7
100
AcDbEntity
  8
Слой 1
 62
   250
420
  3947579
370
    25
100
AcDbPolyline
 90
        4
 70
     0
 43
0.0
 10
189.1698960246224
 20
-183.0835540021349
 10
189.2694929332787
 20
-183.0835539695873
 10
189.4686360712641
 20
-182.9839823192467
 10
189.5682076239798
 20
-182.8843853780492
  0
LWPOLYLINE
  5
10E
330
E7
100
AcDbEntity
  8
Слой 1
 62
   250
420
  3947579
370
    25
100
AcDbPolyline
 90
        4
 70
     0
 43
0.0
 10
184.5894258387706
 20
-183.0835554990089
 10
184.6889974240339
 20
-183.0835554664709
 10
184.7885689767567
 20
-182.983983848669
 10
184.8881405294724
 20
-182.8843869074716
  0
LWPOLYLINE
  5
10F
330
E7
100
AcDbEntity
  8
Слой 1
 62
   250
420
  3947579
370
    25
100
AcDbPolyline
 90
        4
 70
     0
 43
0.0
 10
179.9093587442652
 20
-183.0835570284312
 10
180.1085019147905
 20
-183.0835569633526
 10
180.2080734675145
 20
-182.9839853455507
 10
180.307695667018
 20
-182.8843884043378
  0
SPLINE
  5
110
330
E7
100
AcDbEntity
  8
Слой 1
 62
   250
420
  3947579
370
    25
100
AcDbSpline
210
0.0
220
0.0
230
1.0
 70
    24
 71
     3
 72
     8
 73
     4
 74
     0
 42
0.0000000001
 43
0.0000000001
 40
0.0
 40
0.0
 40
0.0
 40
0.0
 40
1.0
 40
1.0
 40
1.0
 40
1.0
 10
179.6106447043701
 20
-185.2742079720155
 30
0.0
 10
179.6106447043701
 20
-185.2742079720155
 30
0.0
 10
179.9093594601574
 20
-185.2742078743951
 30
0.0
 10
179.9093594601574
 20
-185.2742078743951
 30
0.0
  0
SPLINE
  5
111
330
E7
100
AcDbEntity
  8
Слой 1
 62
   250
420
  3947579
370
    25
100
AcDbSpline
210
0.0
220
0.0
230
1.0
 70
    24
 71
     3
 72
     8
 73
     4
 74
     0
 42
0.0000000001
 43
0.0000000001
 40
0.0
 40
0.0
 40
0.0
 40
0.0
 40
1.0
 40
1.0
 40
1.0
 40
1.0
 10
184.1911402136135
 20
-185.2742064751331
 30
0.0
 10
184.1911402136135
 20
-185.2742064751331
 30
0.0
 10
184.5894265546649
 20
-185.2742063449741
 30
0.0
 10
184.5894265546649
 20
-185.2742063449741
 30
0.0
  0
SPLINE
  5
112
330
E7
100
AcDbEntity
  8
Слой 1
 62
   250
420
  3947579
370
    25
100
AcDbSpline
210
0.0
220
0.0
230
1.0
 70
    24
 71
     3
 72
     8
 73
     4
 74
     0
 42
0.0000000001
 43
0.0000000001
 40
0.0
 40
0.0
 40
0.0
 40
0.0
 40
1.0
 40
1.0
 40
1.0
 40
1.0
 10
188.7716103994634
 20
-185.2742049782578
 30
0.0
 10
188.7716103994634
 20
-185.2742049782578
 30
0.0
 10
189.1698967405147
 20
-185.2742048480994
 30
0.0
 10
189.1698967405147
 20
-185.2742048480994
 30
0.0
  0
SPLINE
  5
113
330
E7
100
AcDbEntity
  8
Слой 1
 62
   250
420
  3947579
370
    25
100
AcDbSpline
210
0.0
220
0.0
230
1.0
 70
    24
 71
     3
 72
     8
 73
     4
 74
     0
 42
0.0000000001
 43
0.0000000001
 40
0.0
 40
0.0
 40
0.0
 40
0.0
 40
1.0
 40
1.0
 40
1.0
 40
1.0
 10
169.0556513945841
 20
-184.9754966655446
 30
0.0
 10
169.0556513945841
 20
-184.9754966655446
 30
0.0
 10
170.150938832476
 20
-184.9754963076094
 30
0.0
 10
170.150938832476
 20
-184.9754963076094
 30
0.0
  0
SPLINE
  5
114
330
E7
100
AcDbEntity
  8
Слой 1
 62
   250
420
  3947579
370
    25
100
AcDbSpline
210
0.0
220
0.0
230
1.0
 70
    24
 71
     3
 72
     8
 73
     4
 74
     0
 42
0.0000000001
 43
0.0000000001
 40
0.0
 40
0.0
 40
0.0
 40
0.0
 40
1.0
 40
1.0
 40
1.0
 40
1.0
 10
170.5492758203151
 20
-184.9754961774356
 30
0.0
 10
170.5492758203151
 20
-184.9754961774356
 30
0.0
 10
172.0429002460448
 20
-184.9754956893259
 30
0.0
 10
172.0429002460448
 20
-184.9754956893259
 30
0.0
  0
SPLINE
  5
115
330
E7
100
AcDbEntity
  8
Слой 1
 62
   250
420
  3947579
370
    25
100
AcDbSpline
210
0.0
220
0.0
230
1.0
 70
    24
 71
     3
 72
     8
 73
     4
 74
     0
 42
0.0000000001
 43
0.0000000001
 40
0.0
 40
0.0
 40
0.0
 40
0.0
 40
1.0
 40
1.0
 40
1.0
 40
1.0
 10
172.04290014842
 20
-184.676755610145
 30
0.0
 10
172.04290014842
 20
-184.676755610145
 30
0.0
 10
170.549275722687
 20
-184.6767560982534
 30
0.0
 10
170.549275722687
 20
-184.6767560982534
 30
0.0
  0
SPLINE
  5
116
330
E7
100
AcDbEntity
  8
Слой 1
 62
   250
420
  3947579
370
    25
100
AcDbSpline
210
0.0
220
0.0
230
1.0
 70
    24
 71
     3
 72
     8
 73
     4
 74
     0
 42
0.0000000001
 43
0.0000000001
 40
0.0
 40
0.0
 40
0.0
 40
0.0
 40
1.0
 40
1.0
 40
1.0
 40
1.0
 10
170.1509387348492
 20
-184.6767562284284
 30
0.0
 10
170.1509387348492
 20
-184.6767562284284
 30
0.0
 10
168.9560290649075
 20
-184.6767566189184
 30
0.0
 10
168.9560290649075
 20
-184.6767566189184
 30
0.0
  0
SPLINE
  5
117
330
E7
100
AcDbEntity
  8
Слой 1
 62
   250
420
  3947579
370
    25
100
AcDbSpline
210
0.0
220
0.0
230
1.0
 70
    24
 71
     3
 72
     8
 73
     4
 74
     0
 42
0.0000000001
 43
0.0000000001
 40
0.0
 40
0.0
 40
0.0
 40
0.0
 40
1.0
 40
1.0
 40
1.0
 40
1.0
 10
189.1698960246224
 20
-183.0835540021349
 30
0.0
 10
189.1698960246224
 20
-183.0835540021349
 30
0.0
 10
188.7716096835686
 20
-183.0835541322933
 30
0.0
 10
188.7716096835686
 20
-183.0835541322933
 30
0.0
  0
SPLINE
  5
118
330
E7
100
AcDbEntity
  8
Слой 1
 62
   250
420
  3947579
370
    25
100
AcDbSpline
210
0.0
220
0.0
230
1.0
 70
    24
 71
     3
 72
     8
 73
     4
 74
     0
 42
0.0000000001
 43
0.0000000001
 40
0.0
 40
0.0
 40
0.0
 40
0.0
 40
1.0
 40
1.0
 40
1.0
 40
1.0
 10
184.5894258387706
 20
-183.0835554990089
 30
0.0
 10
184.5894258387706
 20
-183.0835554990089
 30
0.0
 10
184.1911394977206
 20
-183.0835556291673
 30
0.0
 10
184.1911394977206
 20
-183.0835556291673
 30
0.0
  0
SPLINE
  5
119
330
E7
100
AcDbEntity
  8
Слой 1
 62
   250
420
  3947579
370
    25
100
AcDbSpline
210
0.0
220
0.0
230
1.0
 70
    24
 71
     3
 72
     8
 73
     4
 74
     0
 42
0.0000000001
 43
0.0000000001
 40
0.0
 40
0.0
 40
0.0
 40
0.0
 40
1.0
 40
1.0
 40
1.0
 40
1.0
 10
179.9093587442652
 20
-183.0835570284312
 30
0.0
 10
179.9093587442652
 20
-183.0835570284312
 30
0.0
 10
179.6106439884758
 20
-183.0835571260497
 30
0.0
 10
179.6106439884758
 20
-183.0835571260497
 30
0.0
  0
SPLINE
  5
11A
330
E7
100
AcDbEntity
  8
Слой 1
 62
   250
420
  3947579
370
    25
100
AcDbSpline
210
0.0
220
0.0
230
1.0
 70
    24
 71
     3
 72
     8
 73
     4
 74
     0
 42
0.0000000001
 43
0.0000000001
 40
0.0
 40
0.0
 40
0.0
 40
0.0
 40
1.0
 40
1.0
 40
1.0
 40
1.0
 10
170.5492751369538
 20
-182.8843915933389
 30
0.0
 10
170.5492751369538
 20
-182.8843915933389
 30
0.0
 10
170.1509381491121
 20
-182.8843917235133
 30
0.0
 10
170.1509381491121
 20
-182.8843917235133
 30
0.0
  0
LWPOLYLINE
  5
11B
330
E7
100
AcDbEntity
  8
Слой 1
 62
   250
420
  3947579
370
    25
100
AcDbPolyline
 90
       10
 70
     0
 43
0.0
 10
193.4516518126247
 20
-184.1788653641654
 10
193.3520800321245
 20
-183.5814358851274
 10
193.1529366988925
 20
-183.0835527004978
 10
192.7546248717435
 20
-182.5856695809557
 10
192.2567415244066
 20
-182.2869296644788
 10
191.6592866243572
 20
-182.0877866891981
 10
191.0618317893857
 20
-182.0877868844434
 10
190.4643769869535
 20
-182.1873586649526
 10
189.9665191582676
 20
-182.4860989068312
 10
189.5682076239798
 20
-182.8843853780492
  0
SPLINE
  5
11C
330
E7
100
AcDbEntity
  8
Слой 1
 62
   250
420
  3947579
370
    25
100
AcDbSpline
210
0.0
220
0.0
230
1.0
 70
    24
 71
     3
 72
     8
 73
     4
 74
     0
 42
0.0000000001
 43
0.0000000001
 40
0.0
 40
0.0
 40
0.0
 40
0.0
 40
1.0
 40
1.0
 40
1.0
 40
1.0
 10
186.78009631349
 20
-165.6578183070747
 30
0.0
 10
186.78009631349
 20
-165.6578183070747
 30
0.0
 10
186.7800968341376
 20
-167.251014318069
 30
0.0
 10
186.7800968341376
 20
-167.251014318069
 30
0.0
  0
SPLINE
  5
11D
330
E7
100
AcDbEntity
  8
Слой 1
 62
   250
420
  3947579
370
    25
100
AcDbSpline
210
0.0
220
0.0
230
1.0
 70
    24
 71
     3
 72
     8
 73
     4
 74
     0
 42
0.0000000001
 43
0.0000000001
 40
0.0
 40
0.0
 40
0.0
 40
0.0
 40
1.0
 40
1.0
 40
1.0
 40
1.0
 10
104.7297717293462
 20
-179.0009693372003
 30
0.0
 10
104.7297717293462
 20
-179.0009693372003
 30
0.0
 10
199.5257700554805
 20
-179.0009383583527
 30
0.0
 10
199.5257700554805
 20
-179.0009383583527
 30
0.0
  0
SPLINE
  5
11E
330
E7
100
AcDbEntity
  8
Слой 1
 62
   250
420
  3947579
370
    25
100
AcDbSpline
210
0.0
220
0.0
230
1.0
 70
    24
 71
     3
 72
     8
 73
     4
 74
     0
 42
0.0000000001
 43
0.0000000001
 40
0.0
 40
0.0
 40
0.0
 40
0.0
 40
1.0
 40
1.0
 40
1.0
 40
1.0
 10
104.2318470160052
 20
-129.6114626614096
 30
0.0
 10
104.2318470160052
 20
-129.6114626614096
 30
0.0
 10
104.3314693131346
 20
-129.810605799378
 30
0.0
 10
104.3314693131346
 20
-129.810605799378
 30
0.0
  0
SPLINE
  5
11F
330
E7
100
AcDbEntity
  8
Слой 1
 62
   250
420
  3947579
370
    25
100
AcDbSpline
210
0.0
220
0.0
230
1.0
 70
    24
 71
     3
 72
     8
 73
     4
 74
     0
 42
0.0000000001
 43
0.0000000001
 40
0.0
 40
0.0
 40
0.0
 40
0.0
 40
1.0
 40
1.0
 40
1.0
 40
1.0
 10
199.9240656447657
 20
-129.8105745602052
 30
0.0
 10
199.9240656447657
 20
-129.8105745602052
 30
0.0
 10
200.0236371649499
 20
-129.6114313571413
 30
0.0
 10
200.0236371649499
 20
-129.6114313571413
 30
0.0
  0
LWPOLYLINE
  5
120
330
E7
100
AcDbEntity
  8
Слой 1
 62
   250
420
  3947579
370
    25
100
AcDbPolyline
 90
       12
 70
     0
 43
0.0
 10
173.2378096556557
 20
-184.178871969945
 10
173.1382382656376
 20
-184.7763268374564
 10
172.9390952903576
 20
-185.3737817375064
 10
172.5407584652239
 20
-185.8716651173897
 10
172.0429006365354
 20
-186.1704053592696
 10
171.4454205432495
 20
-186.3695487250485
 10
170.7484194464096
 20
-186.3695489528248
 10
170.250510808228
 20
-186.1704059450125
 10
169.6530811990239
 20
-185.8716660610678
 10
169.2547946952679
 20
-185.373782941518
 10
169.0556513620436
 20
-184.8759250802813
 10
168.9560289022015
 20
-184.1788733692102
  0
SPLINE
  5
121
330
E7
100
AcDbEntity
  8
Слой 1
 62
   250
420
  3947579
370
    25
100
AcDbSpline
210
0.0
220
0.0
230
1.0
 70
    24
 71
     3
 72
     8
 73
     4
 74
     0
 42
0.0000000001
 43
0.0000000001
 40
0.0
 40
0.0
 40
0.0
 40
0.0
 40
1.0
 40
1.0
 40
1.0
 40
1.0
 10
199.4261957693323
 20
-170.7361676099523
 30
0.0
 10
199.4261957693323
 20
-170.7361676099523
 30
0.0
 10
104.8293406137229
 20
-170.736198523722
 30
0.0
 10
104.8293406137229
 20
-170.736198523722
 30
0.0
  0
SPLINE
  5
122
330
E7
100
AcDbEntity
  8
Слой 1
 62
   250
420
  3947579
370
    25
100
AcDbSpline
210
0.0
220
0.0
230
1.0
 70
    24
 71
     3
 72
     8
 73
     4
 74
     0
 42
0.0000000001
 43
0.0000000001
 40
0.0
 40
0.0
 40
0.0
 40
0.0
 40
1.0
 40
1.0
 40
1.0
 40
1.0
 10
104.4310536869361
 20
-168.9438341489659
 30
0.0
 10
104.4310536869361
 20
-168.9438341489659
 30
0.0
 10
199.8244815246477
 20
-168.9438029748814
 30
0.0
 10
199.8244815246477
 20
-168.9438029748814
 30
0.0
  0
SPLINE
  5
123
330
E7
100
AcDbEntity
  8
Слой 1
 62
   250
420
  3947579
370
    25
100
AcDbSpline
210
0.0
220
0.0
230
1.0
 70
    24
 71
     3
 72
     8
 73
     4
 74
     0
 42
0.0000000001
 43
0.0000000001
 40
0.0
 40
0.0
 40
0.0
 40
0.0
 40
1.0
 40
1.0
 40
1.0
 40
1.0
 10
105.6259628036826
 20
-167.2510408388268
 30
0.0
 10
105.6259628036826
 20
-167.2510408388268
 30
0.0
 10
198.6295966249043
 20
-167.251010445713
 30
0.0
 10
198.6295966249043
 20
-167.251010445713
 30
0.0
  0
SPLINE
  5
124
330
E7
100
AcDbEntity
  8
Слой 1
 62
   250
420
  3947579
370
    25
100
AcDbSpline
210
0.0
220
0.0
230
1.0
 70
    24
 71
     3
 72
     8
 73
     4
 74
     0
 42
0.0000000001
 43
0.0000000001
 40
0.0
 40
0.0
 40
0.0
 40
0.0
 40
1.0
 40
1.0
 40
1.0
 40
1.0
 10
190.663540599754
 20
-167.2510130489795
 30
0.0
 10
190.663540599754
 20
-167.2510130489795
 30
0.0
 10
190.5639690144907
 20
-167.2510130815201
 30
0.0
 10
190.5639690144907
 20
-167.2510130815201
 30
0.0
  0
LWPOLYLINE
  5
125
330
E7
100
AcDbEntity
  8
Слой 1
 62
   250
420
  3947579
370
    25
100
AcDbPolyline
 90
        3
 70
     0
 43
0.0
 10
186.7800968341376
 20
-167.251014318069
 10
186.8796684193997
 20
-167.2510142855297
 10
190.4643721058332
 20
-167.2510131140664
  0
SPLINE
  5
126
330
E7
100
AcDbEntity
  8
Слой 1
 62
   250
420
  3947579
370
    25
100
AcDbSpline
210
0.0
220
0.0
230
1.0
 70
    24
 71
     3
 72
     8
 73
     4
 74
     0
 42
0.0000000001
 43
0.0000000001
 40
0.0
 40
0.0
 40
0.0
 40
0.0
 40
1.0
 40
1.0
 40
1.0
 40
1.0
 10
173.2378096556557
 20
-184.178871969945
 30
0.0
 10
173.2378096556557
 20
-184.178871969945
 30
0.0
 10
173.2378096231151
 20
-184.0793003846817
 30
0.0
 10
173.2378096231151
 20
-184.0793003846817
 30
0.0
  0
SPLINE
  5
127
330
E7
100
AcDbEntity
  8
Слой 1
 62
   250
420
  3947579
370
    25
100
AcDbSpline
210
0.0
220
0.0
230
1.0
 70
    24
 71
     3
 72
     8
 73
     4
 74
     0
 42
0.0000000001
 43
0.0000000001
 40
0.0
 40
0.0
 40
0.0
 40
0.0
 40
1.0
 40
1.0
 40
1.0
 40
1.0
 10
172.0429002460448
 20
-184.9754956893259
 30
0.0
 10
172.0429002460448
 20
-184.9754956893259
 30
0.0
 10
172.04290014842
 20
-184.676755610145
 30
0.0
 10
172.04290014842
 20
-184.676755610145
 30
0.0
  0
SPLINE
  5
128
330
E7
100
AcDbEntity
  8
Слой 1
 62
   250
420
  3947579
370
    25
100
AcDbSpline
210
0.0
220
0.0
230
1.0
 70
    24
 71
     3
 72
     8
 73
     4
 74
     0
 42
0.0000000001
 43
0.0000000001
 40
0.0
 40
0.0
 40
0.0
 40
0.0
 40
1.0
 40
1.0
 40
1.0
 40
1.0
 10
170.549276243345
 20
-186.2699774326406
 30
0.0
 10
170.549276243345
 20
-186.2699774326406
 30
0.0
 10
170.5492758203151
 20
-184.9754961774356
 30
0.0
 10
170.5492758203151
 20
-184.9754961774356
 30
0.0
  0
SPLINE
  5
129
330
E7
100
AcDbEntity
  8
Слой 1
 62
   250
420
  3947579
370
    25
100
AcDbSpline
210
0.0
220
0.0
230
1.0
 70
    24
 71
     3
 72
     8
 73
     4
 74
     0
 42
0.0000000001
 43
0.0000000001
 40
0.0
 40
0.0
 40
0.0
 40
0.0
 40
1.0
 40
1.0
 40
1.0
 40
1.0
 10
170.549275722687
 20
-184.6767560982534
 30
0.0
 10
170.549275722687
 20
-184.6767560982534
 30
0.0
 10
170.5492751369538
 20
-182.8843915933389
 30
0.0
 10
170.5492751369538
 20
-182.8843915933389
 30
0.0
  0
SPLINE
  5
12A
330
E7
100
AcDbEntity
  8
Слой 1
 62
   250
420
  3947579
370
    25
100
AcDbSpline
210
0.0
220
0.0
230
1.0
 70
    24
 71
     3
 72
     8
 73
     4
 74
     0
 42
0.0000000001
 43
0.0000000001
 40
0.0
 40
0.0
 40
0.0
 40
0.0
 40
1.0
 40
1.0
 40
1.0
 40
1.0
 10
170.1509381491121
 20
-182.8843917235133
 30
0.0
 10
170.1509381491121
 20
-182.8843917235133
 30
0.0
 10
170.1509387348492
 20
-184.6767562284284
 30
0.0
 10
170.1509387348492
 20
-184.6767562284284
 30
0.0
  0
SPLINE
  5
12B
330
E7
100
AcDbEntity
  8
Слой 1
 62
   250
420
  3947579
370
    25
100
AcDbSpline
210
0.0
220
0.0
230
1.0
 70
    24
 71
     3
 72
     8
 73
     4
 74
     0
 42
0.0000000001
 43
0.0000000001
 40
0.0
 40
0.0
 40
0.0
 40
0.0
 40
1.0
 40
1.0
 40
1.0
 40
1.0
 10
170.150938832476
 20
-184.9754963076094
 30
0.0
 10
170.150938832476
 20
-184.9754963076094
 30
0.0
 10
170.1509392229666
 20
-186.1704059775524
 30
0.0
 10
170.1509392229666
 20
-186.1704059775524
 30
0.0
  0
SPLINE
  5
12C
330
E7
100
AcDbEntity
  8
Слой 1
 62
   250
420
  3947579
370
    25
100
AcDbSpline
210
0.0
220
0.0
230
1.0
 70
    24
 71
     3
 72
     8
 73
     4
 74
     0
 42
0.0000000001
 43
0.0000000001
 40
0.0
 40
0.0
 40
0.0
 40
0.0
 40
1.0
 40
1.0
 40
1.0
 40
1.0
 10
190.6635400791038
 20
-165.6578170379859
 30
0.0
 10
190.6635400791038
 20
-165.6578170379859
 30
0.0
 10
186.78009631349
 20
-165.6578183070747
 30
0.0
 10
186.78009631349
 20
-165.6578183070747
 30
0.0
  0
SPLINE
  5
12D
330
E7
100
AcDbEntity
  8
Слой 1
 62
   250
420
  3947579
370
    25
100
AcDbSpline
210
0.0
220
0.0
230
1.0
 70
    24
 71
     3
 72
     8
 73
     4
 74
     0
 42
0.0000000001
 43
0.0000000001
 40
0.0
 40
0.0
 40
0.0
 40
0.0
 40
1.0
 40
1.0
 40
1.0
 40
1.0
 10
200.5215317714028
 20
-164.3633325612386
 30
0.0
 10
200.5215317714028
 20
-164.3633325612386
 30
0.0
 10
200.5215317388539
 20
-164.2637356525817
 30
0.0
 10
200.5215317388539
 20
-164.2637356525817
 30
0.0
  0
SPLINE
  5
12E
330
E7
100
AcDbEntity
  8
Слой 1
 62
   250
420
  3947579
370
    25
100
AcDbSpline
210
0.0
220
0.0
230
1.0
 70
    24
 71
     3
 72
     8
 73
     4
 74
     0
 42
0.0000000001
 43
0.0000000001
 40
0.0
 40
0.0
 40
0.0
 40
0.0
 40
1.0
 40
1.0
 40
1.0
 40
1.0
 10
103.7340004464343
 20
-164.3633641909096
 30
0.0
 10
103.7340004464343
 20
-164.3633641909096
 30
0.0
 10
103.7340004138867
 20
-164.2637672822533
 30
0.0
 10
103.7340004138867
 20
-164.2637672822533
 30
0.0
  0
LWPOLYLINE
  5
12F
330
E7
100
AcDbEntity
  8
Слой 1
 62
   250
420
  3947579
370
    25
100
AcDbPolyline
 90
       10
 70
     0
 43
0.0
 10
175.3289142397524
 20
-184.178871286583
 10
175.3289144349964
 20
-184.7763261215532
 10
175.627629386029
 20
-185.3737808589075
 10
176.0259158572484
 20
-185.772092393196
 10
176.5238245605168
 20
-186.1704038949271
 10
177.121254137174
 20
-186.3695468702142
 10
177.7186836487506
 20
-186.3695466749786
 10
178.2165921567732
 20
-186.1704033417396
 10
178.814021570723
 20
-185.8716630673191
 10
179.2123584284057
 20
-185.4733765960934
  0
LWPOLYLINE
  5
130
330
E7
100
AcDbEntity
  8
Слой 1
 62
   250
420
  3947579
370
    25
100
AcDbPolyline
 90
       22
 70
     0
 43
0.0
 10
173.2378096556557
 20
-184.178871969945
 10
173.2378095580385
 20
-183.8801572141557
 10
173.1382378751561
 20
-183.581442490907
 10
173.0386661922666
 20
-183.2827024442647
 10
172.8395229241215
 20
-182.9839877535552
 10
172.6403290091829
 20
-182.6852477394695
 10
172.4411857735758
 20
-182.4861046340221
 10
172.1424709527015
 20
-182.2869362377191
 10
171.8437561643736
 20
-182.1873647500755
 10
171.5450413760457
 20
-182.0877932624313
 10
171.2462759734673
 20
-182.0877933600658
 10
170.9475612176794
 20
-182.0877934576843
 10
170.6488464618901
 20
-182.0877935553028
 10
170.3501317386433
 20
-182.1873652381846
 10
170.0513663686048
 20
-182.2869369210824
 10
169.7526516779031
 20
-182.4861055126197
 10
169.5535085724569
 20
-182.6852487482256
 10
169.3543654995577
 20
-182.9839888924882
 10
169.1552224266503
 20
-183.2827037133548
 10
169.055650939015
 20
-183.5814438250763
 10
168.9560288045824
 20
-183.8801586134202
 10
168.9560289022015
 20
-184.1788733692102
  0
SPLINE
  5
131
330
E7
100
AcDbEntity
  8
Слой 1
 62
   250
420
  3947579
370
    25
100
AcDbSpline
210
0.0
220
0.0
230
1.0
 70
    24
 71
     3
 72
     8
 73
     4
 74
     0
 42
0.0000000001
 43
0.0000000001
 40
0.0
 40
0.0
 40
0.0
 40
0.0
 40
1.0
 40
1.0
 40
1.0
 40
1.0
 10
168.9560289022015
 20
-184.1788733692102
 30
0.0
 10
168.9560289022015
 20
-184.1788733692102
 30
0.0
 10
168.9560288696609
 20
-184.0793017839462
 30
0.0
 10
168.9560288696609
 20
-184.0793017839462
 30
0.0
  0
SPLINE
  5
132
330
E7
100
AcDbEntity
  8
Слой 1
 62
   250
420
  3947579
370
    25
100
AcDbSpline
210
0.0
220
0.0
230
1.0
 70
    27
 71
     3
 72
    11
 73
     7
 74
     0
 42
0.0000000001
 43
0.0000000001
 40
0.0
 40
0.0
 40
0.0
 40
0.0
 40
1.0
 40
1.0
 40
1.0
 40
2.0
 40
2.0
 40
2.0
 40
2.0
 10
161.5874535627202
 20
-108.3022636762386
 30
0.0
 10
161.5874535627202
 20
-108.3022636762386
 30
0.0
 10
161.587453660338
 20
-108.6009784320262
 30
0.0
 10
161.587453660338
 20
-108.6009784320262
 30
0.0
 10
161.587453660338
 20
-108.6009784320262
 30
0.0
 10
161.5874535627202
 20
-108.3022636762386
 30
0.0
 10
161.5874535627202
 20
-108.3022636762386
 30
0.0
  0
SPLINE
  5
133
330
E7
100
AcDbEntity
  8
Слой 1
 62
   250
420
  3947579
370
    25
100
AcDbSpline
210
0.0
220
0.0
230
1.0
 70
    24
 71
     3
 72
     8
 73
     4
 74
     0
 42
0.0000000001
 43
0.0000000001
 40
0.0
 40
0.0
 40
0.0
 40
0.0
 40
1.0
 40
1.0
 40
1.0
 40
1.0
 10
103.9331412414784
 20
-157.0943345209135
 30
0.0
 10
103.9331412414784
 20
-157.0943345209135
 30
0.0
 10
103.8335696562164
 20
-157.0943345534528
 30
0.0
 10
103.8335696562164
 20
-157.0943345534528
 30
0.0
  0
SPLINE
  5
134
330
E7
100
AcDbEntity
  8
Слой 1
 62
   250
420
  3947579
370
    25
100
AcDbSpline
210
0.0
220
0.0
230
1.0
 70
    24
 71
     3
 72
     8
 73
     4
 74
     0
 42
0.0000000001
 43
0.0000000001
 40
0.0
 40
0.0
 40
0.0
 40
0.0
 40
1.0
 40
1.0
 40
1.0
 40
1.0
 10
200.3223591773318
 20
-151.8167810919317
 30
0.0
 10
200.3223591773318
 20
-151.8167810919317
 30
0.0
 10
200.421930762597
 20
-151.8167810593911
 30
0.0
 10
200.421930762597
 20
-151.8167810593911
 30
0.0
  0
SPLINE
  5
135
330
E7
100
AcDbEntity
  8
Слой 1
 62
   250
420
  3947579
370
    25
100
AcDbSpline
210
0.0
220
0.0
230
1.0
 70
    24
 71
     3
 72
     8
 73
     4
 74
     0
 42
0.0000000001
 43
0.0000000001
 40
0.0
 40
0.0
 40
0.0
 40
0.0
 40
1.0
 40
1.0
 40
1.0
 40
1.0
 10
200.4219324872633
 20
-157.0943029888694
 30
0.0
 10
200.4219324872633
 20
-157.0943029888694
 30
0.0
 10
200.3223609020007
 20
-157.0943030214086
 30
0.0
 10
200.3223609020007
 20
-157.0943030214086
 30
0.0
  0
SPLINE
  5
136
330
E7
100
AcDbEntity
  8
Слой 1
 62
   250
420
  3947579
370
    25
100
AcDbSpline
210
0.0
220
0.0
230
1.0
 70
    24
 71
     3
 72
     8
 73
     4
 74
     0
 42
0.0000000001
 43
0.0000000001
 40
0.0
 40
0.0
 40
0.0
 40
0.0
 40
1.0
 40
1.0
 40
1.0
 40
1.0
 10
103.8335679315488
 20
-151.8168126239758
 30
0.0
 10
103.8335679315488
 20
-151.8168126239758
 30
0.0
 10
103.9331395168121
 20
-151.8168125914346
 30
0.0
 10
103.9331395168121
 20
-151.8168125914346
 30
0.0
  0
LWPOLYLINE
  5
137
330
E7
100
AcDbEntity
  8
Слой 1
 62
   250
420
  3947579
370
    25
100
AcDbPolyline
 90
        4
 70
     0
 43
0.0
 10
179.2123575823364
 20
-182.8843887622879
 10
179.3119292001492
 20
-182.9839856384061
 10
179.4115008179499
 20
-183.0835571911288
 10
179.6106439884758
 20
-183.0835571260497
  0
LWPOLYLINE
  5
138
330
E7
100
AcDbEntity
  8
Слой 1
 62
   250
420
  3947579
370
    25
100
AcDbPolyline
 90
        4
 70
     0
 43
0.0
 10
180.3076965130854
 20
-185.4733762381421
 10
180.2080742484873
 20
-185.3737793620425
 10
180.1085026306847
 20
-185.2742078093172
 10
179.9093594601574
 20
-185.2742078743951
  0
LWPOLYLINE
  5
139
330
E7
100
AcDbEntity
  8
Слой 1
 62
   250
420
  3947579
370
    25
100
AcDbPolyline
 90
       10
 70
     0
 43
0.0
 10
179.2123575823364
 20
-182.8843887622879
 10
178.8140204643408
 20
-182.4861025514122
 10
178.2165908551355
 20
-182.1873626674657
 10
177.718682249495
 20
-182.0877912449167
 10
177.1212527379158
 20
-182.0877914401537
 10
176.523823291419
 20
-182.2869348059166
 10
176.025914815944
 20
-182.5856750478125
 10
175.6276286375987
 20
-183.083558427679
 10
175.3289140445142
 20
-183.581441775005
 10
175.3289142397524
 20
-184.178871286583
  0
SPLINE
  5
13A
330
E7
100
AcDbEntity
  8
Слой 1
 62
   250
420
  3947579
370
    25
100
AcDbSpline
210
0.0
220
0.0
230
1.0
 70
    24
 71
     3
 72
     8
 73
     4
 74
     0
 42
0.0000000001
 43
0.0000000001
 40
0.0
 40
0.0
 40
0.0
 40
0.0
 40
1.0
 40
1.0
 40
1.0
 40
1.0
 10
158.0027245854318
 20
-108.4018364329719
 30
0.0
 10
158.0027245854318
 20
-108.4018364329719
 30
0.0
 10
158.0027239020685
 20
-106.3107318488774
 30
0.0
 10
158.0027239020685
 20
-106.3107318488774
 30
0.0
  0
SPLINE
  5
13B
330
E7
100
AcDbEntity
  8
Слой 1
 62
   250
420
  3947579
370
    25
100
AcDbSpline
210
0.0
220
0.0
230
1.0
 70
    24
 71
     3
 72
     8
 73
     4
 74
     0
 42
0.0000000001
 43
0.0000000001
 40
0.0
 40
0.0
 40
0.0
 40
0.0
 40
1.0
 40
1.0
 40
1.0
 40
1.0
 10
157.5048159797894
 20
-108.3022650104236
 30
0.0
 10
157.5048159797894
 20
-108.3022650104236
 30
0.0
 10
157.5048153289674
 20
-106.3107320115905
 30
0.0
 10
157.5048153289674
 20
-106.3107320115905
 30
0.0
  0
LINE
  5
13C
330
E7
100
AcDbEntity
  8
Слой 1
 62
   250
420
  3947579
370
    25
100
AcDbLine
 10
158.0027239020685
 20
-106.3107318488774
 30
0.0
 11
158.0027238695292
 21
-106.2111602636132
 31
0.0
  0
LWPOLYLINE
  5
13D
330
E7
100
AcDbEntity
  8
Слой 1
 62
   250
420
  3947579
370
    25
100
AcDbPolyline
 90
        4
 70
     0
 43
0.0
 10
183.792802444794
 20
-182.8843872654209
 10
183.8923740626043
 20
-182.9839841415404
 10
184.0915679124573
 20
-183.0835556617072
 10
184.1911394977206
 20
-183.0835556291673
  0
LWPOLYLINE
  5
13E
330
E7
100
AcDbEntity
  8
Слой 1
 62
   250
420
  3947579
370
    25
100
AcDbPolyline
 90
        4
 70
     0
 43
0.0
 10
184.8881413755404
 20
-185.4733747412764
 10
184.7885697577295
 20
-185.3737778651582
 10
184.6889981399282
 20
-185.2742063124335
 10
184.5894265546649
 20
-185.2742063449741
  0
LWPOLYLINE
  5
13F
330
E7
100
AcDbEntity
  8
Слой 1
 62
   250
420
  3947579
370
    25
100
AcDbPolyline
 90
        4
 70
     0
 43
0.0
 10
189.5682084700478
 20
-185.4733732118542
 10
189.4686368522362
 20
-185.3737763357372
 10
189.2694936491716
 20
-185.2742048155524
 10
189.1698967405147
 20
-185.2742048480994
  0
SPLINE
  5
140
330
E7
100
AcDbEntity
  8
Слой 1
 62
   250
420
  3947579
370
    25
100
AcDbSpline
210
0.0
220
0.0
230
1.0
 70
    24
 71
     3
 72
     8
 73
     4
 74
     0
 42
0.0000000001
 43
0.0000000001
 40
0.0
 40
0.0
 40
0.0
 40
0.0
 40
1.0
 40
1.0
 40
1.0
 40
1.0
 10
146.7506788811954
 20
-106.1115923554615
 30
0.0
 10
146.7506788811954
 20
-106.1115923554615
 30
0.0
 10
146.750678946272
 20
-106.3107355259881
 30
0.0
 10
146.750678946272
 20
-106.3107355259881
 30
0.0
  0
SPLINE
  5
141
330
E7
100
AcDbEntity
  8
Слой 1
 62
   250
420
  3947579
370
    25
100
AcDbSpline
210
0.0
220
0.0
230
1.0
 70
    24
 71
     3
 72
     8
 73
     4
 74
     0
 42
0.0000000001
 43
0.0000000001
 40
0.0
 40
0.0
 40
0.0
 40
0.0
 40
1.0
 40
1.0
 40
1.0
 40
1.0
 10
103.9331383778871
 20
-148.3316804902657
 30
0.0
 10
103.9331383778871
 20
-148.3316804902657
 30
0.0
 10
103.8335667926257
 20
-148.331680522805
 30
0.0
 10
103.8335667926257
 20
-148.331680522805
 30
0.0
  0
SPLINE
  5
142
330
E7
100
AcDbEntity
  8
Слой 1
 62
   250
420
  3947579
370
    25
100
AcDbSpline
210
0.0
220
0.0
230
1.0
 70
    24
 71
     3
 72
     8
 73
     4
 74
     0
 42
0.0000000001
 43
0.0000000001
 40
0.0
 40
0.0
 40
0.0
 40
0.0
 40
1.0
 40
1.0
 40
1.0
 40
1.0
 10
200.3223563137421
 20
-143.0541270612835
 30
0.0
 10
200.3223563137421
 20
-143.0541270612835
 30
0.0
 10
200.4219278990048
 20
-143.0541270287436
 30
0.0
 10
200.4219278990048
 20
-143.0541270287436
 30
0.0
  0
SPLINE
  5
143
330
E7
100
AcDbEntity
  8
Слой 1
 62
   250
420
  3947579
370
    25
100
AcDbSpline
210
0.0
220
0.0
230
1.0
 70
    24
 71
     3
 72
     8
 73
     4
 74
     0
 42
0.0000000001
 43
0.0000000001
 40
0.0
 40
0.0
 40
0.0
 40
0.0
 40
1.0
 40
1.0
 40
1.0
 40
1.0
 10
200.421929623673
 20
-148.3316489582219
 30
0.0
 10
200.421929623673
 20
-148.3316489582219
 30
0.0
 10
200.3223580384097
 20
-148.3316489907605
 30
0.0
 10
200.3223580384097
 20
-148.3316489907605
 30
0.0
  0
SPLINE
  5
144
330
E7
100
AcDbEntity
  8
Слой 1
 62
   250
420
  3947579
370
    25
100
AcDbSpline
210
0.0
220
0.0
230
1.0
 70
    24
 71
     3
 72
     8
 73
     4
 74
     0
 42
0.0000000001
 43
0.0000000001
 40
0.0
 40
0.0
 40
0.0
 40
0.0
 40
1.0
 40
1.0
 40
1.0
 40
1.0
 10
103.8335650679575
 20
-143.0541585933274
 30
0.0
 10
103.8335650679575
 20
-143.0541585933274
 30
0.0
 10
103.9331366532212
 20
-143.0541585607884
 30
0.0
 10
103.9331366532212
 20
-143.0541585607884
 30
0.0
  0
LWPOLYLINE
  5
145
330
E7
100
AcDbEntity
  8
Слой 1
 62
   250
420
  3947579
370
    25
100
AcDbPolyline
 90
        4
 70
     0
 43
0.0
 10
188.4728695393001
 20
-182.8843857359992
 10
188.5724411571098
 20
-182.9839826121181
 10
188.6720380983072
 20
-183.0835541648325
 10
188.7716096835686
 20
-183.0835541322933
  0
LWPOLYLINE
  5
146
330
E7
100
AcDbEntity
  8
Слой 1
 62
   250
420
  3947579
370
    25
100
AcDbPolyline
 90
       10
 70
     0
 43
0.0
 10
189.5682084700478
 20
-185.4733732118542
 10
189.9665202971903
 20
-185.9712310080014
 10
190.4643783211304
 20
-186.2699709244866
 10
191.0618331886425
 20
-186.3695423145053
 10
191.6592880236134
 20
-186.36954211926
 10
192.256742793507
 20
-186.1703987534888
 10
192.7546259130472
 20
-185.7720869263385
 10
193.1529374473273
 20
-185.3737751317263
 10
193.3520804226073
 20
-184.7763202316749
 10
193.4516518126247
 20
-184.1788653641654
  0
LINE
  5
147
330
E7
100
AcDbEntity
  8
Слой 1
 62
   250
420
  3947579
370
    25
100
AcDbLine
 10
146.2527703731722
 20
-106.3107356887015
 30
0.0
 11
146.252770340631
 21
-106.2111641034385
 31
0.0
  0
SPLINE
  5
148
330
E7
100
AcDbEntity
  8
Слой 1
 62
   250
420
  3947579
370
    25
100
AcDbSpline
210
0.0
220
0.0
230
1.0
 70
    24
 71
     3
 72
     8
 73
     4
 74
     0
 42
0.0000000001
 43
0.0000000001
 40
0.0
 40
0.0
 40
0.0
 40
0.0
 40
1.0
 40
1.0
 40
1.0
 40
1.0
 10
146.750678946272
 20
-106.3107355259881
 30
0.0
 10
146.750678946272
 20
-106.3107355259881
 30
0.0
 10
146.750679597096
 20
-108.3022685248202
 30
0.0
 10
146.750679597096
 20
-108.3022685248202
 30
0.0
  0
SPLINE
  5
149
330
E7
100
AcDbEntity
  8
Слой 1
 62
   250
420
  3947579
370
    25
100
AcDbSpline
210
0.0
220
0.0
230
1.0
 70
    24
 71
     3
 72
     8
 73
     4
 74
     0
 42
0.0000000001
 43
0.0000000001
 40
0.0
 40
0.0
 40
0.0
 40
0.0
 40
1.0
 40
1.0
 40
1.0
 40
1.0
 10
146.2527703731722
 20
-106.3107356887015
 30
0.0
 10
146.2527703731722
 20
-106.3107356887015
 30
0.0
 10
146.2527710565342
 20
-108.4018402727975
 30
0.0
 10
146.2527710565342
 20
-108.4018402727975
 30
0.0
  0
SPLINE
  5
14A
330
E7
100
AcDbEntity
  8
Слой 1
 62
   250
420
  3947579
370
    25
100
AcDbSpline
210
0.0
220
0.0
230
1.0
 70
    27
 71
     3
 72
    11
 73
     7
 74
     0
 42
0.0000000001
 43
0.0000000001
 40
0.0
 40
0.0
 40
0.0
 40
0.0
 40
1.0
 40
1.0
 40
1.0
 40
2.0
 40
2.0
 40
2.0
 40
2.0
 10
142.6680421117863
 20
-108.6009846147945
 30
0.0
 10
142.6680421117863
 20
-108.6009846147945
 30
0.0
 10
142.6680420141672
 20
-108.3022698590053
 30
0.0
 10
142.6680420141672
 20
-108.3022698590053
 30
0.0
 10
142.6680420141672
 20
-108.3022698590053
 30
0.0
 10
142.6680421117863
 20
-108.6009846147945
 30
0.0
 10
142.6680421117863
 20
-108.6009846147945
 30
0.0
  0
SPLINE
  5
14B
330
E7
100
AcDbEntity
  8
Слой 1
 62
   250
420
  3947579
370
    25
100
AcDbSpline
210
0.0
220
0.0
230
1.0
 70
    24
 71
     3
 72
     8
 73
     4
 74
     0
 42
0.0000000001
 43
0.0000000001
 40
0.0
 40
0.0
 40
0.0
 40
0.0
 40
1.0
 40
1.0
 40
1.0
 40
1.0
 10
190.4643721058332
 20
-167.2510131140664
 30
0.0
 10
190.4643721058332
 20
-167.2510131140664
 30
0.0
 10
190.5639690144907
 20
-167.2510130815201
 30
0.0
 10
190.5639690144907
 20
-167.2510130815201
 30
0.0
  0
SPLINE
  5
14C
330
E7
100
AcDbEntity
  8
Слой 1
 62
   250
420
  3947579
370
    25
100
AcDbSpline
210
0.0
220
0.0
230
1.0
 70
    27
 71
     3
 72
    11
 73
     7
 74
     0
 42
0.0000000001
 43
0.0000000001
 40
0.0
 40
0.0
 40
0.0
 40
0.0
 40
1.0
 40
1.0
 40
1.0
 40
2.0
 40
2.0
 40
2.0
 40
2.0
 10
105.6259515771053
 20
-132.8974511364677
 30
0.0
 10
105.6259515771053
 20
-132.8974511364677
 30
0.0
 10
198.629585398327
 20
-132.897420743354
 30
0.0
 10
198.629585398327
 20
-132.897420743354
 30
0.0
 10
198.629585398327
 20
-132.897420743354
 30
0.0
 10
105.6259515771053
 20
-132.8974511364677
 30
0.0
 10
105.6259515771053
 20
-132.8974511364677
 30
0.0
  0
SPLINE
  5
14D
330
E7
100
AcDbEntity
  8
Слой 1
 62
   250
420
  3947579
370
    25
100
AcDbSpline
210
0.0
220
0.0
230
1.0
 70
    24
 71
     3
 72
     8
 73
     4
 74
     0
 42
0.0000000001
 43
0.0000000001
 40
0.0
 40
0.0
 40
0.0
 40
0.0
 40
1.0
 40
1.0
 40
1.0
 40
1.0
 10
199.824469191678
 20
-131.2046274332212
 30
0.0
 10
199.824469191678
 20
-131.2046274332212
 30
0.0
 10
104.4310413539673
 20
-131.2046586073074
 30
0.0
 10
104.4310413539673
 20
-131.2046586073074
 30
0.0
  0
SPLINE
  5
14E
330
E7
100
AcDbEntity
  8
Слой 1
 62
   250
420
  3947579
370
    25
100
AcDbSpline
210
0.0
220
0.0
230
1.0
 70
    24
 71
     3
 72
     8
 73
     4
 74
     0
 42
0.0000000001
 43
0.0000000001
 40
0.0
 40
0.0
 40
0.0
 40
0.0
 40
1.0
 40
1.0
 40
1.0
 40
1.0
 10
104.8293270767425
 20
-129.3127223869718
 30
0.0
 10
104.8293270767425
 20
-129.3127223869718
 30
0.0
 10
199.4261822323515
 20
-129.3126914732031
 30
0.0
 10
199.4261822323515
 20
-129.3126914732031
 30
0.0
  0
SPLINE
  5
14F
330
E7
100
AcDbEntity
  8
Слой 1
 62
   250
420
  3947579
370
    25
100
AcDbSpline
210
0.0
220
0.0
230
1.0
 70
    24
 71
     3
 72
     8
 73
     4
 74
     0
 42
0.0000000001
 43
0.0000000001
 40
0.0
 40
0.0
 40
0.0
 40
0.0
 40
1.0
 40
1.0
 40
1.0
 40
1.0
 10
105.9246651614229
 20
-129.3127220290218
 30
0.0
 10
105.9246651614229
 20
-129.3127220290218
 30
0.0
 10
107.1195748313659
 20
-129.3127216385316
 30
0.0
 10
107.1195748313659
 20
-129.3127216385316
 30
0.0
  0
SPLINE
  5
150
330
E7
100
AcDbEntity
  8
Слой 1
 62
   250
420
  3947579
370
    25
100
AcDbSpline
210
0.0
220
0.0
230
1.0
 70
    24
 71
     3
 72
     8
 73
     4
 74
     0
 42
0.0000000001
 43
0.0000000001
 40
0.0
 40
0.0
 40
0.0
 40
0.0
 40
1.0
 40
1.0
 40
1.0
 40
1.0
 10
108.3144845013076
 20
-129.312721248042
 30
0.0
 10
108.3144845013076
 20
-129.312721248042
 30
0.0
 10
110.2063952680899
 20
-129.3127206297743
 30
0.0
 10
110.2063952680899
 20
-129.3127206297743
 30
0.0
  0
SPLINE
  5
151
330
E7
100
AcDbEntity
  8
Слой 1
 62
   250
420
  3947579
370
    25
100
AcDbSpline
210
0.0
220
0.0
230
1.0
 70
    24
 71
     3
 72
     8
 73
     4
 74
     0
 42
0.0000000001
 43
0.0000000001
 40
0.0
 40
0.0
 40
0.0
 40
0.0
 40
1.0
 40
1.0
 40
1.0
 40
1.0
 10
111.301733352769
 20
-129.3127202718237
 30
0.0
 10
111.301733352769
 20
-129.3127202718237
 30
0.0
 10
113.193694766341
 20
-129.3127196535389
 30
0.0
 10
113.193694766341
 20
-129.3127196535389
 30
0.0
  0
SPLINE
  5
152
330
E7
100
AcDbEntity
  8
Слой 1
 62
   250
420
  3947579
370
    25
100
AcDbSpline
210
0.0
220
0.0
230
1.0
 70
    24
 71
     3
 72
     8
 73
     4
 74
     0
 42
0.0000000001
 43
0.0000000001
 40
0.0
 40
0.0
 40
0.0
 40
0.0
 40
1.0
 40
1.0
 40
1.0
 40
1.0
 10
114.3886044362827
 20
-129.312719263049
 30
0.0
 10
114.3886044362827
 20
-129.312719263049
 30
0.0
 10
116.280515203065
 20
-129.3127186447816
 30
0.0
 10
116.280515203065
 20
-129.3127186447816
 30
0.0
  0
SPLINE
  5
153
330
E7
100
AcDbEntity
  8
Слой 1
 62
   250
420
  3947579
370
    25
100
AcDbSpline
210
0.0
220
0.0
230
1.0
 70
    24
 71
     3
 72
     8
 73
     4
 74
     0
 42
0.0000000001
 43
0.0000000001
 40
0.0
 40
0.0
 40
0.0
 40
0.0
 40
1.0
 40
1.0
 40
1.0
 40
1.0
 10
117.4754248730067
 20
-129.312718254292
 30
0.0
 10
117.4754248730067
 20
-129.312718254292
 30
0.0
 10
119.3673862865775
 20
-129.3127176360102
 30
0.0
 10
119.3673862865775
 20
-129.3127176360102
 30
0.0
  0
SPLINE
  5
154
330
E7
100
AcDbEntity
  8
Слой 1
 62
   250
420
  3947579
370
    25
100
AcDbSpline
210
0.0
220
0.0
230
1.0
 70
    24
 71
     3
 72
     8
 73
     4
 74
     0
 42
0.0000000001
 43
0.0000000001
 40
0.0
 40
0.0
 40
0.0
 40
0.0
 40
1.0
 40
1.0
 40
1.0
 40
1.0
 10
120.4626737244694
 20
-129.312717278075
 30
0.0
 10
120.4626737244694
 20
-129.312717278075
 30
0.0
 10
122.3546351380395
 20
-129.3127166597918
 30
0.0
 10
122.3546351380395
 20
-129.3127166597918
 30
0.0
  0
SPLINE
  5
155
330
E7
100
AcDbEntity
  8
Слой 1
 62
   250
420
  3947579
370
    25
100
AcDbSpline
210
0.0
220
0.0
230
1.0
 70
    24
 71
     3
 72
     8
 73
     4
 74
     0
 42
0.0000000001
 43
0.0000000001
 40
0.0
 40
0.0
 40
0.0
 40
0.0
 40
1.0
 40
1.0
 40
1.0
 40
1.0
 10
123.5495448079819
 20
-129.3127162693003
 30
0.0
 10
123.5495448079819
 20
-129.3127162693003
 30
0.0
 10
125.4414555747654
 20
-129.3127156510342
 30
0.0
 10
125.4414555747654
 20
-129.3127156510342
 30
0.0
  0
SPLINE
  5
156
330
E7
100
AcDbEntity
  8
Слой 1
 62
   250
420
  3947579
370
    25
100
AcDbSpline
210
0.0
220
0.0
230
1.0
 70
    24
 71
     3
 72
     8
 73
     4
 74
     0
 42
0.0000000001
 43
0.0000000001
 40
0.0
 40
0.0
 40
0.0
 40
0.0
 40
1.0
 40
1.0
 40
1.0
 40
1.0
 10
126.5367936594432
 20
-129.3127152930823
 30
0.0
 10
126.5367936594432
 20
-129.3127152930823
 30
0.0
 10
128.4287550730139
 20
-129.3127146748005
 30
0.0
 10
128.4287550730139
 20
-129.3127146748005
 30
0.0
  0
SPLINE
  5
157
330
E7
100
AcDbEntity
  8
Слой 1
 62
   250
420
  3947579
370
    25
100
AcDbSpline
210
0.0
220
0.0
230
1.0
 70
    24
 71
     3
 72
     8
 73
     4
 74
     0
 42
0.0000000001
 43
0.0000000001
 40
0.0
 40
0.0
 40
0.0
 40
0.0
 40
1.0
 40
1.0
 40
1.0
 40
1.0
 10
129.6236647429557
 20
-129.3127142843096
 30
0.0
 10
129.6236647429557
 20
-129.3127142843096
 30
0.0
 10
131.5155755097399
 20
-129.3127136660431
 30
0.0
 10
131.5155755097399
 20
-129.3127136660431
 30
0.0
  0
SPLINE
  5
158
330
E7
100
AcDbEntity
  8
Слой 1
 62
   250
420
  3947579
370
    25
100
AcDbSpline
210
0.0
220
0.0
230
1.0
 70
    24
 71
     3
 72
     8
 73
     4
 74
     0
 42
0.0000000001
 43
0.0000000001
 40
0.0
 40
0.0
 40
0.0
 40
0.0
 40
1.0
 40
1.0
 40
1.0
 40
1.0
 10
132.7104851796823
 20
-129.3127132755539
 30
0.0
 10
132.7104851796823
 20
-129.3127132755539
 30
0.0
 10
134.502875007989
 20
-129.3127126898091
 30
0.0
 10
134.502875007989
 20
-129.3127126898091
 30
0.0
  0
SPLINE
  5
159
330
E7
100
AcDbEntity
  8
Слой 1
 62
   250
420
  3947579
370
    25
100
AcDbSpline
210
0.0
220
0.0
230
1.0
 70
    24
 71
     3
 72
     8
 73
     4
 74
     0
 42
0.0000000001
 43
0.0000000001
 40
0.0
 40
0.0
 40
0.0
 40
0.0
 40
1.0
 40
1.0
 40
1.0
 40
1.0
 10
135.697784677932
 20
-129.3127122993195
 30
0.0
 10
135.697784677932
 20
-129.3127122993195
 30
0.0
 10
137.5896954447131
 20
-129.3127116810518
 30
0.0
 10
137.5896954447131
 20
-129.3127116810518
 30
0.0
  0
SPLINE
  5
15A
330
E7
100
AcDbEntity
  8
Слой 1
 62
   250
420
  3947579
370
    25
100
AcDbSpline
210
0.0
220
0.0
230
1.0
 70
    24
 71
     3
 72
     8
 73
     4
 74
     0
 42
0.0000000001
 43
0.0000000001
 40
0.0
 40
0.0
 40
0.0
 40
0.0
 40
1.0
 40
1.0
 40
1.0
 40
1.0
 10
138.7846051146567
 20
-129.3127112905606
 30
0.0
 10
138.7846051146567
 20
-129.3127112905606
 30
0.0
 10
140.6765665282275
 20
-129.3127106722787
 30
0.0
 10
140.6765665282275
 20
-129.3127106722787
 30
0.0
  0
SPLINE
  5
15B
330
E7
100
AcDbEntity
  8
Слой 1
 62
   250
420
  3947579
370
    25
100
AcDbSpline
210
0.0
220
0.0
230
1.0
 70
    24
 71
     3
 72
     8
 73
     4
 74
     0
 42
0.0000000001
 43
0.0000000001
 40
0.0
 40
0.0
 40
0.0
 40
0.0
 40
1.0
 40
1.0
 40
1.0
 40
1.0
 10
141.7719046129059
 20
-129.3127103143278
 30
0.0
 10
141.7719046129059
 20
-129.3127103143278
 30
0.0
 10
143.6638153796882
 20
-129.3127096960604
 30
0.0
 10
143.6638153796882
 20
-129.3127096960604
 30
0.0
  0
SPLINE
  5
15C
330
E7
100
AcDbEntity
  8
Слой 1
 62
   250
420
  3947579
370
    25
100
AcDbSpline
210
0.0
220
0.0
230
1.0
 70
    24
 71
     3
 72
     8
 73
     4
 74
     0
 42
0.0000000001
 43
0.0000000001
 40
0.0
 40
0.0
 40
0.0
 40
0.0
 40
1.0
 40
1.0
 40
1.0
 40
1.0
 10
144.8587250496312
 20
-129.3127093055695
 30
0.0
 10
144.8587250496312
 20
-129.3127093055695
 30
0.0
 10
146.7506864632007
 20
-129.3127086872861
 30
0.0
 10
146.7506864632007
 20
-129.3127086872861
 30
0.0
  0
SPLINE
  5
15D
330
E7
100
AcDbEntity
  8
Слой 1
 62
   250
420
  3947579
370
    25
100
AcDbSpline
210
0.0
220
0.0
230
1.0
 70
    24
 71
     3
 72
     8
 73
     4
 74
     0
 42
0.0000000001
 43
0.0000000001
 40
0.0
 40
0.0
 40
0.0
 40
0.0
 40
1.0
 40
1.0
 40
1.0
 40
1.0
 10
147.8459739010926
 20
-129.3127083293518
 30
0.0
 10
147.8459739010926
 20
-129.3127083293518
 30
0.0
 10
149.7379353146627
 20
-129.3127077110687
 30
0.0
 10
149.7379353146627
 20
-129.3127077110687
 30
0.0
  0
SPLINE
  5
15E
330
E7
100
AcDbEntity
  8
Слой 1
 62
   250
420
  3947579
370
    25
100
AcDbSpline
210
0.0
220
0.0
230
1.0
 70
    24
 71
     3
 72
     8
 73
     4
 74
     0
 42
0.0000000001
 43
0.0000000001
 40
0.0
 40
0.0
 40
0.0
 40
0.0
 40
1.0
 40
1.0
 40
1.0
 40
1.0
 10
150.9328449846044
 20
-129.3127073205791
 30
0.0
 10
150.9328449846044
 20
-129.3127073205791
 30
0.0
 10
152.824755751388
 20
-129.3127067023117
 30
0.0
 10
152.824755751388
 20
-129.3127067023117
 30
0.0
  0
SPLINE
  5
15F
330
E7
100
AcDbEntity
  8
Слой 1
 62
   250
420
  3947579
370
    25
100
AcDbSpline
210
0.0
220
0.0
230
1.0
 70
    24
 71
     3
 72
     8
 73
     4
 74
     0
 42
0.0000000001
 43
0.0000000001
 40
0.0
 40
0.0
 40
0.0
 40
0.0
 40
1.0
 40
1.0
 40
1.0
 40
1.0
 10
154.0196654213303
 20
-129.3127063118221
 30
0.0
 10
154.0196654213303
 20
-129.3127063118221
 30
0.0
 10
155.8120552496384
 20
-129.3127057260773
 30
0.0
 10
155.8120552496384
 20
-129.3127057260773
 30
0.0
  0
SPLINE
  5
160
330
E7
100
AcDbEntity
  8
Слой 1
 62
   250
420
  3947579
370
    25
100
AcDbSpline
210
0.0
220
0.0
230
1.0
 70
    24
 71
     3
 72
     8
 73
     4
 74
     0
 42
0.0000000001
 43
0.0000000001
 40
0.0
 40
0.0
 40
0.0
 40
0.0
 40
1.0
 40
1.0
 40
1.0
 40
1.0
 10
157.0069649195788
 20
-129.3127053355861
 30
0.0
 10
157.0069649195788
 20
-129.3127053355861
 30
0.0
 10
158.8988756863631
 20
-129.31270471732
 30
0.0
 10
158.8988756863631
 20
-129.31270471732
 30
0.0
  0
SPLINE
  5
161
330
E7
100
AcDbEntity
  8
Слой 1
 62
   250
420
  3947579
370
    25
100
AcDbSpline
210
0.0
220
0.0
230
1.0
 70
    24
 71
     3
 72
     8
 73
     4
 74
     0
 42
0.0000000001
 43
0.0000000001
 40
0.0
 40
0.0
 40
0.0
 40
0.0
 40
1.0
 40
1.0
 40
1.0
 40
1.0
 10
160.0937853563048
 20
-129.3127043268304
 30
0.0
 10
160.0937853563048
 20
-129.3127043268304
 30
0.0
 10
161.9857467698755
 20
-129.312703708546
 30
0.0
 10
161.9857467698755
 20
-129.312703708546
 30
0.0
  0
SPLINE
  5
162
330
E7
100
AcDbEntity
  8
Слой 1
 62
   250
420
  3947579
370
    25
100
AcDbSpline
210
0.0
220
0.0
230
1.0
 70
    24
 71
     3
 72
     8
 73
     4
 74
     0
 42
0.0000000001
 43
0.0000000001
 40
0.0
 40
0.0
 40
0.0
 40
0.0
 40
1.0
 40
1.0
 40
1.0
 40
1.0
 10
163.0810848545552
 20
-129.3127033505951
 30
0.0
 10
163.0810848545552
 20
-129.3127033505951
 30
0.0
 10
164.9729956213375
 20
-129.3127027323286
 30
0.0
 10
164.9729956213375
 20
-129.3127027323286
 30
0.0
  0
SPLINE
  5
163
330
E7
100
AcDbEntity
  8
Слой 1
 62
   250
420
  3947579
370
    25
100
AcDbSpline
210
0.0
220
0.0
230
1.0
 70
    24
 71
     3
 72
     8
 73
     4
 74
     0
 42
0.0000000001
 43
0.0000000001
 40
0.0
 40
0.0
 40
0.0
 40
0.0
 40
1.0
 40
1.0
 40
1.0
 40
1.0
 10
166.1679052912799
 20
-129.312702341839
 30
0.0
 10
166.1679052912799
 20
-129.312702341839
 30
0.0
 10
168.0598667048506
 20
-129.3127017235543
 30
0.0
 10
168.0598667048506
 20
-129.3127017235543
 30
0.0
  0
SPLINE
  5
164
330
E7
100
AcDbEntity
  8
Слой 1
 62
   250
420
  3947579
370
    25
100
AcDbSpline
210
0.0
220
0.0
230
1.0
 70
    24
 71
     3
 72
     8
 73
     4
 74
     0
 42
0.0000000001
 43
0.0000000001
 40
0.0
 40
0.0
 40
0.0
 40
0.0
 40
1.0
 40
1.0
 40
1.0
 40
1.0
 10
169.1552047895303
 20
-129.3127013656037
 30
0.0
 10
169.1552047895303
 20
-129.3127013656037
 30
0.0
 10
171.0471155563107
 20
-129.3127007473372
 30
0.0
 10
171.0471155563107
 20
-129.3127007473372
 30
0.0
  0
SPLINE
  5
165
330
E7
100
AcDbEntity
  8
Слой 1
 62
   250
420
  3947579
370
    25
100
AcDbSpline
210
0.0
220
0.0
230
1.0
 70
    24
 71
     3
 72
     8
 73
     4
 74
     0
 42
0.0000000001
 43
0.0000000001
 40
0.0
 40
0.0
 40
0.0
 40
0.0
 40
1.0
 40
1.0
 40
1.0
 40
1.0
 10
172.2420252262543
 20
-129.3127003568464
 30
0.0
 10
172.2420252262543
 20
-129.3127003568464
 30
0.0
 10
174.1339866398232
 20
-129.3126997385629
 30
0.0
 10
174.1339866398232
 20
-129.3126997385629
 30
0.0
  0
SPLINE
  5
166
330
E7
100
AcDbEntity
  8
Слой 1
 62
   250
420
  3947579
370
    25
100
AcDbSpline
210
0.0
220
0.0
230
1.0
 70
    24
 71
     3
 72
     8
 73
     4
 74
     0
 42
0.0000000001
 43
0.0000000001
 40
0.0
 40
0.0
 40
0.0
 40
0.0
 40
1.0
 40
1.0
 40
1.0
 40
1.0
 10
175.3288963097668
 20
-129.3126993480714
 30
0.0
 10
175.3288963097668
 20
-129.3126993480714
 30
0.0
 10
177.2208070765498
 20
-129.3126987298063
 30
0.0
 10
177.2208070765498
 20
-129.3126987298063
 30
0.0
  0
SPLINE
  5
167
330
E7
100
AcDbEntity
  8
Слой 1
 62
   250
420
  3947579
370
    25
100
AcDbSpline
210
0.0
220
0.0
230
1.0
 70
    24
 71
     3
 72
     8
 73
     4
 74
     0
 42
0.0000000001
 43
0.0000000001
 40
0.0
 40
0.0
 40
0.0
 40
0.0
 40
1.0
 40
1.0
 40
1.0
 40
1.0
 10
178.3161451612288
 20
-129.3126983718553
 30
0.0
 10
178.3161451612288
 20
-129.3126983718553
 30
0.0
 10
180.2080559280098
 20
-129.3126977535886
 30
0.0
 10
180.2080559280098
 20
-129.3126977535886
 30
0.0
  0
SPLINE
  5
168
330
E7
100
AcDbEntity
  8
Слой 1
 62
   250
420
  3947579
370
    25
100
AcDbSpline
210
0.0
220
0.0
230
1.0
 70
    24
 71
     3
 72
     8
 73
     4
 74
     0
 42
0.0000000001
 43
0.0000000001
 40
0.0
 40
0.0
 40
0.0
 40
0.0
 40
1.0
 40
1.0
 40
1.0
 40
1.0
 10
181.4029655979529
 20
-129.3126973630977
 30
0.0
 10
181.4029655979529
 20
-129.3126973630977
 30
0.0
 10
183.2949270115236
 20
-129.3126967448142
 30
0.0
 10
183.2949270115236
 20
-129.3126967448142
 30
0.0
  0
SPLINE
  5
169
330
E7
100
AcDbEntity
  8
Слой 1
 62
   250
420
  3947579
370
    25
100
AcDbSpline
210
0.0
220
0.0
230
1.0
 70
    24
 71
     3
 72
     8
 73
     4
 74
     0
 42
0.0000000001
 43
0.0000000001
 40
0.0
 40
0.0
 40
0.0
 40
0.0
 40
1.0
 40
1.0
 40
1.0
 40
1.0
 10
184.3902650962033
 20
-129.3126963868652
 30
0.0
 10
184.3902650962033
 20
-129.3126963868652
 30
0.0
 10
186.2821758629863
 20
-129.3126957685975
 30
0.0
 10
186.2821758629863
 20
-129.3126957685975
 30
0.0
  0
SPLINE
  5
16A
330
E7
100
AcDbEntity
  8
Слой 1
 62
   250
420
  3947579
370
    25
100
AcDbSpline
210
0.0
220
0.0
230
1.0
 70
    24
 71
     3
 72
     8
 73
     4
 74
     0
 42
0.0000000001
 43
0.0000000001
 40
0.0
 40
0.0
 40
0.0
 40
0.0
 40
1.0
 40
1.0
 40
1.0
 40
1.0
 10
187.4771108563215
 20
-129.3126953780983
 30
0.0
 10
187.4771108563215
 20
-129.3126953780983
 30
0.0
 10
189.3690469464987
 20
-129.3126947598245
 30
0.0
 10
189.3690469464987
 20
-129.3126947598245
 30
0.0
  0
SPLINE
  5
16B
330
E7
100
AcDbEntity
  8
Слой 1
 62
   250
420
  3947579
370
    25
100
AcDbSpline
210
0.0
220
0.0
230
1.0
 70
    24
 71
     3
 72
     8
 73
     4
 74
     0
 42
0.0000000001
 43
0.0000000001
 40
0.0
 40
0.0
 40
0.0
 40
0.0
 40
1.0
 40
1.0
 40
1.0
 40
1.0
 10
190.5639566164404
 20
-129.3126943693333
 30
0.0
 10
190.5639566164404
 20
-129.3126943693333
 30
0.0
 10
192.3562957979607
 20
-129.3126937836064
 30
0.0
 10
192.3562957979607
 20
-129.3126937836064
 30
0.0
  0
SPLINE
  5
16C
330
E7
100
AcDbEntity
  8
Слой 1
 62
   250
420
  3947579
370
    25
100
AcDbSpline
210
0.0
220
0.0
230
1.0
 70
    24
 71
     3
 72
     8
 73
     4
 74
     0
 42
0.0000000001
 43
0.0000000001
 40
0.0
 40
0.0
 40
0.0
 40
0.0
 40
1.0
 40
1.0
 40
1.0
 40
1.0
 10
193.5512054679011
 20
-129.3126933931152
 30
0.0
 10
193.5512054679011
 20
-129.3126933931152
 30
0.0
 10
195.4431415580783
 20
-129.3126927748398
 30
0.0
 10
195.4431415580783
 20
-129.3126927748398
 30
0.0
  0
SPLINE
  5
16D
330
E7
100
AcDbEntity
  8
Слой 1
 62
   250
420
  3947579
370
    25
100
AcDbSpline
210
0.0
220
0.0
230
1.0
 70
    24
 71
     3
 72
     8
 73
     4
 74
     0
 42
0.0000000001
 43
0.0000000001
 40
0.0
 40
0.0
 40
0.0
 40
0.0
 40
1.0
 40
1.0
 40
1.0
 40
1.0
 10
196.6380512280219
 20
-129.3126923843503
 30
0.0
 10
196.6380512280219
 20
-129.3126923843503
 30
0.0
 10
198.3308441476719
 20
-129.3126918311534
 30
0.0
 10
198.3308441476719
 20
-129.3126918311534
 30
0.0
  0
SPLINE
  5
16E
330
E7
100
AcDbEntity
  8
Слой 1
 62
   250
420
  3947579
370
    25
100
AcDbSpline
210
0.0
220
0.0
230
1.0
 70
    24
 71
     3
 72
     8
 73
     4
 74
     0
 42
0.0000000001
 43
0.0000000001
 40
0.0
 40
0.0
 40
0.0
 40
0.0
 40
1.0
 40
1.0
 40
1.0
 40
1.0
 10
199.5257511167306
 20
-121.0479206597241
 30
0.0
 10
199.5257511167306
 20
-121.0479206597241
 30
0.0
 10
104.7297527905956
 20
-121.0479516385721
 30
0.0
 10
104.7297527905956
 20
-121.0479516385721
 30
0.0
  0
SPLINE
  5
16F
330
E7
100
AcDbEntity
  8
Слой 1
 62
   250
420
  3947579
370
    25
100
AcDbSpline
210
0.0
220
0.0
230
1.0
 70
    24
 71
     3
 72
     8
 73
     4
 74
     0
 42
0.0000000001
 43
0.0000000001
 40
0.0
 40
0.0
 40
0.0
 40
0.0
 40
1.0
 40
1.0
 40
1.0
 40
1.0
 10
142.0706125676691
 20
-108.5014132247682
 30
0.0
 10
142.0706125676691
 20
-108.5014132247682
 30
0.0
 10
142.2697557707349
 20
-108.6009847449513
 30
0.0
 10
142.2697557707349
 20
-108.6009847449513
 30
0.0
  0
SPLINE
  5
170
330
E7
100
AcDbEntity
  8
Слой 1
 62
   250
420
  3947579
370
    25
100
AcDbSpline
210
0.0
220
0.0
230
1.0
 70
    24
 71
     3
 72
     8
 73
     4
 74
     0
 42
0.0000000001
 43
0.0000000001
 40
0.0
 40
0.0
 40
0.0
 40
0.0
 40
1.0
 40
1.0
 40
1.0
 40
1.0
 10
104.7297690935398
 20
-170.9353417267879
 30
0.0
 10
104.7297690935398
 20
-170.9353417267879
 30
0.0
 10
104.8293406137229
 20
-170.736198523722
 30
0.0
 10
104.8293406137229
 20
-170.736198523722
 30
0.0
  0
SPLINE
  5
171
330
E7
100
AcDbEntity
  8
Слой 1
 62
   250
420
  3947579
370
    25
100
AcDbSpline
210
0.0
220
0.0
230
1.0
 70
    24
 71
     3
 72
     8
 73
     4
 74
     0
 42
0.0000000001
 43
0.0000000001
 40
0.0
 40
0.0
 40
0.0
 40
0.0
 40
1.0
 40
1.0
 40
1.0
 40
1.0
 10
161.9857400013887
 20
-108.6009783018694
 30
0.0
 10
161.9857400013887
 20
-108.6009783018694
 30
0.0
 10
162.1848831393741
 20
-108.5014066515276
 30
0.0
 10
162.1848831393741
 20
-108.5014066515276
 30
0.0
  0
SPLINE
  5
172
330
E7
100
AcDbEntity
  8
Слой 1
 62
   250
420
  3947579
370
    25
100
AcDbSpline
210
0.0
220
0.0
230
1.0
 70
    24
 71
     3
 72
     8
 73
     4
 74
     0
 42
0.0000000001
 43
0.0000000001
 40
0.0
 40
0.0
 40
0.0
 40
0.0
 40
1.0
 40
1.0
 40
1.0
 40
1.0
 10
200.0236505392252
 20
-170.5370242441824
 30
0.0
 10
200.0236505392252
 20
-170.5370242441824
 30
0.0
 10
199.924078888875
 20
-170.3378557828014
 30
0.0
 10
199.924078888875
 20
-170.3378557828014
 30
0.0
  0
LWPOLYLINE
  5
173
330
E7
100
AcDbEntity
  8
Слой 1
 62
   250
420
  3947579
370
    25
100
AcDbPolyline
 90
       12
 70
     0
 43
0.0
 10
123.649111804995
 20
-115.2725656000311
 10
123.5495404149776
 20
-115.8700204675412
 10
123.3503974396975
 20
-116.4674753675907
 10
122.9520606145555
 20
-116.9653334240787
 10
122.454202785867
 20
-117.2640736659602
 10
121.8567733393702
 20
-117.4632170317237
 10
121.1597215957418
 20
-117.463217259516
 10
120.5622920190847
 20
-117.264074284227
 10
120.0643833483568
 20
-116.9653343677584
 10
119.6660968446065
 20
-116.4674765716009
 10
119.3673818935739
 20
-115.8700218342492
 10
119.3673816983286
 20
-115.2725669992777
  0
SPLINE
  5
174
330
E7
100
AcDbEntity
  8
Слой 1
 62
   250
420
  3947579
370
    25
100
AcDbSpline
210
0.0
220
0.0
230
1.0
 70
    24
 71
     3
 72
     8
 73
     4
 74
     0
 42
0.0000000001
 43
0.0000000001
 40
0.0
 40
0.0
 40
0.0
 40
0.0
 40
1.0
 40
1.0
 40
1.0
 40
1.0
 10
122.5537731345795
 20
-113.4802014530685
 30
0.0
 10
122.5537731345795
 20
-113.4802014530685
 30
0.0
 10
120.3630969652207
 20
-113.4802021689688
 30
0.0
 10
120.3630969652207
 20
-113.4802021689688
 30
0.0
  0
SPLINE
  5
175
330
E7
100
AcDbEntity
  8
Слой 1
 62
   250
420
  3947579
370
    25
100
AcDbSpline
210
0.0
220
0.0
230
1.0
 70
    24
 71
     3
 72
     8
 73
     4
 74
     0
 42
0.0000000001
 43
0.0000000001
 40
0.0
 40
0.0
 40
0.0
 40
0.0
 40
1.0
 40
1.0
 40
1.0
 40
1.0
 10
113.2932611776177
 20
-113.4802044793568
 30
0.0
 10
113.2932611776177
 20
-113.4802044793568
 30
0.0
 10
111.1025850082576
 20
-113.4802051952581
 30
0.0
 10
111.1025850082576
 20
-113.4802051952581
 30
0.0
  0
SPLINE
  5
176
330
E7
100
AcDbEntity
  8
Слой 1
 62
   250
420
  3947579
370
    25
100
AcDbSpline
210
0.0
220
0.0
230
1.0
 70
    24
 71
     3
 72
     8
 73
     4
 74
     0
 42
0.0000000001
 43
0.0000000001
 40
0.0
 40
0.0
 40
0.0
 40
0.0
 40
1.0
 40
1.0
 40
1.0
 40
1.0
 10
157.7039592479333
 20
-108.600979701134
 30
0.0
 10
157.7039592479333
 20
-108.600979701134
 30
0.0
 10
157.6043876626725
 20
-108.600979733672
 30
0.0
 10
157.6043876626725
 20
-108.600979733672
 30
0.0
  0
SPLINE
  5
177
330
E7
100
AcDbEntity
  8
Слой 1
 62
   250
420
  3947579
370
    25
100
AcDbSpline
210
0.0
220
0.0
230
1.0
 70
    24
 71
     3
 72
     8
 73
     4
 74
     0
 42
0.0000000001
 43
0.0000000001
 40
0.0
 40
0.0
 40
0.0
 40
0.0
 40
1.0
 40
1.0
 40
1.0
 40
1.0
 10
200.5215324872957
 20
-166.5539834072037
 30
0.0
 10
200.5215324872957
 20
-166.5539834072037
 30
0.0
 10
200.5215324547564
 20
-166.4544118219404
 30
0.0
 10
200.5215324547564
 20
-166.4544118219404
 30
0.0
  0
LWPOLYLINE
  5
178
330
E7
100
AcDbEntity
  8
Слой 1
 62
   250
420
  3947579
370
    25
100
AcDbPolyline
 90
       12
 70
     0
 43
0.0
 10
119.3673816983286
 20
-115.2725669992777
 10
119.3673815030833
 20
-114.6751121643065
 10
119.6660960961666
 20
-114.1772288169802
 10
120.0643822745113
 20
-113.6793454371136
 10
120.4626685179454
 20
-113.3806305511678
 10
121.0601486112223
 20
-113.1814618619934
 10
121.7572003548513
 20
-113.1814616342011
 10
122.354629898975
 20
-113.2810583476211
 10
122.8524879229074
 20
-113.5797729407124
 10
123.2508250734531
 20
-114.0776560602468
 10
123.5495400244871
 20
-114.6751107975973
 10
123.649111804995
 20
-115.2725656000311
  0
SPLINE
  5
179
330
E7
100
AcDbEntity
  8
Слой 1
 62
   250
420
  3947579
370
    25
100
AcDbSpline
210
0.0
220
0.0
230
1.0
 70
    24
 71
     3
 72
     8
 73
     4
 74
     0
 42
0.0000000001
 43
0.0000000001
 40
0.0
 40
0.0
 40
0.0
 40
0.0
 40
1.0
 40
1.0
 40
1.0
 40
1.0
 10
103.7340011623282
 20
-166.5540150368754
 30
0.0
 10
103.7340011623282
 20
-166.5540150368754
 30
0.0
 10
103.7340011297893
 20
-166.4544434516121
 30
0.0
 10
103.7340011297893
 20
-166.4544434516121
 30
0.0
  0
SPLINE
  5
17A
330
E7
100
AcDbEntity
  8
Слой 1
 62
   250
420
  3947579
370
    25
100
AcDbSpline
210
0.0
220
0.0
230
1.0
 70
    24
 71
     3
 72
     8
 73
     4
 74
     0
 42
0.0000000001
 43
0.0000000001
 40
0.0
 40
0.0
 40
0.0
 40
0.0
 40
1.0
 40
1.0
 40
1.0
 40
1.0
 10
161.9857400013887
 20
-108.6009783018694
 30
0.0
 10
161.9857400013887
 20
-108.6009783018694
 30
0.0
 10
142.2697557707349
 20
-108.6009847449513
 30
0.0
 10
142.2697557707349
 20
-108.6009847449513
 30
0.0
  0
SPLINE
  5
17B
330
E7
100
AcDbEntity
  8
Слой 1
 62
   250
420
  3947579
370
    25
100
AcDbSpline
210
0.0
220
0.0
230
1.0
 70
    24
 71
     3
 72
     8
 73
     4
 74
     0
 42
0.0000000001
 43
0.0000000001
 40
0.0
 40
0.0
 40
0.0
 40
0.0
 40
1.0
 40
1.0
 40
1.0
 40
1.0
 10
104.1322685320897
 20
-108.5014256228268
 30
0.0
 10
104.1322685320897
 20
-108.5014256228268
 30
0.0
 10
142.0706125676691
 20
-108.5014132247682
 30
0.0
 10
142.0706125676691
 20
-108.5014132247682
 30
0.0
  0
SPLINE
  5
17C
330
E7
100
AcDbEntity
  8
Слой 1
 62
   250
420
  3947579
370
    25
100
AcDbSpline
210
0.0
220
0.0
230
1.0
 70
    24
 71
     3
 72
     8
 73
     4
 74
     0
 42
0.0000000001
 43
0.0000000001
 40
0.0
 40
0.0
 40
0.0
 40
0.0
 40
1.0
 40
1.0
 40
1.0
 40
1.0
 10
162.1848831393741
 20
-108.5014066515276
 30
0.0
 10
162.1848831393741
 20
-108.5014066515276
 30
0.0
 10
200.1232018515596
 20
-108.5013942534799
 30
0.0
 10
200.1232018515596
 20
-108.5013942534799
 30
0.0
  0
LWPOLYLINE
  5
17D
330
E7
100
AcDbEntity
  8
Слой 1
 62
   250
420
  3947579
370
    25
100
AcDbPolyline
 90
       12
 70
     0
 43
0.0
 10
114.3885998480319
 20
-115.2725686263184
 10
114.2890284580145
 20
-115.8700234938286
 10
114.089834835946
 20
-116.4674783938963
 10
113.6915486250531
 20
-116.865764865105
 10
113.1936908289046
 20
-117.2640766922475
 10
112.5962107356187
 20
-117.4632200580271
 10
111.9987812240427
 20
-117.4632202532647
 10
111.4013010331371
 20
-117.3636488632544
 10
110.9034429766557
 20
-116.9653373615075
 10
110.4055342733949
 20
-116.5670511831695
 10
110.1068193223616
 20
-115.9695964458162
 10
110.0072475093144
 20
-115.2725700581216
  0
LINE
  5
17E
330
E7
100
AcDbEntity
  8
Слой 1
 62
   250
420
  3947579
370
    25
100
AcDbLine
 10
146.5514858774014
 20
-108.6009833457044
 30
0.0
 11
146.6511081094518
 21
-108.6009833131488
 31
0.0
  0
SPLINE
  5
17F
330
E7
100
AcDbEntity
  8
Слой 1
 62
   250
420
  3947579
370
    25
100
AcDbSpline
210
0.0
220
0.0
230
1.0
 70
    24
 71
     3
 72
     8
 73
     4
 74
     0
 42
0.0000000001
 43
0.0000000001
 40
0.0
 40
0.0
 40
0.0
 40
0.0
 40
1.0
 40
1.0
 40
1.0
 40
1.0
 10
199.4261822323515
 20
-129.3126914732031
 30
0.0
 10
199.4261822323515
 20
-129.3126914732031
 30
0.0
 10
199.9240656447657
 20
-129.8105745602052
 30
0.0
 10
199.9240656447657
 20
-129.8105745602052
 30
0.0
  0
SPLINE
  5
180
330
E7
100
AcDbEntity
  8
Слой 1
 62
   250
420
  3947579
370
    25
100
AcDbSpline
210
0.0
220
0.0
230
1.0
 70
    24
 71
     3
 72
     8
 73
     4
 74
     0
 42
0.0000000001
 43
0.0000000001
 40
0.0
 40
0.0
 40
0.0
 40
0.0
 40
1.0
 40
1.0
 40
1.0
 40
1.0
 10
103.733990423859
 20
-133.694049760247
 30
0.0
 10
103.733990423859
 20
-133.694049760247
 30
0.0
 10
103.7339902286137
 20
-133.0965949252758
 30
0.0
 10
103.7339902286137
 20
-133.0965949252758
 30
0.0
  0
LWPOLYLINE
  5
181
330
E7
100
AcDbEntity
  8
Слой 1
 62
   250
420
  3947579
370
    25
100
AcDbPolyline
 90
        6
 70
     0
 43
0.0
 10
104.3314693131346
 20
-129.810605799378
 10
104.3314693456748
 20
-129.9101773846422
 10
104.3314694107617
 20
-130.1093458785612
 10
104.3314695083805
 20
-130.4080606343492
 10
104.4310412238096
 20
-130.8063722662551
 10
104.4310413539673
 20
-131.2046586073074
  0
SPLINE
  5
182
330
E7
100
AcDbEntity
  8
Слой 1
 62
   250
420
  3947579
370
    25
100
AcDbSpline
210
0.0
220
0.0
230
1.0
 70
    24
 71
     3
 72
     8
 73
     4
 74
     0
 42
0.0000000001
 43
0.0000000001
 40
0.0
 40
0.0
 40
0.0
 40
0.0
 40
1.0
 40
1.0
 40
1.0
 40
1.0
 10
105.3271862396071
 20
-133.0965944046295
 30
0.0
 10
105.3271862396071
 20
-133.0965944046295
 30
0.0
 10
105.3271973034883
 20
-166.952326180672
 30
0.0
 10
105.3271973034883
 20
-166.952326180672
 30
0.0
  0
LWPOLYLINE
  5
183
330
E7
100
AcDbEntity
  8
Слой 1
 62
   250
420
  3947579
370
    25
100
AcDbPolyline
 90
       12
 70
     0
 43
0.0
 10
110.0072475093144
 20
-115.2725700581216
 10
110.1068188993318
 20
-114.6751151906115
 10
110.4055334924151
 20
-114.1772318432842
 10
110.8038703175482
 20
-113.6793484634015
 10
111.3017281462443
 20
-113.3806335449165
 10
111.7996366542599
 20
-113.181464888282
 10
112.3970661658365
 20
-113.1814646930447
 10
112.994495709962
 20
-113.2810614064656
 10
113.5919759659449
 20
-113.5797759669997
 10
113.9902624697029
 20
-114.0776590865502
 10
114.2890280675246
 20
-114.6751138238859
 10
114.3885998480319
 20
-115.2725686263184
  0
SPLINE
  5
184
330
E7
100
AcDbEntity
  8
Слой 1
 62
   250
420
  3947579
370
    25
100
AcDbSpline
210
0.0
220
0.0
230
1.0
 70
    24
 71
     3
 72
     8
 73
     4
 74
     0
 42
0.0000000001
 43
0.0000000001
 40
0.0
 40
0.0
 40
0.0
 40
0.0
 40
1.0
 40
1.0
 40
1.0
 40
1.0
 10
104.3314693131346
 20
-129.810605799378
 30
0.0
 10
104.3314693131346
 20
-129.810605799378
 30
0.0
 10
104.8293270767425
 20
-129.3127223869718
 30
0.0
 10
104.8293270767425
 20
-129.3127223869718
 30
0.0
  0
LINE
  5
185
330
E7
100
AcDbEntity
  8
Слой 1
 62
   250
420
  3947579
370
    25
100
AcDbLine
 10
104.7297717293462
 20
-179.0009693372003
 30
0.0
 11
104.7297716968072
 21
-178.901397751937
 31
0.0
  0
SPLINE
  5
186
330
E7
100
AcDbEntity
  8
Слой 1
 62
   250
420
  3947579
370
    25
100
AcDbSpline
210
0.0
220
0.0
230
1.0
 70
    24
 71
     3
 72
     8
 73
     4
 74
     0
 42
0.0000000001
 43
0.0000000001
 40
0.0
 40
0.0
 40
0.0
 40
0.0
 40
1.0
 40
1.0
 40
1.0
 40
1.0
 10
103.7340004464343
 20
-164.3633641909096
 30
0.0
 10
103.7340004464343
 20
-164.3633641909096
 30
0.0
 10
103.7340011623282
 20
-166.5540150368754
 30
0.0
 10
103.7340011623282
 20
-166.5540150368754
 30
0.0
  0
SPLINE
  5
187
330
E7
100
AcDbEntity
  8
Слой 1
 62
   250
420
  3947579
370
    25
100
AcDbSpline
210
0.0
220
0.0
230
1.0
 70
    24
 71
     3
 72
     8
 73
     4
 74
     0
 42
0.0000000001
 43
0.0000000001
 40
0.0
 40
0.0
 40
0.0
 40
0.0
 40
1.0
 40
1.0
 40
1.0
 40
1.0
 10
104.2318443801992
 20
-121.5458350509956
 30
0.0
 10
104.2318443801992
 20
-121.5458350509956
 30
0.0
 10
104.2318470160052
 20
-129.6114626614096
 30
0.0
 10
104.2318470160052
 20
-129.6114626614096
 30
0.0
  0
SPLINE
  5
188
330
E7
100
AcDbEntity
  8
Слой 1
 62
   250
420
  3947579
370
    25
100
AcDbSpline
210
0.0
220
0.0
230
1.0
 70
    24
 71
     3
 72
     8
 73
     4
 74
     0
 42
0.0000000001
 43
0.0000000001
 40
0.0
 40
0.0
 40
0.0
 40
0.0
 40
1.0
 40
1.0
 40
1.0
 40
1.0
 10
103.7340000559441
 20
-163.1684545209679
 30
0.0
 10
103.7340000559441
 20
-163.1684545209679
 30
0.0
 10
103.7340011623282
 20
-166.5540150368754
 30
0.0
 10
103.7340011623282
 20
-166.5540150368754
 30
0.0
  0
SPLINE
  5
189
330
E7
100
AcDbEntity
  8
Слой 1
 62
   250
420
  3947579
370
    25
100
AcDbSpline
210
0.0
220
0.0
230
1.0
 70
    24
 71
     3
 72
     8
 73
     4
 74
     0
 42
0.0000000001
 43
0.0000000001
 40
0.0
 40
0.0
 40
0.0
 40
0.0
 40
1.0
 40
1.0
 40
1.0
 40
1.0
 10
103.7339992098848
 20
-160.5794920105565
 30
0.0
 10
103.7339992098848
 20
-160.5794920105565
 30
0.0
 10
103.733990423859
 20
-133.694049760247
 30
0.0
 10
103.733990423859
 20
-133.694049760247
 30
0.0
  0
SPLINE
  5
18A
330
E7
100
AcDbEntity
  8
Слой 1
 62
   250
420
  3947579
370
    25
100
AcDbSpline
210
0.0
220
0.0
230
1.0
 70
    24
 71
     3
 72
     8
 73
     4
 74
     0
 42
0.0000000001
 43
0.0000000001
 40
0.0
 40
0.0
 40
0.0
 40
0.0
 40
1.0
 40
1.0
 40
1.0
 40
1.0
 10
103.7340004464343
 20
-164.3633641909096
 30
0.0
 10
103.7340004464343
 20
-164.3633641909096
 30
0.0
 10
103.7340091999122
 20
-191.1492095325619
 30
0.0
 10
103.7340091999122
 20
-191.1492095325619
 30
0.0
  0
SPLINE
  5
18B
330
E7
100
AcDbEntity
  8
Слой 1
 62
   250
420
  3947579
370
    25
100
AcDbSpline
210
0.0
220
0.0
230
1.0
 70
    24
 71
     3
 72
     8
 73
     4
 74
     0
 42
0.0000000001
 43
0.0000000001
 40
0.0
 40
0.0
 40
0.0
 40
0.0
 40
1.0
 40
1.0
 40
1.0
 40
1.0
 10
103.7339902286137
 20
-133.0965949252758
 30
0.0
 10
103.7339902286137
 20
-133.0965949252758
 30
0.0
 10
103.7339823537437
 20
-108.9993090026911
 30
0.0
 10
103.7339823537437
 20
-108.9993090026911
 30
0.0
  0
SPLINE
  5
18C
330
E7
100
AcDbEntity
  8
Слой 1
 62
   250
420
  3947579
370
    25
100
AcDbSpline
210
0.0
220
0.0
230
1.0
 70
    24
 71
     3
 72
     8
 73
     4
 74
     0
 42
0.0000000001
 43
0.0000000001
 40
0.0
 40
0.0
 40
0.0
 40
0.0
 40
1.0
 40
1.0
 40
1.0
 40
1.0
 10
104.7297717293462
 20
-179.0009693372003
 30
0.0
 10
104.7297717293462
 20
-179.0009693372003
 30
0.0
 10
104.7297690935398
 20
-170.9353417267879
 30
0.0
 10
104.7297690935398
 20
-170.9353417267879
 30
0.0
  0
LWPOLYLINE
  5
18D
330
E7
100
AcDbEntity
  8
Слой 1
 62
   250
420
  3947579
370
    25
100
AcDbPolyline
 90
        6
 70
     0
 43
0.0
 10
104.4310536869361
 20
-168.9438341489659
 10
104.4310538171035
 20
-169.3421458134121
 10
104.3314823619979
 20
-169.7404321870033
 10
104.3314824596254
 20
-170.0391722661849
 10
104.3314825247036
 20
-170.2383154367109
 10
104.3314825572435
 20
-170.3378870219742
  0
LINE
  5
18E
330
E7
100
AcDbEntity
  8
Слой 1
 62
   250
420
  3947579
370
    25
100
AcDbLine
 10
103.7339998606988
 20
-162.5709996859957
 30
0.0
 11
103.7339992098848
 21
-160.5794920105565
 31
0.0
  0
SPLINE
  5
18F
330
E7
100
AcDbEntity
  8
Слой 1
 62
   250
420
  3947579
370
    25
100
AcDbSpline
210
0.0
220
0.0
230
1.0
 70
    24
 71
     3
 72
     8
 73
     4
 74
     0
 42
0.0000000001
 43
0.0000000001
 40
0.0
 40
0.0
 40
0.0
 40
0.0
 40
1.0
 40
1.0
 40
1.0
 40
1.0
 10
199.5257511492711
 20
-121.1474922449865
 30
0.0
 10
199.5257511492711
 20
-121.1474922449865
 30
0.0
 10
200.0236345291441
 20
-121.5458037467279
 30
0.0
 10
200.0236345291441
 20
-121.5458037467279
 30
0.0
  0
SPLINE
  5
190
330
E7
100
AcDbEntity
  8
Слой 1
 62
   250
420
  3947579
370
    25
100
AcDbSpline
210
0.0
220
0.0
230
1.0
 70
    24
 71
     3
 72
     8
 73
     4
 74
     0
 42
0.0000000001
 43
0.0000000001
 40
0.0
 40
0.0
 40
0.0
 40
0.0
 40
1.0
 40
1.0
 40
1.0
 40
1.0
 10
104.2318443801992
 20
-121.5458350509956
 30
0.0
 10
104.2318443801992
 20
-121.5458350509956
 30
0.0
 10
104.7297527905956
 20
-121.0479516385721
 30
0.0
 10
104.7297527905956
 20
-121.0479516385721
 30
0.0
  0
LINE
  5
191
330
E7
100
AcDbEntity
  8
Слой 1
 62
   250
420
  3947579
370
    25
100
AcDbLine
 10
200.5215136787118
 20
-108.9992773730207
 30
0.0
 11
200.1232018515596
 21
-108.5013942534799
 31
0.0
  0
LINE
  5
192
330
E7
100
AcDbEntity
  8
Слой 1
 62
   250
420
  3947579
370
    25
100
AcDbLine
 10
104.1322685320897
 20
-108.5014256228268
 30
0.0
 11
103.7339823537437
 21
-108.9993090026911
 31
0.0
  0
LWPOLYLINE
  5
193
330
E7
100
AcDbEntity
  8
Слой 1
 62
   250
420
  3947579
370
    25
100
AcDbPolyline
 90
        7
 70
     0
 43
0.0
 10
172.5407584326846
 20
-185.7720935321264
 10
172.7399013103462
 20
-184.8759238762871
 10
172.6403294322108
 20
-183.9797289946746
 10
172.042899660309
 20
-183.1831311844121
 10
171.3458477539778
 20
-182.6852481624987
 10
170.3501318362694
 20
-182.4861053173668
 10
169.4539370197342
 20
-182.7848203660275
  0
LWPOLYLINE
  5
194
330
E7
100
AcDbEntity
  8
Слой 1
 62
   250
420
  3947579
370
    25
100
AcDbPolyline
 90
       13
 70
     0
 43
0.0
 10
176.5238245605168
 20
-186.1704038949271
 10
177.2208256898967
 20
-186.2699752524117
 10
177.9178773684465
 20
-186.0708318540928
 10
178.5153067173178
 20
-185.5729484091483
 10
178.8140212778612
 20
-184.975493476559
 10
178.9135926353386
 20
-184.2784670237849
 10
178.7144492370281
 20
-183.5814406686299
 10
178.3161627332715
 20
-183.0835575490788
 10
177.7186824447403
 20
-182.6852460798882
 10
177.0216813153604
 20
-182.5856747224011
 10
176.3246296042707
 20
-182.6852465354573
 10
175.7272002228608
 20
-183.0835583951398
 10
175.3289140770535
 20
-183.6810133602696
  0
LWPOLYLINE
  5
195
330
E7
100
AcDbEntity
  8
Слой 1
 62
   250
420
  3947579
370
    25
100
AcDbPolyline
 90
       15
 70
     0
 43
0.0
 10
181.2038410082345
 20
-186.1704023655216
 10
181.9008927844035
 20
-186.2699737229887
 10
182.597893783616
 20
-185.971233416031
 10
183.0958022265613
 20
-185.5729469122653
 10
183.4940883398274
 20
-184.875920361874
 10
183.4940881120352
 20
-184.178868618245
 10
183.2949447137233
 20
-183.4818422630907
 10
182.7970866247111
 20
-182.9839844994744
 10
182.1996063361825
 20
-182.5856730302818
 10
181.4029830072902
 20
-182.5856732906159
 10
180.7059819755294
 20
-182.7848166889168
 10
180.2080735651323
 20
-183.2827001013387
 10
179.9093590045883
 20
-183.8801550339267
 10
179.8097876796521
 20
-184.6767530719654
 10
180.1085026306847
 20
-185.2742078093172
  0
LWPOLYLINE
  5
196
330
E7
100
AcDbEntity
  8
Слой 1
 62
   250
420
  3947579
370
    25
100
AcDbPolyline
 90
       16
 70
     1
 43
0.0
 10
191.0618319520917
 20
-182.5856701341516
 10
190.3648055643975
 20
-182.6852419471995
 10
189.7673508595907
 20
-183.0835538068896
 10
189.3690647137854
 20
-183.6810087720195
 10
189.2694933563085
 20
-184.3780352247923
 10
189.3690651693557
 20
-185.0750616124865
 10
189.7673517056517
 20
-185.6725163173009
 10
190.3648066707905
 20
-186.0708277864999
 10
191.061833156102
 20
-186.2699707292414
 10
191.7588848346518
 20
-186.0708273309231
 10
192.3563142160624
 20
-185.67251547124
 10
192.7546256852639
 20
-185.0750605061031
 10
192.9537686280034
 20
-184.3780340207904
 10
192.7546252296935
 20
-183.681007665636
 10
192.356313370004
 20
-183.0835529608306
 10
191.7588837282581
 20
-182.6852414916227
  0
LWPOLYLINE
  5
197
330
E7
100
AcDbEntity
  8
Слой 1
 62
   250
420
  3947579
370
    25
100
AcDbPolyline
 90
       16
 70
     1
 43
0.0
 10
186.4813870896367
 20
-182.5856716310186
 10
185.7843353785469
 20
-182.6852434440741
 10
185.1868553503479
 20
-183.0835553037726
 10
184.7885692045412
 20
-183.6810102689032
 10
184.5894262617998
 20
-184.3780367542133
 10
184.7885696601116
 20
-185.0750631093708
 10
185.1868561964101
 20
-185.6725178141833
 10
185.78433648494
 20
-186.0708292833752
 10
186.481388293647
 20
-186.2699722261077
 10
187.1783893254077
 20
-186.0708288278048
 10
187.7758440302125
 20
-185.672516968114
 10
188.1741554994134
 20
-185.0750620029778
 10
188.2737268568915
 20
-184.3780355502037
 10
188.1741550438443
 20
-183.68100916251
 10
187.7758431841535
 20
-183.0835544577053
 10
187.1783882190159
 20
-182.6852429885044
  0
LWPOLYLINE
  5
198
330
E7
100
AcDbEntity
  8
Слой 1
 62
   250
420
  3947579
370
    25
100
AcDbPolyline
 90
        3
 70
     0
 43
0.0
 10
198.6295966249043
 20
-167.251010445713
 10
198.9283113481524
 20
-167.1514387628312
 10
198.9283112830739
 20
-166.9522955923065
  0
LWPOLYLINE
  5
199
330
E7
100
AcDbEntity
  8
Слой 1
 62
   250
420
  3947579
370
    25
100
AcDbPolyline
 90
        3
 70
     0
 43
0.0
 10
105.3271973034883
 20
-166.952326180672
 10
105.3271973685672
 20
-167.1514693511967
 10
105.6259628036826
 20
-167.2510408388268
  0
LWPOLYLINE
  5
19A
330
E7
100
AcDbEntity
  8
Слой 1
 62
   250
420
  3947579
370
    25
100
AcDbPolyline
 90
        4
 70
     0
 43
0.0
 10
161.5874535627202
 20
-108.3022636762386
 10
161.487831070335
 20
-107.5056403799041
 10
160.9899729487758
 20
-106.9081857076299
 10
160.193349489727
 20
-106.5098996269111
  0
LWPOLYLINE
  5
19B
330
E7
100
AcDbEntity
  8
Слой 1
 62
   250
420
  3947579
370
    25
100
AcDbPolyline
 90
        3
 70
     0
 43
0.0
 10
198.9283002191929
 20
-133.0965638162615
 10
198.9283001541144
 20
-132.8974206457361
 10
198.629585398327
 20
-132.897420743354
  0
LWPOLYLINE
  5
19C
330
E7
100
AcDbEntity
  8
Слой 1
 62
   250
420
  3947579
370
    25
100
AcDbPolyline
 90
        3
 70
     0
 43
0.0
 10
198.9283002191929
 20
-133.0965638162615
 10
198.828728568853
 20
-132.8974206782748
 10
198.629585398327
 20
-132.897420743354
  0
LWPOLYLINE
  5
19D
330
E7
100
AcDbEntity
  8
Слой 1
 62
   250
420
  3947579
370
    25
100
AcDbPolyline
 90
        5
 70
     0
 43
0.0
 10
160.193349489727
 20
-106.5098996269111
 10
156.2103339436033
 20
-105.9124460935687
 10
152.127746942376
 20
-105.7132789338175
 10
148.0451600713212
 20
-105.9124487619051
 10
144.062094268899
 20
-106.5099048985223
  0
LWPOLYLINE
  5
19E
330
E7
100
AcDbEntity
  8
Слой 1
 62
   250
420
  3947579
370
    25
100
AcDbPolyline
 90
       10
 70
     0
 43
0.0
 10
114.0898348034067
 20
-116.3679068086326
 10
114.0898345756145
 20
-115.6708550650055
 10
113.6915480393173
 20
-115.0734003601914
 10
113.1936899503044
 20
-114.5755425965742
 10
112.4966381415904
 20
-114.3763743304469
 10
111.7996370772897
 20
-114.4759461434857
 10
111.2021570165514
 20
-114.7746864179228
 10
110.7042992529428
 20
-115.2725698303297
 10
110.5051056308737
 20
-115.8700247303954
 10
110.5051058586582
 20
-116.5670511506296
  0
LWPOLYLINE
  5
19F
330
E7
100
AcDbEntity
  8
Слой 1
 62
   250
420
  3947579
370
    25
100
AcDbPolyline
 90
       10
 70
     0
 43
0.0
 10
123.1512543342508
 20
-116.6666186031961
 10
123.1512541390055
 20
-116.0691637682243
 10
122.9520600939065
 20
-115.3721374130863
 10
122.5537735576106
 20
-114.7746827082729
 10
121.9563439484058
 20
-114.4759428243257
 10
121.2592921722375
 20
-114.3763714668572
 10
120.6618627257484
 20
-114.5755401560143
 10
120.0643826650018
 20
-114.8742551070547
 10
119.6660965191945
 20
-115.4717100721845
 10
119.466953576455
 20
-116.1687365574976
  0
LWPOLYLINE
  5
1A0
330
E7
100
AcDbEntity
  8
Слой 1
 62
   250
420
  3947579
370
    25
100
AcDbPolyline
 90
        4
 70
     0
 43
0.0
 10
144.062094268899
 20
-106.5099048985223
 10
143.2655217169541
 20
-106.9081914998901
 10
142.7676133390977
 20
-107.5056464975756
 10
142.6680420141672
 20
-108.3022698590053
  0
LWPOLYLINE
  5
1A1
330
E7
100
AcDbEntity
  8
Слой 1
 62
   250
420
  3947579
370
    25
100
AcDbPolyline
 90
        3
 70
     0
 43
0.0
 10
105.6259515771053
 20
-132.8974511364677
 10
105.3271861745288
 20
-132.8974512341022
 10
105.3271862396071
 20
-133.0965944046295
  0
LWPOLYLINE
  5
1A2
330
E7
100
AcDbEntity
  8
Слой 1
 62
   250
420
  3947579
370
    25
100
AcDbPolyline
 90
        5
 70
     0
 43
0.0
 10
200.5215313809129
 20
-163.1684228912962
 10
200.5215313158247
 20
-162.9692543973754
 10
200.5215312832854
 20
-162.8696828121134
 10
200.5215312182069
 20
-162.6705396415887
 10
200.5215311856663
 20
-162.5709680563254
  0
LWPOLYLINE
  5
1A3
330
E7
100
AcDbEntity
  8
Слой 1
 62
   250
420
  3947579
370
    25
100
AcDbPolyline
 90
        5
 70
     0
 43
0.0
 10
103.7339998606988
 20
-162.5709996859957
 10
103.7339998932381
 20
-162.670571271259
 10
103.7339999583176
 20
-162.8697144417843
 10
103.7339999908569
 20
-162.9692860270483
 10
103.7340000559441
 20
-163.1684545209679
  0
ENDBLK
  5
EA
330
E7
100
AcDbEntity
  8
0
100
AcDbBlockEnd
  0
BLOCK
  5
1A7
330
1A5
100
AcDbEntity
  8
0
100
AcDbBlockBegin
  2
Block_3
 70
     0
 10
0.0
 20
0.0
 30
0.0
  3
Block_3
  1

  0
INSERT
  5
1AA
330
1A5
100
AcDbEntity
  8
Слой 2
100
AcDbBlockReference
  2
Block_4
 10
0.0
 20
0.0
 30
0.0
  0
ENDBLK
  5
1A8
330
1A5
100
AcDbEntity
  8
0
100
AcDbBlockEnd
  0
BLOCK
  5
1AB
330
1A9
100
AcDbEntity
  8
0
100
AcDbBlockBegin
  2
Block_4
 70
     0
 10
0.0
 20
0.0
 30
0.0
  3
Block_4
  1

  0
INSERT
  5
1AE
330
1A9
100
AcDbEntity
  8
Слой 2
100
AcDbBlockReference
  2
Block_5
 10
0.0
 20
0.0
 30
0.0
  0
ENDBLK
  5
1AC
330
1A9
100
AcDbEntity
  8
0
100
AcDbBlockEnd
  0
BLOCK
  5
1AF
330
1AD
100
AcDbEntity
  8
0
100
AcDbBlockBegin
  2
Block_5
 70
     0
 10
0.0
 20
0.0
 30
0.0
  3
Block_5
  1

  0
SPLINE
  5
1B1
330
1AD
100
AcDbEntity
  8
Слой 2
100
AcDbSpline
210
0.0
220
0.0
230
1.0
 70
     9
 71
     3
 72
    26
 73
    22
 74
     0
 42
0.0000000001
 43
0.0000000001
 40
0.0
 40
0.0
 40
0.0
 40
0.0
 40
1.0
 40
1.0
 40
1.0
 40
2.0
 40
2.0
 40
2.0
 40
3.0
 40
3.0
 40
3.0
 40
4.0
 40
4.0
 40
4.0
 40
5.0
 40
5.0
 40
5.0
 40
6.0
 40
6.0
 40
6.0
 40
7.0
 40
7.0
 40
7.0
 40
7.0
 10
180.2682137402014
 20
-71.66176649527891
 30
0.0
 10
180.091531519365
 20
-71.46628581436755
 30
0.0
 10
179.7654326127627
 20
-71.35376693246856
 30
0.0
 10
179.3750926876373
 20
-71.35376693246856
 30
0.0
 10
179.1923902988023
 20
-71.35376693246856
 30
0.0
 10
179.0029297858902
 20
-71.38021683187223
 30
0.0
 10
178.8270243609253
 20
-71.43004828699033
 30
0.0
 10
178.5718857571296
 20
-71.50174654587428
 30
0.0
 10
177.9664510553526
 20
-71.73579514177564
 30
0.0
 10
177.8509026695561
 20
-72.35179426739698
 30
0.0
 10
177.7852634184661
 20
-72.70282832145531
 30
0.0
 10
177.9943768669108
 20
-72.97459035688844
 30
0.0
 10
178.4254208956721
 20
-73.09841161870956
 30
0.0
 10
178.5681182971566
 20
-73.13915456213847
 30
0.0
 10
178.7349352104307
 20
-73.1618370015682
 30
0.0
 10
178.910840635395
 20
-73.1618370015682
 30
0.0
 10
179.4747555978735
 20
-73.1618370015682
 30
0.0
 10
180.1285070028196
 20
-72.93233266151192
 30
0.0
 10
180.3527679707487
 20
-72.36313548711216
 30
0.0
 10
180.4901054807223
 20
-72.01283938913127
 30
0.0
 10
180.382946490332
 20
-71.78861726099684
 30
0.0
 10
180.2682137402014
 20
-71.66176649527891
 30
0.0
  0
HATCH
  5
1B2
330
1AD
100
AcDbEntity
  8
Слой 2
 62
   254
420
 13421772
440
 33554687
100
AcDbHatch
 10
0.0
 20
0.0
 30
0.0
210
0.0
220
0.0
230
1.0
  2
SOLID
 70
     1
 71
     1
 91
        1
 92
        1
 93
        2
 72
     4
 94
        3
 73
     0
 74
     0
 95
       26
 96
       22
 40
0.0
 40
0.0
 40
0.0
 40
0.0
 40
1.0
 40
1.0
 40
1.0
 40
2.0
 40
2.0
 40
2.0
 40
3.0
 40
3.0
 40
3.0
 40
4.0
 40
4.0
 40
4.0
 40
5.0
 40
5.0
 40
5.0
 40
6.0
 40
6.0
 40
6.0
 40
7.0
 40
7.0
 40
7.0
 40
7.0
 10
180.2682137402014
 20
-71.66176649527891
 10
180.091531519365
 20
-71.46628581436755
 10
179.7654326127627
 20
-71.35376693246856
 10
179.3750926876373
 20
-71.35376693246856
 10
179.1923902988023
 20
-71.35376693246856
 10
179.0029297858902
 20
-71.38021683187223
 10
178.8270243609253
 20
-71.43004828699033
 10
178.5718857571296
 20
-71.50174654587428
 10
177.9664510553526
 20
-71.73579514177564
 10
177.8509026695561
 20
-72.35179426739698
 10
177.7852634184661
 20
-72.70282832145531
 10
177.9943768669108
 20
-72.97459035688844
 10
178.4254208956721
 20
-73.09841161870956
 10
178.5681182971566
 20
-73.13915456213847
 10
178.7349352104307
 20
-73.1618370015682
 10
178.910840635395
 20
-73.1618370015682
 10
179.4747555978735
 20
-73.1618370015682
 10
180.1285070028196
 20
-72.93233266151192
 10
180.3527679707487
 20
-72.36313548711216
 10
180.4901054807223
 20
-72.01283938913127
 10
180.382946490332
 20
-71.78861726099684
 10
180.2682137402014
 20
-71.66176649527891
 97
        0
 72
     1
 10
180.2682137402014
 20
-71.66176649527891
 11
180.2682137402014
 21
-71.66176649527891
 97
        0
 75
     2
 76
     1
 98
        1
 10
0.0
 20
0.0
450
        0
451
        0
460
0.0
461
0.0
452
        0
462
0.0
453
        0
470

  0
SPLINE
  5
1B3
330
1AD
100
AcDbEntity
  8
Слой 2
100
AcDbSpline
210
0.0
220
0.0
230
1.0
 70
     9
 71
     3
 72
    98
 73
    94
 74
     0
 42
0.0000000001
 43
0.0000000001
 40
0.0
 40
0.0
 40
0.0
 40
0.0
 40
1.0
 40
1.0
 40
1.0
 40
2.0
 40
2.0
 40
2.0
 40
3.0
 40
3.0
 40
3.0
 40
4.0
 40
4.0
 40
4.0
 40
5.0
 40
5.0
 40
5.0
 40
6.0
 40
6.0
 40
6.0
 40
7.0
 40
7.0
 40
7.0
 40
8.0
 40
8.0
 40
8.0
 40
9.0
 40
9.0
 40
9.0
 40
10.0
 40
10.0
 40
10.0
 40
11.0
 40
11.0
 40
11.0
 40
12.0
 40
12.0
 40
12.0
 40
13.0
 40
13.0
 40
13.0
 40
14.0
 40
14.0
 40
14.0
 40
15.0
 40
15.0
 40
15.0
 40
16.0
 40
16.0
 40
16.0
 40
17.0
 40
17.0
 40
17.0
 40
18.0
 40
18.0
 40
18.0
 40
19.0
 40
19.0
 40
19.0
 40
20.0
 40
20.0
 40
20.0
 40
21.0
 40
21.0
 40
21.0
 40
22.0
 40
22.0
 40
22.0
 40
23.0
 40
23.0
 40
23.0
 40
24.0
 40
24.0
 40
24.0
 40
25.0
 40
25.0
 40
25.0
 40
26.0
 40
26.0
 40
26.0
 40
27.0
 40
27.0
 40
27.0
 40
28.0
 40
28.0
 40
28.0
 40
29.0
 40
29.0
 40
29.0
 40
30.0
 40
30.0
 40
30.0
 40
31.0
 40
31.0
 40
31.0
 40
31.0
 10
173.0090563266681
 20
-73.19706469431401
 30
0.0
 10
172.9071407084062
 20
-73.13290135537761
 30
0.0
 10
172.7274678234677
 20
-73.07402022836339
 30
0.0
 10
172.4904285634629
 20
-73.02648032106532
 30
0.0
 10
172.4904285634629
 20
-73.02648032106532
 30
0.0
 10
172.4783493876699
 20
-73.02418877324561
 30
0.0
 10
172.4783493876699
 20
-73.02418877324561
 30
0.0
 10
172.4383055605257
 20
-73.01587705742694
 30
0.0
 10
172.3952710692781
 20
-73.00834213747906
 30
0.0
 10
172.3499838700047
 20
-73.00080721753214
 30
0.0
 10
172.3499838700047
 20
-73.00080721753214
 30
0.0
 10
172.3145231384986
 20
-72.99548616581595
 30
0.0
 10
172.3145231384986
 20
-72.99548616581595
 30
0.0
 10
172.279800363069
 20
-72.99020395389375
 30
0.0
 10
172.2443396315629
 20
-72.98418378589413
 30
0.0
 10
172.2065485124444
 20
-72.97890157397226
 30
0.0
 10
172.2065485124444
 20
-72.97890157397226
 30
0.0
 10
171.3897476541958
 20
-72.9124855270105
 30
0.0
 10
171.3897476541958
 20
-72.9124855270105
 30
0.0
 10
171.341430951026
 20
-72.91019397919176
 30
0.0
 10
171.2900847439596
 20
-72.90945602311431
 30
0.0
 10
171.2387385368926
 20
-72.90794127116575
 30
0.0
 10
171.2387385368926
 20
-72.90794127116575
 30
0.0
 10
171.1624960221652
 20
-72.90642651921782
 30
0.0
 10
171.1624960221652
 20
-72.90642651921782
 30
0.0
 10
171.004728780785
 20
-72.90339701532101
 30
0.0
 10
170.8325908157943
 20
-72.90339701532101
 30
0.0
 10
170.6642591505716
 20
-72.90642651921782
 30
0.0
 10
170.6642591505716
 20
-72.90642651921782
 30
0.0
 10
170.5962895118679
 20
-72.90794127116575
 30
0.0
 10
170.5962895118679
 20
-72.90794127116575
 30
0.0
 10
170.5261448447266
 20
-72.90945602311431
 30
0.0
 10
170.4559224979965
 20
-72.91170873114001
 30
0.0
 10
170.3728830193977
 20
-72.9147382350365
 30
0.0
 10
170.3728830193977
 20
-72.9147382350365
 30
0.0
 10
170.3434424558909
 20
-72.9154761911133
 30
0.0
 10
170.3434424558909
 20
-72.9154761911133
 30
0.0
 10
170.2596261814213
 20
-72.91928249088126
 30
0.0
 10
170.1765867028225
 20
-72.92378790693295
 30
0.0
 10
170.0942851803008
 20
-72.92833216277802
 30
0.0
 10
170.0942851803008
 20
-72.92833216277802
 30
0.0
 10
170.0512506890525
 20
-72.93132282688017
 30
0.0
 10
170.0512506890525
 20
-72.93132282688017
 30
0.0
 10
169.9795524301695
 20
-72.93586708272461
 30
0.0
 10
169.9093300834401
 20
-72.94037249877533
 30
0.0
 10
169.826329444635
 20
-72.94716946264641
 30
0.0
 10
169.826329444635
 20
-72.94716946264641
 30
0.0
 10
169.7968888811282
 20
-72.9494610104658
 30
0.0
 10
169.7968888811282
 20
-72.9494610104658
 30
0.0
 10
169.6315090402133
 20
-72.96305493820603
 30
0.0
 10
169.4722270468858
 20
-72.97963953004938
 30
0.0
 10
169.3212567693776
 20
-72.99855450950613
 30
0.0
 10
169.3212567693776
 20
-72.99855450950613
 30
0.0
 10
169.2948068699729
 20
-73.00154517360862
 30
0.0
 10
169.2948068699729
 20
-73.00154517360862
 30
0.0
 10
169.1385543805426
 20
-73.02193606522057
 30
0.0
 10
168.991351563008
 20
-73.04384170877948
 30
0.0
 10
168.8524216214977
 20
-73.06873801644184
 30
0.0
 10
168.6101001495708
 20
-73.11251046376662
 30
0.0
 10
168.4070457089185
 20
-73.16234191888407
 30
0.0
 10
168.2485016716694
 20
-73.21594083397674
 30
0.0
 10
168.0884817222641
 20
-73.27031654493928
 30
0.0
 10
167.9616309565461
 20
-73.39184625894164
 30
0.0
 10
167.9020118734542
 20
-73.55039029619108
 30
0.0
 10
167.9020118734542
 20
-73.55039029619108
 30
0.0
 10
166.5590094922607
 20
-77.1060568758421
 30
0.0
 10
166.5590094922607
 20
-77.1060568758421
 30
0.0
 10
166.5590094922607
 20
-77.1060568758421
 30
0.0
 10
168.84566349742
 20
-77.1060568758421
 30
0.0
 10
168.84566349742
 20
-77.1060568758421
 30
0.0
 10
168.84566349742
 20
-77.1060568758421
 30
0.0
 10
169.5462168535895
 20
-75.23992131539213
 30
0.0
 10
169.5462168535895
 20
-75.23992131539213
 30
0.0
 10
169.6715528673588
 20
-74.90923931315172
 30
0.0
 10
169.9621910424544
 20
-74.31359223934797
 30
0.0
 10
170.5027244492185
 20
-74.03957749588883
 30
0.0
 10
170.9903968969676
 20
-73.83046404744323
 30
0.0
 10
171.3255454754657
 20
-73.74893932079266
 30
0.0
 10
171.6992619689544
 20
-73.74893932079266
 30
0.0
 10
171.894004693788
 20
-73.74893932079266
 30
0.0
 10
172.1023801861568
 20
-73.77158292042932
 30
0.0
 10
172.3560428777984
 20
-73.81989962359885
 30
0.0
 10
172.400592120994
 20
-73.82821133941753
 30
0.0
 10
172.5402600185813
 20
-73.87198378674263
 30
0.0
 10
172.6701014484021
 20
-73.94896425754845
 30
0.0
 10
172.6701014484021
 20
-73.94896425754845
 30
0.0
 10
172.7984281262742
 20
-74.01615710038135
 30
0.0
 10
172.7984281262742
 20
-74.01615710038135
 30
0.0
 10
172.7984281262742
 20
-74.01615710038135
 30
0.0
 10
173.0950864693703
 20
-73.25066360940539
 30
0.0
 10
173.0950864693703
 20
-73.25066360940539
 30
0.0
 10
173.0950864693703
 20
-73.25066360940539
 30
0.0
 10
173.0090563266681
 20
-73.19706469431401
 30
0.0
 10
173.0090563266681
 20
-73.19706469431401
 30
0.0
  0
HATCH
  5
1B4
330
1AD
100
AcDbEntity
  8
Слой 2
 62
   254
420
 13421772
440
 33554687
100
AcDbHatch
 10
0.0
 20
0.0
 30
0.0
210
0.0
220
0.0
230
1.0
  2
SOLID
 70
     1
 71
     1
 91
        1
 92
        1
 93
        1
 72
     4
 94
        3
 73
     0
 74
     0
 95
       98
 96
       94
 40
0.0
 40
0.0
 40
0.0
 40
0.0
 40
1.0
 40
1.0
 40
1.0
 40
2.0
 40
2.0
 40
2.0
 40
3.0
 40
3.0
 40
3.0
 40
4.0
 40
4.0
 40
4.0
 40
5.0
 40
5.0
 40
5.0
 40
6.0
 40
6.0
 40
6.0
 40
7.0
 40
7.0
 40
7.0
 40
8.0
 40
8.0
 40
8.0
 40
9.0
 40
9.0
 40
9.0
 40
10.0
 40
10.0
 40
10.0
 40
11.0
 40
11.0
 40
11.0
 40
12.0
 40
12.0
 40
12.0
 40
13.0
 40
13.0
 40
13.0
 40
14.0
 40
14.0
 40
14.0
 40
15.0
 40
15.0
 40
15.0
 40
16.0
 40
16.0
 40
16.0
 40
17.0
 40
17.0
 40
17.0
 40
18.0
 40
18.0
 40
18.0
 40
19.0
 40
19.0
 40
19.0
 40
20.0
 40
20.0
 40
20.0
 40
21.0
 40
21.0
 40
21.0
 40
22.0
 40
22.0
 40
22.0
 40
23.0
 40
23.0
 40
23.0
 40
24.0
 40
24.0
 40
24.0
 40
25.0
 40
25.0
 40
25.0
 40
26.0
 40
26.0
 40
26.0
 40
27.0
 40
27.0
 40
27.0
 40
28.0
 40
28.0
 40
28.0
 40
29.0
 40
29.0
 40
29.0
 40
30.0
 40
30.0
 40
30.0
 40
31.0
 40
31.0
 40
31.0
 40
31.0
 10
173.0090563266681
 20
-73.19706469431401
 10
172.9071407084062
 20
-73.13290135537761
 10
172.7274678234677
 20
-73.07402022836339
 10
172.4904285634629
 20
-73.02648032106532
 10
172.4904285634629
 20
-73.02648032106532
 10
172.4783493876699
 20
-73.02418877324561
 10
172.4783493876699
 20
-73.02418877324561
 10
172.4383055605257
 20
-73.01587705742694
 10
172.3952710692781
 20
-73.00834213747906
 10
172.3499838700047
 20
-73.00080721753214
 10
172.3499838700047
 20
-73.00080721753214
 10
172.3145231384986
 20
-72.99548616581595
 10
172.3145231384986
 20
-72.99548616581595
 10
172.279800363069
 20
-72.99020395389375
 10
172.2443396315629
 20
-72.98418378589413
 10
172.2065485124444
 20
-72.97890157397226
 10
172.2065485124444
 20
-72.97890157397226
 10
171.3897476541958
 20
-72.9124855270105
 10
171.3897476541958
 20
-72.9124855270105
 10
171.341430951026
 20
-72.91019397919176
 10
171.2900847439596
 20
-72.90945602311431
 10
171.2387385368926
 20
-72.90794127116575
 10
171.2387385368926
 20
-72.90794127116575
 10
171.1624960221652
 20
-72.90642651921782
 10
171.1624960221652
 20
-72.90642651921782
 10
171.004728780785
 20
-72.90339701532101
 10
170.8325908157943
 20
-72.90339701532101
 10
170.6642591505716
 20
-72.90642651921782
 10
170.6642591505716
 20
-72.90642651921782
 10
170.5962895118679
 20
-72.90794127116575
 10
170.5962895118679
 20
-72.90794127116575
 10
170.5261448447266
 20
-72.90945602311431
 10
170.4559224979965
 20
-72.91170873114001
 10
170.3728830193977
 20
-72.9147382350365
 10
170.3728830193977
 20
-72.9147382350365
 10
170.3434424558909
 20
-72.9154761911133
 10
170.3434424558909
 20
-72.9154761911133
 10
170.2596261814213
 20
-72.91928249088126
 10
170.1765867028225
 20
-72.92378790693295
 10
170.0942851803008
 20
-72.92833216277802
 10
170.0942851803008
 20
-72.92833216277802
 10
170.0512506890525
 20
-72.93132282688017
 10
170.0512506890525
 20
-72.93132282688017
 10
169.9795524301695
 20
-72.93586708272461
 10
169.9093300834401
 20
-72.94037249877533
 10
169.826329444635
 20
-72.94716946264641
 10
169.826329444635
 20
-72.94716946264641
 10
169.7968888811282
 20
-72.9494610104658
 10
169.7968888811282
 20
-72.9494610104658
 10
169.6315090402133
 20
-72.96305493820603
 10
169.4722270468858
 20
-72.97963953004938
 10
169.3212567693776
 20
-72.99855450950613
 10
169.3212567693776
 20
-72.99855450950613
 10
169.2948068699729
 20
-73.00154517360862
 10
169.2948068699729
 20
-73.00154517360862
 10
169.1385543805426
 20
-73.02193606522057
 10
168.991351563008
 20
-73.04384170877948
 10
168.8524216214977
 20
-73.06873801644184
 10
168.6101001495708
 20
-73.11251046376662
 10
168.4070457089185
 20
-73.16234191888407
 10
168.2485016716694
 20
-73.21594083397674
 10
168.0884817222641
 20
-73.27031654493928
 10
167.9616309565461
 20
-73.39184625894164
 10
167.9020118734542
 20
-73.55039029619108
 10
167.9020118734542
 20
-73.55039029619108
 10
166.5590094922607
 20
-77.1060568758421
 10
166.5590094922607
 20
-77.1060568758421
 10
166.5590094922607
 20
-77.1060568758421
 10
168.84566349742
 20
-77.1060568758421
 10
168.84566349742
 20
-77.1060568758421
 10
168.84566349742
 20
-77.1060568758421
 10
169.5462168535895
 20
-75.23992131539213
 10
169.5462168535895
 20
-75.23992131539213
 10
169.6715528673588
 20
-74.90923931315172
 10
169.9621910424544
 20
-74.31359223934797
 10
170.5027244492185
 20
-74.03957749588883
 10
170.9903968969676
 20
-73.83046404744323
 10
171.3255454754657
 20
-73.74893932079266
 10
171.6992619689544
 20
-73.74893932079266
 10
171.894004693788
 20
-73.74893932079266
 10
172.1023801861568
 20
-73.77158292042932
 10
172.3560428777984
 20
-73.81989962359885
 10
172.400592120994
 20
-73.82821133941753
 10
172.5402600185813
 20
-73.87198378674263
 10
172.6701014484021
 20
-73.94896425754845
 10
172.6701014484021
 20
-73.94896425754845
 10
172.7984281262742
 20
-74.01615710038135
 10
172.7984281262742
 20
-74.01615710038135
 10
172.7984281262742
 20
-74.01615710038135
 10
173.0950864693703
 20
-73.25066360940539
 10
173.0950864693703
 20
-73.25066360940539
 10
173.0950864693703
 20
-73.25066360940539
 10
173.0090563266681
 20
-73.19706469431401
 10
173.0090563266681
 20
-73.19706469431401
 97
        0
 97
        1
330
1B3
 75
     2
 76
     1
 98
        1
 10
0.0
 20
0.0
450
        0
451
        0
460
0.0
461
0.0
452
        0
462
0.0
453
        0
470

  0
SPLINE
  5
1B5
330
1AD
100
AcDbEntity
  8
Слой 2
100
AcDbSpline
210
0.0
220
0.0
230
1.0
 70
    11
 71
     3
 72
    26
 73
    22
 74
     0
 42
0.0000000001
 43
0.0000000001
 40
0.0
 40
0.0
 40
0.0
 40
0.0
 40
1.0
 40
1.0
 40
1.0
 40
2.0
 40
2.0
 40
2.0
 40
3.0
 40
3.0
 40
3.0
 40
4.0
 40
4.0
 40
4.0
 40
5.0
 40
5.0
 40
5.0
 40
6.0
 40
6.0
 40
6.0
 40
7.0
 40
7.0
 40
7.0
 40
7.0
 10
179.6659639014944
 20
-73.66535608508394
 30
0.0
 10
179.6047912266614
 20
-73.57474284674355
 30
0.0
 10
179.5029144481933
 20
-73.52118277144587
 30
0.0
 10
179.3941630262669
 20
-73.52118277144587
 30
0.0
 10
179.3941630262669
 20
-73.52118277144587
 30
0.0
 10
177.6955823351707
 20
-73.52118277144587
 30
0.0
 10
177.6955823351707
 20
-73.52118277144587
 30
0.0
 10
177.5612354892986
 20
-73.52118277144587
 30
0.0
 10
177.4374142274766
 20
-73.60569816219923
 30
0.0
 10
177.389097524308
 20
-73.7317721320457
 30
0.0
 10
177.389097524308
 20
-73.7317721320457
 30
0.0
 10
176.0913823423866
 20
-77.10628991460335
 30
0.0
 10
176.0913823423866
 20
-77.10628991460335
 30
0.0
 10
176.0913823423866
 20
-77.10628991460335
 30
0.0
 10
178.4792140097314
 20
-77.10628991460335
 30
0.0
 10
178.4792140097314
 20
-77.10628991460335
 30
0.0
 10
178.4792140097314
 20
-77.10628991460335
 30
0.0
 10
179.6991719249748
 20
-73.97184089594637
 30
0.0
 10
179.6991719249748
 20
-73.97184089594637
 30
0.0
 10
179.7399537081974
 20
-73.86996411747851
 30
0.0
 10
179.7271365763274
 20
-73.75596932342434
 30
0.0
 10
179.6659639014944
 20
-73.66535608508394
 30
0.0
  0
HATCH
  5
1B6
330
1AD
100
AcDbEntity
  8
Слой 2
 62
   254
420
 13421772
440
 33554687
100
AcDbHatch
 10
0.0
 20
0.0
 30
0.0
210
0.0
220
0.0
230
1.0
  2
SOLID
 70
     1
 71
     1
 91
        1
 92
        1
 93
        2
 72
     4
 94
        3
 73
     0
 74
     0
 95
       26
 96
       22
 40
0.0
 40
0.0
 40
0.0
 40
0.0
 40
1.0
 40
1.0
 40
1.0
 40
2.0
 40
2.0
 40
2.0
 40
3.0
 40
3.0
 40
3.0
 40
4.0
 40
4.0
 40
4.0
 40
5.0
 40
5.0
 40
5.0
 40
6.0
 40
6.0
 40
6.0
 40
7.0
 40
7.0
 40
7.0
 40
7.0
 10
179.6659639014944
 20
-73.66535608508394
 10
179.6047912266614
 20
-73.57474284674355
 10
179.5029144481933
 20
-73.52118277144587
 10
179.3941630262669
 20
-73.52118277144587
 10
179.3941630262669
 20
-73.52118277144587
 10
177.6955823351707
 20
-73.52118277144587
 10
177.6955823351707
 20
-73.52118277144587
 10
177.5612354892986
 20
-73.52118277144587
 10
177.4374142274766
 20
-73.60569816219923
 10
177.389097524308
 20
-73.7317721320457
 10
177.389097524308
 20
-73.7317721320457
 10
176.0913823423866
 20
-77.10628991460335
 10
176.0913823423866
 20
-77.10628991460335
 10
176.0913823423866
 20
-77.10628991460335
 10
178.4792140097314
 20
-77.10628991460335
 10
178.4792140097314
 20
-77.10628991460335
 10
178.4792140097314
 20
-77.10628991460335
 10
179.6991719249748
 20
-73.97184089594637
 10
179.6991719249748
 20
-73.97184089594637
 10
179.7399537081974
 20
-73.86996411747851
 10
179.7271365763274
 20
-73.75596932342434
 10
179.6659639014944
 20
-73.66535608508394
 97
        0
 72
     1
 10
179.6659639014944
 20
-73.66535608508394
 11
179.6659639014944
 21
-73.66535608508394
 97
        0
 75
     2
 76
     1
 98
        1
 10
0.0
 20
0.0
450
        0
451
        0
460
0.0
461
0.0
452
        0
462
0.0
453
        0
470

  0
SPLINE
  5
1B7
330
1AD
100
AcDbEntity
  8
Слой 2
100
AcDbSpline
210
0.0
220
0.0
230
1.0
 70
     9
 71
     3
 72
    56
 73
    52
 74
     0
 42
0.0000000001
 43
0.0000000001
 40
0.0
 40
0.0
 40
0.0
 40
0.0
 40
1.0
 40
1.0
 40
1.0
 40
2.0
 40
2.0
 40
2.0
 40
3.0
 40
3.0
 40
3.0
 40
4.0
 40
4.0
 40
4.0
 40
5.0
 40
5.0
 40
5.0
 40
6.0
 40
6.0
 40
6.0
 40
7.0
 40
7.0
 40
7.0
 40
8.0
 40
8.0
 40
8.0
 40
9.0
 40
9.0
 40
9.0
 40
10.0
 40
10.0
 40
10.0
 40
11.0
 40
11.0
 40
11.0
 40
12.0
 40
12.0
 40
12.0
 40
13.0
 40
13.0
 40
13.0
 40
14.0
 40
14.0
 40
14.0
 40
15.0
 40
15.0
 40
15.0
 40
16.0
 40
16.0
 40
16.0
 40
17.0
 40
17.0
 40
17.0
 40
17.0
 10
192.8735910555966
 20
-73.03242280947722
 30
0.0
 10
192.0869298771395
 20
-73.03242280947722
 30
0.0
 10
191.373520549307
 20
-73.17512021096106
 30
0.0
 10
190.7484717517899
 20
-73.45822346610939
 30
0.0
 10
190.7484717517899
 20
-73.45822346610939
 30
0.0
 10
191.3923966889701
 20
-71.83060307781875
 30
0.0
 10
191.3923966889701
 20
-71.83060307781875
 30
0.0
 10
191.4233520044254
 20
-71.75284581114211
 30
0.0
 10
191.4135643764519
 20
-71.66530091649192
 30
0.0
 10
191.3659856293591
 20
-71.59659332171109
 30
0.0
 10
191.3191836781372
 20
-71.52788572693026
 30
0.0
 10
191.2414264114606
 20
-71.48636598763085
 30
0.0
 10
191.157648976784
 20
-71.48636598763085
 30
0.0
 10
191.157648976784
 20
-71.48636598763085
 30
0.0
 10
189.2967567884638
 20
-71.48407443981177
 30
0.0
 10
189.2967567884638
 20
-71.48407443981177
 30
0.0
 10
189.1918116663048
 20
-71.48407443981177
 30
0.0
 10
189.0997225158115
 20
-71.54676186659331
 30
0.0
 10
189.0619702364847
 20
-71.6441332290098
 30
0.0
 10
189.0619702364847
 20
-71.6441332290098
 30
0.0
 10
186.9285780566536
 20
-77.10601803604872
 30
0.0
 10
186.9285780566536
 20
-77.10601803604872
 30
0.0
 10
186.9285780566536
 20
-77.10601803604872
 30
0.0
 10
189.3337322719185
 20
-77.10601803604872
 30
0.0
 10
189.3337322719185
 20
-77.10601803604872
 30
0.0
 10
189.3337322719185
 20
-77.10601803604872
 30
0.0
 10
190.0886613390501
 20
-75.19754710063513
 30
0.0
 10
190.0886613390501
 20
-75.19754710063513
 30
0.0
 10
190.3279921468736
 20
-74.56189503947959
 30
0.0
 10
191.0149515753008
 20
-74.11803387884889
 30
0.0
 10
191.7585394227172
 20
-74.11803387884889
 30
0.0
 10
192.1601817277648
 20
-74.11803387884889
 30
0.0
 10
192.3639741244948
 20
-74.21315253324097
 30
0.0
 10
192.3639741244948
 20
-74.40113713399816
 30
0.0
 10
192.3639741244948
 20
-74.53396922792137
 30
0.0
 10
192.3367862690137
 20
-74.66684016163798
 30
0.0
 10
192.2832261937141
 20
-74.79066142345941
 30
0.0
 10
192.2832261937141
 20
-74.79066142345941
 30
0.0
 10
191.3750353012549
 20
-77.10601803604872
 30
0.0
 10
191.3750353012549
 20
-77.10601803604872
 30
0.0
 10
191.3750353012549
 20
-77.10601803604872
 30
0.0
 10
193.7809663123919
 20
-77.10601803604872
 30
0.0
 10
193.7809663123919
 20
-77.10601803604872
 30
0.0
 10
193.7809663123919
 20
-77.10601803604872
 30
0.0
 10
194.6838749929289
 20
-74.79066142345941
 30
0.0
 10
194.6838749929289
 20
-74.79066142345941
 30
0.0
 10
194.7676912673979
 20
-74.56418658729994
 30
0.0
 10
194.825834438335
 20
-74.28411283604749
 30
0.0
 10
194.825834438335
 20
-74.11123691497909
 30
0.0
 10
194.825834438335
 20
-73.43557986647271
 30
0.0
 10
194.0957628390727
 20
-73.03242280947722
 30
0.0
 10
192.8735910555966
 20
-73.03242280947722
 30
0.0
  0
HATCH
  5
1B8
330
1AD
100
AcDbEntity
  8
Слой 2
 62
   254
420
 13421772
440
 33554687
100
AcDbHatch
 10
0.0
 20
0.0
 30
0.0
210
0.0
220
0.0
230
1.0
  2
SOLID
 70
     1
 71
     1
 91
        1
 92
        1
 93
        2
 72
     4
 94
        3
 73
     0
 74
     0
 95
       56
 96
       52
 40
0.0
 40
0.0
 40
0.0
 40
0.0
 40
1.0
 40
1.0
 40
1.0
 40
2.0
 40
2.0
 40
2.0
 40
3.0
 40
3.0
 40
3.0
 40
4.0
 40
4.0
 40
4.0
 40
5.0
 40
5.0
 40
5.0
 40
6.0
 40
6.0
 40
6.0
 40
7.0
 40
7.0
 40
7.0
 40
8.0
 40
8.0
 40
8.0
 40
9.0
 40
9.0
 40
9.0
 40
10.0
 40
10.0
 40
10.0
 40
11.0
 40
11.0
 40
11.0
 40
12.0
 40
12.0
 40
12.0
 40
13.0
 40
13.0
 40
13.0
 40
14.0
 40
14.0
 40
14.0
 40
15.0
 40
15.0
 40
15.0
 40
16.0
 40
16.0
 40
16.0
 40
17.0
 40
17.0
 40
17.0
 40
17.0
 10
192.8735910555966
 20
-73.03242280947722
 10
192.0869298771395
 20
-73.03242280947722
 10
191.373520549307
 20
-73.17512021096106
 10
190.7484717517899
 20
-73.45822346610939
 10
190.7484717517899
 20
-73.45822346610939
 10
191.3923966889701
 20
-71.83060307781875
 10
191.3923966889701
 20
-71.83060307781875
 10
191.4233520044254
 20
-71.75284581114211
 10
191.4135643764519
 20
-71.66530091649192
 10
191.3659856293591
 20
-71.59659332171109
 10
191.3191836781372
 20
-71.52788572693026
 10
191.2414264114606
 20
-71.48636598763085
 10
191.157648976784
 20
-71.48636598763085
 10
191.157648976784
 20
-71.48636598763085
 10
189.2967567884638
 20
-71.48407443981177
 10
189.2967567884638
 20
-71.48407443981177
 10
189.1918116663048
 20
-71.48407443981177
 10
189.0997225158115
 20
-71.54676186659331
 10
189.0619702364847
 20
-71.6441332290098
 10
189.0619702364847
 20
-71.6441332290098
 10
186.9285780566536
 20
-77.10601803604872
 10
186.9285780566536
 20
-77.10601803604872
 10
186.9285780566536
 20
-77.10601803604872
 10
189.3337322719185
 20
-77.10601803604872
 10
189.3337322719185
 20
-77.10601803604872
 10
189.3337322719185
 20
-77.10601803604872
 10
190.0886613390501
 20
-75.19754710063513
 10
190.0886613390501
 20
-75.19754710063513
 10
190.3279921468736
 20
-74.56189503947959
 10
191.0149515753008
 20
-74.11803387884889
 10
191.7585394227172
 20
-74.11803387884889
 10
192.1601817277648
 20
-74.11803387884889
 10
192.3639741244948
 20
-74.21315253324097
 10
192.3639741244948
 20
-74.40113713399816
 10
192.3639741244948
 20
-74.53396922792137
 10
192.3367862690137
 20
-74.66684016163798
 10
192.2832261937141
 20
-74.79066142345941
 10
192.2832261937141
 20
-74.79066142345941
 10
191.3750353012549
 20
-77.10601803604872
 10
191.3750353012549
 20
-77.10601803604872
 10
191.3750353012549
 20
-77.10601803604872
 10
193.7809663123919
 20
-77.10601803604872
 10
193.7809663123919
 20
-77.10601803604872
 10
193.7809663123919
 20
-77.10601803604872
 10
194.6838749929289
 20
-74.79066142345941
 10
194.6838749929289
 20
-74.79066142345941
 10
194.7676912673979
 20
-74.56418658729994
 10
194.825834438335
 20
-74.28411283604749
 10
194.825834438335
 20
-74.11123691497909
 10
194.825834438335
 20
-73.43557986647271
 10
194.0957628390727
 20
-73.03242280947722
 10
192.8735910555966
 20
-73.03242280947722
 97
        0
 72
     1
 10
192.8735910555966
 20
-73.03242280947722
 11
192.8735910555966
 21
-73.03242280947722
 97
        0
 75
     2
 76
     1
 98
        1
 10
0.0
 20
0.0
450
        0
451
        0
460
0.0
461
0.0
452
        0
462
0.0
453
        0
470

  0
SPLINE
  5
1B9
330
1AD
100
AcDbEntity
  8
Слой 2
100
AcDbSpline
210
0.0
220
0.0
230
1.0
 70
     9
 71
     3
 72
    26
 73
    22
 74
     0
 42
0.0000000001
 43
0.0000000001
 40
0.0
 40
0.0
 40
0.0
 40
0.0
 40
1.0
 40
1.0
 40
1.0
 40
2.0
 40
2.0
 40
2.0
 40
3.0
 40
3.0
 40
3.0
 40
4.0
 40
4.0
 40
4.0
 40
5.0
 40
5.0
 40
5.0
 40
6.0
 40
6.0
 40
6.0
 40
7.0
 40
7.0
 40
7.0
 40
7.0
 10
176.920456575396
 20
-71.62168382834067
 30
0.0
 10
176.8736934639678
 20
-71.55301507335386
 30
0.0
 10
176.7958973574975
 20
-71.51149533405413
 30
0.0
 10
176.7121199228209
 20
-71.51149533405413
 30
0.0
 10
176.7121199228209
 20
-71.51149533405413
 30
0.0
 10
174.7991047315622
 20
-71.51149533405413
 30
0.0
 10
174.7991047315622
 20
-71.51149533405413
 30
0.0
 10
174.694936405276
 20
-71.51149533405413
 30
0.0
 10
174.6020704589099
 20
-71.57492071691279
 30
0.0
 10
174.5643570193775
 20
-71.6722920793299
 30
0.0
 10
174.5643570193775
 20
-71.6722920793299
 30
0.0
 10
172.4399756716478
 20
-77.10621223501691
 30
0.0
 10
172.4399756716478
 20
-77.10621223501691
 30
0.0
 10
172.4399756716478
 20
-77.10621223501691
 30
0.0
 10
174.9010203498248
 20
-77.10621223501691
 30
0.0
 10
174.9010203498248
 20
-77.10621223501691
 30
0.0
 10
174.9010203498248
 20
-77.10621223501691
 30
0.0
 10
176.9469064748006
 20
-71.85647038031946
 30
0.0
 10
176.9469064748006
 20
-71.85647038031946
 30
0.0
 10
176.9778617902547
 20
-71.77871311364251
 30
0.0
 10
176.9680353224881
 20
-71.69039142312183
 30
0.0
 10
176.920456575396
 20
-71.62168382834067
 30
0.0
  0
HATCH
  5
1BA
330
1AD
100
AcDbEntity
  8
Слой 2
 62
   254
420
 13421772
440
 33554687
100
AcDbHatch
 10
0.0
 20
0.0
 30
0.0
210
0.0
220
0.0
230
1.0
  2
SOLID
 70
     1
 71
     1
 91
        1
 92
        1
 93
        2
 72
     4
 94
        3
 73
     0
 74
     0
 95
       26
 96
       22
 40
0.0
 40
0.0
 40
0.0
 40
0.0
 40
1.0
 40
1.0
 40
1.0
 40
2.0
 40
2.0
 40
2.0
 40
3.0
 40
3.0
 40
3.0
 40
4.0
 40
4.0
 40
4.0
 40
5.0
 40
5.0
 40
5.0
 40
6.0
 40
6.0
 40
6.0
 40
7.0
 40
7.0
 40
7.0
 40
7.0
 10
176.920456575396
 20
-71.62168382834067
 10
176.8736934639678
 20
-71.55301507335386
 10
176.7958973574975
 20
-71.51149533405413
 10
176.7121199228209
 20
-71.51149533405413
 10
176.7121199228209
 20
-71.51149533405413
 10
174.7991047315622
 20
-71.51149533405413
 10
174.7991047315622
 20
-71.51149533405413
 10
174.694936405276
 20
-71.51149533405413
 10
174.6020704589099
 20
-71.57492071691279
 10
174.5643570193775
 20
-71.6722920793299
 10
174.5643570193775
 20
-71.6722920793299
 10
172.4399756716478
 20
-77.10621223501691
 10
172.4399756716478
 20
-77.10621223501691
 10
172.4399756716478
 20
-77.10621223501691
 10
174.9010203498248
 20
-77.10621223501691
 10
174.9010203498248
 20
-77.10621223501691
 10
174.9010203498248
 20
-77.10621223501691
 10
176.9469064748006
 20
-71.85647038031946
 10
176.9469064748006
 20
-71.85647038031946
 10
176.9778617902547
 20
-71.77871311364251
 10
176.9680353224881
 20
-71.69039142312183
 10
176.920456575396
 20
-71.62168382834067
 97
        0
 72
     1
 10
176.920456575396
 20
-71.62168382834067
 11
176.920456575396
 21
-71.62168382834067
 97
        0
 75
     2
 76
     1
 98
        1
 10
0.0
 20
0.0
450
        0
451
        0
460
0.0
461
0.0
452
        0
462
0.0
453
        0
470

  0
SPLINE
  5
1BB
330
1AD
100
AcDbEntity
  8
Слой 2
100
AcDbSpline
210
0.0
220
0.0
230
1.0
 70
     9
 71
     3
 72
     8
 73
     4
 74
     0
 42
0.0000000001
 43
0.0000000001
 40
0.0
 40
0.0
 40
0.0
 40
0.0
 40
1.0
 40
1.0
 40
1.0
 40
1.0
 10
184.9632845032836
 20
-73.73985080910315
 30
0.0
 10
181.9405775706551
 20
-79.31347770217057
 30
0.0
 10
179.287780831748
 20
-73.70512803367418
 30
0.0
 10
184.9632845032836
 20
-73.73985080910315
 30
0.0
  0
SPLINE
  5
1BC
330
1AD
100
AcDbEntity
  8
Слой 2
100
AcDbSpline
210
0.0
220
0.0
230
1.0
 70
     9
 71
     3
 72
    62
 73
    58
 74
     0
 42
0.0000000001
 43
0.0000000001
 40
0.0
 40
0.0
 40
0.0
 40
0.0
 40
1.0
 40
1.0
 40
1.0
 40
2.0
 40
2.0
 40
2.0
 40
3.0
 40
3.0
 40
3.0
 40
4.0
 40
4.0
 40
4.0
 40
5.0
 40
5.0
 40
5.0
 40
6.0
 40
6.0
 40
6.0
 40
7.0
 40
7.0
 40
7.0
 40
8.0
 40
8.0
 40
8.0
 40
9.0
 40
9.0
 40
9.0
 40
10.0
 40
10.0
 40
10.0
 40
11.0
 40
11.0
 40
11.0
 40
12.0
 40
12.0
 40
12.0
 40
13.0
 40
13.0
 40
13.0
 40
14.0
 40
14.0
 40
14.0
 40
15.0
 40
15.0
 40
15.0
 40
16.0
 40
16.0
 40
16.0
 40
17.0
 40
17.0
 40
17.0
 40
18.0
 40
18.0
 40
18.0
 40
19.0
 40
19.0
 40
19.0
 40
19.0
 10
187.4461959852258
 20
-73.13212455950679
 30
0.0
 10
187.3994328737975
 20
-73.06345580451933
 30
0.0
 10
187.3208988112501
 20
-73.02267402129736
 30
0.0
 10
187.2378204928576
 20
-73.02267402129736
 30
0.0
 10
187.2378204928576
 20
-73.02267402129736
 30
0.0
 10
183.8187923068968
 20
-73.02267402129736
 30
0.0
 10
183.8187923068968
 20
-73.02267402129736
 30
0.0
 10
183.2631890602389
 20
-73.03475319708967
 30
0.0
 10
182.8442242072699
 20
-73.06951481231234
 30
0.0
 10
182.5309035927446
 20
-73.12913389540367
 30
0.0
 10
181.5434795214526
 20
-73.35106447571902
 30
0.0
 10
180.9251888480125
 20
-73.73153909328383
 30
0.0
 10
180.4594220438223
 20
-74.41022564568735
 30
0.0
 10
179.9988986117605
 20
-75.20213019627295
 30
0.0
 10
179.9143443812131
 20
-75.93367770769074
 30
0.0
 10
180.2223439440244
 20
-76.46966685861009
 30
0.0
 10
180.4820656434583
 20
-76.92261653092966
 30
0.0
 10
181.0014313627406
 20
-77.18156143449305
 30
0.0
 10
181.6476478477402
 20
-77.18156143449305
 30
0.0
 10
182.1609933990219
 20
-77.18156143449305
 30
0.0
 10
182.7226556534747
 20
-77.01847314139853
 30
0.0
 10
183.2730155280048
 20
-76.70748291448474
 30
0.0
 10
183.4300448133073
 20
-76.61686967614468
 30
0.0
 10
183.6255643340117
 20
-76.46512260276502
 30
0.0
 10
183.8542918781972
 20
-76.25678595019053
 30
0.0
 10
183.8542918781972
 20
-76.25678595019053
 30
0.0
 10
184.2853747467522
 20
-75.86497011290958
 30
0.0
 10
184.2853747467522
 20
-75.86497011290958
 30
0.0
 10
183.6678608691829
 20
-77.35894277161282
 30
0.0
 10
182.855526587192
 20
-77.64659028260621
 30
0.0
 10
181.9903701859805
 20
-77.63602585876151
 30
0.0
 10
181.2233619430566
 20
-77.62697618686572
 30
0.0
 10
180.7024814718264
 20
-77.44881805387513
 30
0.0
 10
180.3831795290942
 20
-77.34084342782058
 30
0.0
 10
180.3831795290942
 20
-77.34084342782058
 30
0.0
 10
180.27971031909
 20
-77.30538269631449
 30
0.0
 10
180.27971031909
 20
-77.30538269631449
 30
0.0
 10
180.27971031909
 20
-77.30538269631449
 30
0.0
 10
179.8645129260959
 20
-78.34640568269718
 30
0.0
 10
179.8645129260959
 20
-78.34640568269718
 30
0.0
 10
179.8645129260959
 20
-78.34640568269718
 30
0.0
 10
179.9996754076319
 20
-78.38866337807371
 30
0.0
 10
179.9996754076319
 20
-78.38866337807371
 30
0.0
 10
180.472239175693
 20
-78.538157743428
 30
0.0
 10
181.3034107575526
 20
-78.63024689392261
 30
0.0
 10
182.1670524068149
 20
-78.63024689392261
 30
0.0
 10
183.2624122643674
 20
-78.63024689392261
 30
0.0
 10
184.1351035855268
 20
-78.47849982054296
 30
0.0
 10
184.7617059747856
 20
-78.17807401747355
 30
0.0
 10
185.5233931659935
 20
-77.8171746558549
 30
0.0
 10
185.8200903488834
 20
-77.60883800328073
 30
0.0
 10
186.0307185492759
 20
-77.04566099687963
 30
0.0
 10
186.0307185492759
 20
-77.04566099687963
 30
0.0
 10
187.4726458846291
 20
-73.36691111148526
 30
0.0
 10
187.4726458846291
 20
-73.36691111148526
 30
0.0
 10
187.5028244042136
 20
-73.28915384480831
 30
0.0
 10
187.4929979364477
 20
-73.20160895015844
 30
0.0
 10
187.4461959852258
 20
-73.13212455950679
 30
0.0
  0
HATCH
  5
1BD
330
1AD
100
AcDbEntity
  8
Слой 2
 62
   254
420
 13421772
440
 33554687
100
AcDbHatch
 10
0.0
 20
0.0
 30
0.0
210
0.0
220
0.0
230
1.0
  2
SOLID
 70
     1
 71
     1
 91
        2
 92
        1
 93
        2
 72
     4
 94
        3
 73
     0
 74
     0
 95
        8
 96
        4
 40
0.0
 40
0.0
 40
0.0
 40
0.0
 40
1.0
 40
1.0
 40
1.0
 40
1.0
 10
184.9632845032836
 20
-73.73985080910315
 10
181.9405775706551
 20
-79.31347770217057
 10
179.287780831748
 20
-73.70512803367418
 10
184.9632845032836
 20
-73.73985080910315
 97
        0
 72
     1
 10
184.9632845032836
 20
-73.73985080910316
 11
184.9632845032836
 21
-73.73985080910315
 97
        0
 92
        1
 93
        2
 72
     4
 94
        3
 73
     0
 74
     0
 95
       62
 96
       58
 40
0.0
 40
0.0
 40
0.0
 40
0.0
 40
1.0
 40
1.0
 40
1.0
 40
2.0
 40
2.0
 40
2.0
 40
3.0
 40
3.0
 40
3.0
 40
4.0
 40
4.0
 40
4.0
 40
5.0
 40
5.0
 40
5.0
 40
6.0
 40
6.0
 40
6.0
 40
7.0
 40
7.0
 40
7.0
 40
8.0
 40
8.0
 40
8.0
 40
9.0
 40
9.0
 40
9.0
 40
10.0
 40
10.0
 40
10.0
 40
11.0
 40
11.0
 40
11.0
 40
12.0
 40
12.0
 40
12.0
 40
13.0
 40
13.0
 40
13.0
 40
14.0
 40
14.0
 40
14.0
 40
15.0
 40
15.0
 40
15.0
 40
16.0
 40
16.0
 40
16.0
 40
17.0
 40
17.0
 40
17.0
 40
18.0
 40
18.0
 40
18.0
 40
19.0
 40
19.0
 40
19.0
 40
19.0
 10
187.4461959852258
 20
-73.13212455950679
 10
187.3994328737975
 20
-73.06345580451933
 10
187.3208988112501
 20
-73.02267402129736
 10
187.2378204928576
 20
-73.02267402129736
 10
187.2378204928576
 20
-73.02267402129736
 10
183.8187923068968
 20
-73.02267402129736
 10
183.8187923068968
 20
-73.02267402129736
 10
183.2631890602389
 20
-73.03475319708967
 10
182.8442242072699
 20
-73.06951481231234
 10
182.5309035927446
 20
-73.12913389540367
 10
181.5434795214526
 20
-73.35106447571902
 10
180.9251888480125
 20
-73.73153909328383
 10
180.4594220438223
 20
-74.41022564568735
 10
179.9988986117605
 20
-75.20213019627295
 10
179.9143443812131
 20
-75.93367770769074
 10
180.2223439440244
 20
-76.46966685861009
 10
180.4820656434583
 20
-76.92261653092966
 10
181.0014313627406
 20
-77.18156143449305
 10
181.6476478477402
 20
-77.18156143449305
 10
182.1609933990219
 20
-77.18156143449305
 10
182.7226556534747
 20
-77.01847314139853
 10
183.2730155280048
 20
-76.70748291448474
 10
183.4300448133073
 20
-76.61686967614468
 10
183.6255643340117
 20
-76.46512260276502
 10
183.8542918781972
 20
-76.25678595019053
 10
183.8542918781972
 20
-76.25678595019053
 10
184.2853747467522
 20
-75.86497011290958
 10
184.2853747467522
 20
-75.86497011290958
 10
183.6678608691829
 20
-77.35894277161282
 10
182.855526587192
 20
-77.64659028260621
 10
181.9903701859805
 20
-77.63602585876151
 10
181.2233619430566
 20
-77.62697618686572
 10
180.7024814718264
 20
-77.44881805387513
 10
180.3831795290942
 20
-77.34084342782058
 10
180.3831795290942
 20
-77.34084342782058
 10
180.27971031909
 20
-77.30538269631449
 10
180.27971031909
 20
-77.30538269631449
 10
180.27971031909
 20
-77.30538269631449
 10
179.8645129260959
 20
-78.34640568269718
 10
179.8645129260959
 20
-78.34640568269718
 10
179.8645129260959
 20
-78.34640568269718
 10
179.9996754076319
 20
-78.38866337807371
 10
179.9996754076319
 20
-78.38866337807371
 10
180.472239175693
 20
-78.538157743428
 10
181.3034107575526
 20
-78.63024689392261
 10
182.1670524068149
 20
-78.63024689392261
 10
183.2624122643674
 20
-78.63024689392261
 10
184.1351035855268
 20
-78.47849982054296
 10
184.7617059747856
 20
-78.17807401747355
 10
185.5233931659935
 20
-77.8171746558549
 10
185.8200903488834
 20
-77.60883800328073
 10
186.0307185492759
 20
-77.04566099687963
 10
186.0307185492759
 20
-77.04566099687963
 10
187.4726458846291
 20
-73.36691111148526
 10
187.4726458846291
 20
-73.36691111148526
 10
187.5028244042136
 20
-73.28915384480831
 10
187.4929979364477
 20
-73.20160895015844
 10
187.4461959852258
 20
-73.13212455950679
 97
        0
 72
     1
 10
187.4461959852258
 20
-73.13212455950679
 11
187.4461959852258
 21
-73.13212455950679
 97
        0
 75
     2
 76
     1
 98
        1
 10
0.0
 20
0.0
450
        0
451
        0
460
0.0
461
0.0
452
        0
462
0.0
453
        0
470

  0
SPLINE
  5
1BE
330
1AD
100
AcDbEntity
  8
Слой 2
100
AcDbSpline
210
0.0
220
0.0
230
1.0
 70
     9
 71
     3
 72
     8
 73
     4
 74
     0
 42
0.0000000001
 43
0.0000000001
 40
0.0
 40
0.0
 40
0.0
 40
0.0
 40
1.0
 40
1.0
 40
1.0
 40
1.0
 10
164.4394831187245
 20
-73.73985080910315
 30
0.0
 10
161.4167373463029
 20
-79.31347770217057
 30
0.0
 10
158.7639406073952
 20
-73.70512803367418
 30
0.0
 10
164.4394831187245
 20
-73.73985080910315
 30
0.0
  0
SPLINE
  5
1BF
330
1AD
100
AcDbEntity
  8
Слой 2
100
AcDbSpline
210
0.0
220
0.0
230
1.0
 70
     9
 71
     3
 72
    44
 73
    40
 74
     0
 42
0.0000000001
 43
0.0000000001
 40
0.0
 40
0.0
 40
0.0
 40
0.0
 40
1.0
 40
1.0
 40
1.0
 40
2.0
 40
2.0
 40
2.0
 40
3.0
 40
3.0
 40
3.0
 40
4.0
 40
4.0
 40
4.0
 40
5.0
 40
5.0
 40
5.0
 40
6.0
 40
6.0
 40
6.0
 40
7.0
 40
7.0
 40
7.0
 40
8.0
 40
8.0
 40
8.0
 40
9.0
 40
9.0
 40
9.0
 40
10.0
 40
10.0
 40
10.0
 40
11.0
 40
11.0
 40
11.0
 40
12.0
 40
12.0
 40
12.0
 40
13.0
 40
13.0
 40
13.0
 40
13.0
 10
166.9850431876551
 20
-73.13212455950679
 30
0.0
 10
166.9382800762269
 20
-73.06345580451933
 30
0.0
 10
166.8604839697566
 20
-73.02267402129736
 30
0.0
 10
166.7766676952863
 20
-73.02267402129736
 30
0.0
 10
166.7766676952863
 20
-73.02267402129736
 30
0.0
 10
163.3598922173518
 20
-73.02267402129736
 30
0.0
 10
163.3598922173518
 20
-73.02267402129736
 30
0.0
 10
162.8050269267697
 20
-73.03475319708967
 30
0.0
 10
162.3845473218534
 20
-73.06951481231234
 30
0.0
 10
162.0720035031983
 20
-73.12913389540367
 30
0.0
 10
161.084579431907
 20
-73.35032651964191
 30
0.0
 10
160.4662887584669
 20
-73.73080113720767
 30
0.0
 10
160.0005219542766
 20
-74.41022564568735
 30
0.0
 10
159.5399596824218
 20
-75.20213019627295
 30
0.0
 10
159.4554442916681
 20
-75.93367770769074
 30
0.0
 10
159.7627058984017
 20
-76.46966685861009
 30
0.0
 10
160.0231267141203
 20
-76.9218785748519
 30
0.0
 10
160.542531273195
 20
-77.18156143449305
 30
0.0
 10
161.1887477581952
 20
-77.18156143449305
 30
0.0
 10
161.7020933094763
 20
-77.18156143449305
 30
0.0
 10
162.2629787680577
 20
-77.01773518532046
 30
0.0
 10
162.8141154384598
 20
-76.70748291448474
 30
0.0
 10
162.9703679278902
 20
-76.61686967614468
 30
0.0
 10
163.1666254046724
 20
-76.46512260276502
 30
0.0
 10
163.3953529488579
 20
-76.25678595019053
 30
0.0
 10
163.3953529488579
 20
-76.25678595019053
 30
0.0
 10
163.7162473231267
 20
-75.96537097922321
 30
0.0
 10
163.7162473231267
 20
-75.96537097922321
 30
0.0
 10
163.7162473231267
 20
-75.96537097922321
 30
0.0
 10
163.143243848958
 20
-77.12415621963434
 30
0.0
 10
163.143243848958
 20
-77.12415621963434
 30
0.0
 10
163.143243848958
 20
-77.12415621963434
 30
0.0
 10
165.5582633717845
 20
-77.12415621963434
 30
0.0
 10
165.5582633717845
 20
-77.12415621963434
 30
0.0
 10
165.5582633717845
 20
-77.12415621963434
 30
0.0
 10
167.0122310431356
 20
-73.36691111148526
 30
0.0
 10
167.0122310431356
 20
-73.36691111148526
 30
0.0
 10
167.0424484025138
 20
-73.28915384480831
 30
0.0
 10
167.0326219347465
 20
-73.20160895015844
 30
0.0
 10
166.9850431876551
 20
-73.13212455950679
 30
0.0
  0
HATCH
  5
1C0
330
1AD
100
AcDbEntity
  8
Слой 2
 62
   254
420
 13421772
440
 33554687
100
AcDbHatch
 10
0.0
 20
0.0
 30
0.0
210
0.0
220
0.0
230
1.0
  2
SOLID
 70
     1
 71
     1
 91
        2
 92
        1
 93
        2
 72
     4
 94
        3
 73
     0
 74
     0
 95
        8
 96
        4
 40
0.0
 40
0.0
 40
0.0
 40
0.0
 40
1.0
 40
1.0
 40
1.0
 40
1.0
 10
164.4394831187245
 20
-73.73985080910315
 10
161.4167373463029
 20
-79.31347770217057
 10
158.7639406073952
 20
-73.70512803367418
 10
164.4394831187245
 20
-73.73985080910315
 97
        0
 72
     1
 10
164.4394831187245
 20
-73.73985080910316
 11
164.4394831187245
 21
-73.73985080910315
 97
        0
 92
        1
 93
        2
 72
     4
 94
        3
 73
     0
 74
     0
 95
       44
 96
       40
 40
0.0
 40
0.0
 40
0.0
 40
0.0
 40
1.0
 40
1.0
 40
1.0
 40
2.0
 40
2.0
 40
2.0
 40
3.0
 40
3.0
 40
3.0
 40
4.0
 40
4.0
 40
4.0
 40
5.0
 40
5.0
 40
5.0
 40
6.0
 40
6.0
 40
6.0
 40
7.0
 40
7.0
 40
7.0
 40
8.0
 40
8.0
 40
8.0
 40
9.0
 40
9.0
 40
9.0
 40
10.0
 40
10.0
 40
10.0
 40
11.0
 40
11.0
 40
11.0
 40
12.0
 40
12.0
 40
12.0
 40
13.0
 40
13.0
 40
13.0
 40
13.0
 10
166.9850431876551
 20
-73.13212455950679
 10
166.9382800762269
 20
-73.06345580451933
 10
166.8604839697566
 20
-73.02267402129736
 10
166.7766676952863
 20
-73.02267402129736
 10
166.7766676952863
 20
-73.02267402129736
 10
163.3598922173518
 20
-73.02267402129736
 10
163.3598922173518
 20
-73.02267402129736
 10
162.8050269267697
 20
-73.03475319708967
 10
162.3845473218534
 20
-73.06951481231234
 10
162.0720035031983
 20
-73.12913389540367
 10
161.084579431907
 20
-73.35032651964191
 10
160.4662887584669
 20
-73.73080113720767
 10
160.0005219542766
 20
-74.41022564568735
 10
159.5399596824218
 20
-75.20213019627295
 10
159.4554442916681
 20
-75.93367770769074
 10
159.7627058984017
 20
-76.46966685861009
 10
160.0231267141203
 20
-76.9218785748519
 10
160.542531273195
 20
-77.18156143449305
 10
161.1887477581952
 20
-77.18156143449305
 10
161.7020933094763
 20
-77.18156143449305
 10
162.2629787680577
 20
-77.01773518532046
 10
162.8141154384598
 20
-76.70748291448474
 10
162.9703679278902
 20
-76.61686967614468
 10
163.1666254046724
 20
-76.46512260276502
 10
163.3953529488579
 20
-76.25678595019053
 10
163.3953529488579
 20
-76.25678595019053
 10
163.7162473231267
 20
-75.96537097922321
 10
163.7162473231267
 20
-75.96537097922321
 10
163.7162473231267
 20
-75.96537097922321
 10
163.143243848958
 20
-77.12415621963434
 10
163.143243848958
 20
-77.12415621963434
 10
163.143243848958
 20
-77.12415621963434
 10
165.5582633717845
 20
-77.12415621963434
 10
165.5582633717845
 20
-77.12415621963434
 10
165.5582633717845
 20
-77.12415621963434
 10
167.0122310431356
 20
-73.36691111148526
 10
167.0122310431356
 20
-73.36691111148526
 10
167.0424484025138
 20
-73.28915384480831
 10
167.0326219347465
 20
-73.20160895015844
 10
166.9850431876551
 20
-73.13212455950679
 97
        0
 72
     1
 10
166.9850431876551
 20
-73.13212455950679
 11
166.9850431876551
 21
-73.13212455950679
 97
        0
 75
     2
 76
     1
 98
        1
 10
0.0
 20
0.0
450
        0
451
        0
460
0.0
461
0.0
452
        0
462
0.0
453
        0
470

  0
SPLINE
  5
1C1
330
1AD
100
AcDbEntity
  8
Слой 2
100
AcDbSpline
210
0.0
220
0.0
230
1.0
 70
    11
 71
     3
 72
    62
 73
    58
 74
     0
 42
0.0000000001
 43
0.0000000001
 40
0.0
 40
0.0
 40
0.0
 40
0.0
 40
1.0
 40
1.0
 40
1.0
 40
2.0
 40
2.0
 40
2.0
 40
3.0
 40
3.0
 40
3.0
 40
4.0
 40
4.0
 40
4.0
 40
5.0
 40
5.0
 40
5.0
 40
6.0
 40
6.0
 40
6.0
 40
7.0
 40
7.0
 40
7.0
 40
8.0
 40
8.0
 40
8.0
 40
9.0
 40
9.0
 40
9.0
 40
10.0
 40
10.0
 40
10.0
 40
11.0
 40
11.0
 40
11.0
 40
12.0
 40
12.0
 40
12.0
 40
13.0
 40
13.0
 40
13.0
 40
14.0
 40
14.0
 40
14.0
 40
15.0
 40
15.0
 40
15.0
 40
16.0
 40
16.0
 40
16.0
 40
17.0
 40
17.0
 40
17.0
 40
18.0
 40
18.0
 40
18.0
 40
19.0
 40
19.0
 40
19.0
 40
19.0
 10
199.834148136357
 20
-71.54951949193455
 30
0.0
 10
199.834148136357
 20
-71.54951949193455
 30
0.0
 10
198.9780414070407
 20
-71.54951949193455
 30
0.0
 10
198.9780414070407
 20
-71.54951949193455
 30
0.0
 10
198.7712195064142
 20
-71.54951949193455
 30
0.0
 10
198.2065277480661
 20
-71.74356310048508
 30
0.0
 10
197.2817134239696
 20
-72.13157263799773
 30
0.0
 10
196.3576758957439
 20
-72.52109692745929
 30
0.0
 10
195.808869612956
 20
-72.81779411034817
 30
0.0
 10
195.6382463999127
 20
-73.02314009881985
 30
0.0
 10
195.6382463999127
 20
-73.02314009881985
 30
0.0
 10
195.0720398896148
 20
-73.74183163857421
 30
0.0
 10
195.0720398896148
 20
-73.74183163857421
 30
0.0
 10
195.0720398896148
 20
-73.74183163857421
 30
0.0
 10
196.3403145080294
 20
-73.74183163857421
 30
0.0
 10
196.3403145080294
 20
-73.74183163857421
 30
0.0
 10
196.3403145080294
 20
-73.74183163857421
 30
0.0
 10
195.6035624642768
 20
-75.55817458369915
 30
0.0
 10
195.6035624642768
 20
-75.55817458369915
 30
0.0
 10
195.5469340452889
 20
-75.7295357528193
 30
0.0
 10
195.5174934817815
 20
-75.87825332230181
 30
0.0
 10
195.5174934817815
 20
-76.00358933607182
 30
0.0
 10
195.5174934817815
 20
-76.30028651896068
 30
0.0
 10
195.6428294955508
 20
-76.54031644306797
 30
0.0
 10
195.8941617995792
 20
-76.72228087582553
 30
0.0
 10
196.2482641973278
 20
-76.97438997572511
 30
0.0
 10
196.8129171158828
 20
-77.09972598949383
 30
0.0
 10
197.5904897826517
 20
-77.09972598949383
 30
0.0
 10
198.4118348967441
 20
-77.09972598949383
 30
0.0
 10
199.0225906502369
 20
-76.96231079993281
 30
0.0
 10
199.423456159413
 20
-76.68903401255112
 30
0.0
 10
199.5487533333894
 20
-76.59768281813424
 30
0.0
 10
199.6680303393651
 20
-76.45424746057232
 30
0.0
 10
199.7827630894964
 20
-76.25950473573839
 30
0.0
 10
199.7827630894964
 20
-76.25950473573839
 30
0.0
 10
199.7827630894964
 20
-76.05415874726702
 30
0.0
 10
199.7827630894964
 20
-76.05415874726702
 30
0.0
 10
199.7827630894964
 20
-76.05415874726702
 30
0.0
 10
198.49790387924
 20
-76.05415874726702
 30
0.0
 10
198.49790387924
 20
-76.05415874726702
 30
0.0
 10
198.0743947704266
 20
-76.05415874726702
 30
0.0
 10
198.2404737276236
 20
-75.56042729172452
 30
0.0
 10
198.3272806661967
 20
-75.23203683730255
 30
0.0
 10
198.3272806661967
 20
-75.23203683730255
 30
0.0
 10
198.9432797918193
 20
-73.74183163857421
 30
0.0
 10
198.9432797918193
 20
-73.74183163857421
 30
0.0
 10
198.9432797918193
 20
-73.74183163857421
 30
0.0
 10
200.2968854366509
 20
-73.74183163857421
 30
0.0
 10
200.2968854366509
 20
-73.74183163857421
 30
0.0
 10
200.2968854366509
 20
-73.74183163857421
 30
0.0
 10
200.5883004076166
 20
-73.02314009881985
 30
0.0
 10
200.5883004076166
 20
-73.02314009881985
 30
0.0
 10
200.5883004076166
 20
-73.02314009881985
 30
0.0
 10
199.2165954189941
 20
-73.02314009881985
 30
0.0
 10
199.2165954189941
 20
-73.02314009881985
 30
0.0
 10
199.2165954189941
 20
-73.02314009881985
 30
0.0
 10
199.834148136357
 20
-71.54951949193455
 30
0.0
 10
199.834148136357
 20
-71.54951949193455
 30
0.0
  0
HATCH
  5
1C2
330
1AD
100
AcDbEntity
  8
Слой 2
 62
   254
420
 13421772
440
 33554687
100
AcDbHatch
 10
0.0
 20
0.0
 30
0.0
210
0.0
220
0.0
230
1.0
  2
SOLID
 70
     1
 71
     1
 91
        1
 92
        1
 93
        1
 72
     4
 94
        3
 73
     0
 74
     0
 95
       62
 96
       58
 40
0.0
 40
0.0
 40
0.0
 40
0.0
 40
1.0
 40
1.0
 40
1.0
 40
2.0
 40
2.0
 40
2.0
 40
3.0
 40
3.0
 40
3.0
 40
4.0
 40
4.0
 40
4.0
 40
5.0
 40
5.0
 40
5.0
 40
6.0
 40
6.0
 40
6.0
 40
7.0
 40
7.0
 40
7.0
 40
8.0
 40
8.0
 40
8.0
 40
9.0
 40
9.0
 40
9.0
 40
10.0
 40
10.0
 40
10.0
 40
11.0
 40
11.0
 40
11.0
 40
12.0
 40
12.0
 40
12.0
 40
13.0
 40
13.0
 40
13.0
 40
14.0
 40
14.0
 40
14.0
 40
15.0
 40
15.0
 40
15.0
 40
16.0
 40
16.0
 40
16.0
 40
17.0
 40
17.0
 40
17.0
 40
18.0
 40
18.0
 40
18.0
 40
19.0
 40
19.0
 40
19.0
 40
19.0
 10
199.834148136357
 20
-71.54951949193455
 10
199.834148136357
 20
-71.54951949193455
 10
198.9780414070407
 20
-71.54951949193455
 10
198.9780414070407
 20
-71.54951949193455
 10
198.7712195064142
 20
-71.54951949193455
 10
198.2065277480661
 20
-71.74356310048508
 10
197.2817134239696
 20
-72.13157263799773
 10
196.3576758957439
 20
-72.52109692745929
 10
195.808869612956
 20
-72.81779411034817
 10
195.6382463999127
 20
-73.02314009881985
 10
195.6382463999127
 20
-73.02314009881985
 10
195.0720398896148
 20
-73.74183163857421
 10
195.0720398896148
 20
-73.74183163857421
 10
195.0720398896148
 20
-73.74183163857421
 10
196.3403145080294
 20
-73.74183163857421
 10
196.3403145080294
 20
-73.74183163857421
 10
196.3403145080294
 20
-73.74183163857421
 10
195.6035624642768
 20
-75.55817458369915
 10
195.6035624642768
 20
-75.55817458369915
 10
195.5469340452889
 20
-75.7295357528193
 10
195.5174934817815
 20
-75.87825332230181
 10
195.5174934817815
 20
-76.00358933607182
 10
195.5174934817815
 20
-76.30028651896068
 10
195.6428294955508
 20
-76.54031644306797
 10
195.8941617995792
 20
-76.72228087582553
 10
196.2482641973278
 20
-76.97438997572511
 10
196.8129171158828
 20
-77.09972598949383
 10
197.5904897826517
 20
-77.09972598949383
 10
198.4118348967441
 20
-77.09972598949383
 10
199.0225906502369
 20
-76.96231079993281
 10
199.423456159413
 20
-76.68903401255112
 10
199.5487533333894
 20
-76.59768281813424
 10
199.6680303393651
 20
-76.45424746057232
 10
199.7827630894964
 20
-76.25950473573839
 10
199.7827630894964
 20
-76.25950473573839
 10
199.7827630894964
 20
-76.05415874726702
 10
199.7827630894964
 20
-76.05415874726702
 10
199.7827630894964
 20
-76.05415874726702
 10
198.49790387924
 20
-76.05415874726702
 10
198.49790387924
 20
-76.05415874726702
 10
198.0743947704266
 20
-76.05415874726702
 10
198.2404737276236
 20
-75.56042729172452
 10
198.3272806661967
 20
-75.23203683730255
 10
198.3272806661967
 20
-75.23203683730255
 10
198.9432797918193
 20
-73.74183163857421
 10
198.9432797918193
 20
-73.74183163857421
 10
198.9432797918193
 20
-73.74183163857421
 10
200.2968854366509
 20
-73.74183163857421
 10
200.2968854366509
 20
-73.74183163857421
 10
200.2968854366509
 20
-73.74183163857421
 10
200.5883004076166
 20
-73.02314009881985
 10
200.5883004076166
 20
-73.02314009881985
 10
200.5883004076166
 20
-73.02314009881985
 10
199.2165954189941
 20
-73.02314009881985
 10
199.2165954189941
 20
-73.02314009881985
 10
199.2165954189941
 20
-73.02314009881985
 10
199.834148136357
 20
-71.54951949193455
 10
199.834148136357
 20
-71.54951949193455
 97
        0
 97
        1
330
1C1
 75
     2
 76
     1
 98
        1
 10
0.0
 20
0.0
450
        0
451
        0
460
0.0
461
0.0
452
        0
462
0.0
453
        0
470

  0
SPLINE
  5
1C3
330
1AD
100
AcDbEntity
  8
Слой 2
100
AcDbSpline
210
0.0
220
0.0
230
1.0
 70
     9
 71
     3
 72
    29
 73
    25
 74
     0
 42
0.0000000001
 43
0.0000000001
 40
0.0
 40
0.0
 40
0.0
 40
0.0
 40
1.0
 40
1.0
 40
1.0
 40
2.0
 40
2.0
 40
2.0
 40
3.0
 40
3.0
 40
3.0
 40
4.0
 40
4.0
 40
4.0
 40
5.0
 40
5.0
 40
5.0
 40
6.0
 40
6.0
 40
6.0
 40
7.0
 40
7.0
 40
7.0
 40
8.0
 40
8.0
 40
8.0
 40
8.0
 10
177.0364321989206
 20
-55.42921854031685
 30
0.0
 10
181.261696819285
 20
-52.78244196940968
 30
0.0
 10
186.8322553686629
 20
-54.06279576361528
 30
0.0
 10
189.4790707793637
 20
-58.28809922377274
 30
0.0
 10
189.8051308461723
 20
-58.80975649087378
 30
0.0
 10
190.0716495094776
 20
-59.35102785371563
 30
0.0
 10
190.2800250018458
 20
-59.90437839234883
 30
0.0
 10
190.0482679537632
 20
-59.01055822350103
 30
0.0
 10
189.6776198039647
 20
-58.13639099018711
 30
0.0
 10
189.1612059089927
 20
-57.31197753240356
 30
0.0
 10
186.4419931231236
 20
-52.96964977429574
 30
0.0
 10
180.7173959525473
 20
-51.65457320466021
 30
0.0
 10
176.3750681944392
 20
-54.37382483032245
 30
0.0
 10
172.0335172322019
 20
-57.09307645598471
 30
0.0
 10
170.7176638666958
 20
-62.81763478676758
 30
0.0
 10
173.4369543321518
 20
-67.15996254487571
 30
0.0
 10
173.9532905475369
 20
-67.98433716286524
 30
0.0
 10
174.5783781848478
 20
-68.69926124264599
 30
0.0
 10
175.281961044913
 20
-69.2978989805522
 30
0.0
 10
174.8742985718655
 20
-68.86833086394642
 30
0.0
 10
174.5036115822733
 20
-68.39277643178355
 30
0.0
 10
174.1767358798002
 20
-67.87185712075899
 30
0.0
 10
171.5307361047632
 20
-63.64655366060153
 30
0.0
 10
172.8110898989695
 20
-58.07595627143158
 30
0.0
 10
177.0364321989206
 20
-55.42921854031685
 30
0.0
  0
HATCH
  5
1C4
330
1AD
100
AcDbEntity
  8
Слой 2
 62
   254
420
 13421772
440
 33554687
100
AcDbHatch
 10
0.0
 20
0.0
 30
0.0
210
0.0
220
0.0
230
1.0
  2
SOLID
 70
     1
 71
     1
 91
        1
 92
        1
 93
        2
 72
     4
 94
        3
 73
     0
 74
     0
 95
       29
 96
       25
 40
0.0
 40
0.0
 40
0.0
 40
0.0
 40
1.0
 40
1.0
 40
1.0
 40
2.0
 40
2.0
 40
2.0
 40
3.0
 40
3.0
 40
3.0
 40
4.0
 40
4.0
 40
4.0
 40
5.0
 40
5.0
 40
5.0
 40
6.0
 40
6.0
 40
6.0
 40
7.0
 40
7.0
 40
7.0
 40
8.0
 40
8.0
 40
8.0
 40
8.0
 10
177.0364321989206
 20
-55.42921854031685
 10
181.261696819285
 20
-52.78244196940968
 10
186.8322553686629
 20
-54.06279576361528
 10
189.4790707793637
 20
-58.28809922377274
 10
189.8051308461723
 20
-58.80975649087378
 10
190.0716495094776
 20
-59.35102785371563
 10
190.2800250018458
 20
-59.90437839234883
 10
190.0482679537632
 20
-59.01055822350103
 10
189.6776198039647
 20
-58.13639099018711
 10
189.1612059089927
 20
-57.31197753240356
 10
186.4419931231236
 20
-52.96964977429574
 10
180.7173959525473
 20
-51.65457320466021
 10
176.3750681944392
 20
-54.37382483032245
 10
172.0335172322019
 20
-57.09307645598471
 10
170.7176638666958
 20
-62.81763478676758
 10
173.4369543321518
 20
-67.15996254487571
 10
173.9532905475369
 20
-67.98433716286524
 10
174.5783781848478
 20
-68.69926124264599
 10
175.281961044913
 20
-69.2978989805522
 10
174.8742985718655
 20
-68.86833086394642
 10
174.5036115822733
 20
-68.39277643178355
 10
174.1767358798002
 20
-67.87185712075899
 10
171.5307361047632
 20
-63.64655366060153
 10
172.8110898989695
 20
-58.07595627143158
 10
177.0364321989206
 20
-55.42921854031685
 97
        0
 72
     1
 10
177.0364321989206
 20
-55.42921854031685
 11
177.0364321989206
 21
-55.42921854031685
 97
        0
 75
     2
 76
     1
 98
        1
 10
0.0
 20
0.0
450
        0
451
        0
460
0.0
461
0.0
452
        0
462
0.0
453
        0
470

  0
SPLINE
  5
1C5
330
1AD
100
AcDbEntity
  8
Слой 2
100
AcDbSpline
210
0.0
220
0.0
230
1.0
 70
     9
 71
     3
 72
    17
 73
    13
 74
     0
 42
0.0000000001
 43
0.0000000001
 40
0.0
 40
0.0
 40
0.0
 40
0.0
 40
1.0
 40
1.0
 40
1.0
 40
2.0
 40
2.0
 40
2.0
 40
3.0
 40
3.0
 40
3.0
 40
4.0
 40
4.0
 40
4.0
 40
4.0
 10
175.5254865504389
 20
-60.85020504475269
 30
0.0
 10
177.3591520434844
 20
-60.13683455671454
 30
0.0
 10
179.7885034501288
 20
-59.6815933365759
 30
0.0
 10
182.9176702568636
 20
-59.70124627210881
 30
0.0
 10
180.7094726346644
 20
-63.77328790693901
 30
0.0
 10
178.5549127673495
 20
-66.19809505773776
 30
0.0
 10
176.6918067107973
 20
-67.47541934804717
 30
0.0
 10
179.2140240638066
 20
-67.4142855130076
 30
0.0
 10
183.0195470353312
 20
-64.91622651158358
 30
0.0
 10
186.9836917236936
 20
-57.60556753180948
 30
0.0
 10
181.1299910793743
 20
-57.57010680030275
 30
0.0
 10
177.4920229772023
 20
-59.03689160352424
 30
0.0
 10
175.5254865504389
 20
-60.85020504475269
 30
0.0
  0
HATCH
  5
1C6
330
1AD
100
AcDbEntity
  8
Слой 2
 62
   254
420
 13421772
440
 33554687
100
AcDbHatch
 10
0.0
 20
0.0
 30
0.0
210
0.0
220
0.0
230
1.0
  2
SOLID
 70
     1
 71
     1
 91
        1
 92
        1
 93
        2
 72
     4
 94
        3
 73
     0
 74
     0
 95
       17
 96
       13
 40
0.0
 40
0.0
 40
0.0
 40
0.0
 40
1.0
 40
1.0
 40
1.0
 40
2.0
 40
2.0
 40
2.0
 40
3.0
 40
3.0
 40
3.0
 40
4.0
 40
4.0
 40
4.0
 40
4.0
 10
175.5254865504389
 20
-60.85020504475269
 10
177.3591520434844
 20
-60.13683455671454
 10
179.7885034501288
 20
-59.6815933365759
 10
182.9176702568636
 20
-59.70124627210881
 10
180.7094726346644
 20
-63.77328790693901
 10
178.5549127673495
 20
-66.19809505773776
 10
176.6918067107973
 20
-67.47541934804717
 10
179.2140240638066
 20
-67.4142855130076
 10
183.0195470353312
 20
-64.91622651158358
 10
186.9836917236936
 20
-57.60556753180948
 10
181.1299910793743
 20
-57.57010680030275
 10
177.4920229772023
 20
-59.03689160352424
 10
175.5254865504389
 20
-60.85020504475269
 97
        0
 72
     1
 10
175.525486550439
 20
-60.85020504475269
 11
175.5254865504389
 21
-60.85020504475269
 97
        0
 75
     2
 76
     1
 98
        1
 10
0.0
 20
0.0
450
        0
451
        0
460
0.0
461
0.0
452
        0
462
0.0
453
        0
470

  0
SPLINE
  5
1C7
330
1AD
100
AcDbEntity
  8
Слой 2
100
AcDbSpline
210
0.0
220
0.0
230
1.0
 70
     9
 71
     3
 72
    14
 73
    10
 74
     0
 42
0.0000000001
 43
0.0000000001
 40
0.0
 40
0.0
 40
0.0
 40
0.0
 40
1.0
 40
1.0
 40
1.0
 40
2.0
 40
2.0
 40
2.0
 40
3.0
 40
3.0
 40
3.0
 40
3.0
 10
176.6831454368366
 20
-67.47557470722101
 30
0.0
 10
176.6831454368366
 20
-67.47557470722101
 30
0.0
 10
176.6816306848887
 20
-67.47635150309183
 30
0.0
 10
176.6808538890172
 20
-67.47708945916959
 30
0.0
 10
176.6876508528886
 20
-67.47635150309183
 30
0.0
 10
176.693709860681
 20
-67.47557470722101
 30
0.0
 10
176.6997300286796
 20
-67.47557470722101
 30
0.0
 10
176.6944478167581
 20
-67.47557470722101
 30
0.0
 10
176.6892044446302
 20
-67.47557470722101
 30
0.0
 10
176.6831454368366
 20
-67.47557470722101
 30
0.0
  0
HATCH
  5
1C8
330
1AD
100
AcDbEntity
  8
Слой 2
 62
   254
420
 13421772
440
 33554687
100
AcDbHatch
 10
0.0
 20
0.0
 30
0.0
210
0.0
220
0.0
230
1.0
  2
SOLID
 70
     1
 71
     1
 91
        1
 92
        1
 93
        2
 72
     4
 94
        3
 73
     0
 74
     0
 95
       14
 96
       10
 40
0.0
 40
0.0
 40
0.0
 40
0.0
 40
1.0
 40
1.0
 40
1.0
 40
2.0
 40
2.0
 40
2.0
 40
3.0
 40
3.0
 40
3.0
 40
3.0
 10
176.6831454368366
 20
-67.47557470722101
 10
176.6831454368366
 20
-67.47557470722101
 10
176.6816306848887
 20
-67.47635150309183
 10
176.6808538890172
 20
-67.47708945916959
 10
176.6876508528886
 20
-67.47635150309183
 10
176.693709860681
 20
-67.47557470722101
 10
176.6997300286796
 20
-67.47557470722101
 10
176.6944478167581
 20
-67.47557470722101
 10
176.6892044446302
 20
-67.47557470722101
 10
176.6831454368366
 20
-67.47557470722101
 97
        0
 72
     1
 10
176.6831454368366
 20
-67.47557470722101
 11
176.6831454368366
 21
-67.47557470722101
 97
        0
 75
     2
 76
     1
 98
        1
 10
0.0
 20
0.0
450
        0
451
        0
460
0.0
461
0.0
452
        0
462
0.0
453
        0
470

  0
ENDBLK
  5
1B0
330
1AD
100
AcDbEntity
  8
0
100
AcDbBlockEnd
  0
BLOCK
  5
1CE
330
1CC
100
AcDbEntity
  8
0
100
AcDbBlockBegin
  2
Block_6
 70
     0
 10
0.0
 20
0.0
 30
0.0
  3
Block_6
  1

  0
MTEXT
  5
1D0
330
1CC
100
AcDbEntity
  8
Слой 2
100
AcDbMText
 10
30.10843352518774
 20
-238.7610937581266
 30
0.0
 40
0.2
 41
0.0
 46
0.0
 71
     7
 72
     1
  1
\C250;\c3882044;\FDINPro-Light|b0|i0|c1;\H5.951021;\W1.000000;IP
 73
     1
 44
1.0
  0
MTEXT
  5
1D1
330
1CC
100
AcDbEntity
  8
Слой 2
100
AcDbMText
 10
37.78892940000373
 20
-238.7610937581266
 30
0.0
 40
0.2
 41
0.0
 46
0.0
 71
     7
 72
     1
  1
\C250;\c3882044;\FDINPro-Medium|b0|i0|c1;\H5.951021;\W1.000000;20
 73
     1
 44
1.0
  0
INSERT
  5
1D3
330
1CC
100
AcDbEntity
  8
Слой 2
100
AcDbBlockReference
  2
Block_7
 10
0.0
 20
0.0
 30
0.0
  0
ENDBLK
  5
1CF
330
1CC
100
AcDbEntity
  8
0
100
AcDbBlockEnd
  0
BLOCK
  5
1D4
330
1D2
100
AcDbEntity
  8
0
100
AcDbBlockBegin
  2
Block_7
 70
     0
 10
0.0
 20
0.0
 30
0.0
  3
Block_7
  1

  0
SPLINE
  5
1D6
330
1D2
100
AcDbEntity
  8
Слой 2
100
AcDbSpline
210
0.0
220
0.0
230
1.0
 70
     9
 71
     3
 72
    17
 73
    13
 74
     0
 42
0.0000000001
 43
0.0000000001
 40
0.0
 40
0.0
 40
0.0
 40
0.0
 40
1.0
 40
1.0
 40
1.0
 40
2.0
 40
2.0
 40
2.0
 40
3.0
 40
3.0
 40
3.0
 40
4.0
 40
4.0
 40
4.0
 40
4.0
 10
17.72721924311443
 20
-228.8049851918421
 30
0.0
 10
13.86155100840251
 20
-228.8049851918421
 30
0.0
 10
10.71681942196463
 20
-231.9496815799442
 30
0.0
 10
10.71681942196463
 20
-235.8153499123111
 30
0.0
 10
10.71681942196463
 20
-239.6812651891227
 30
0.0
 10
13.86155100840251
 20
-242.826032132781
 30
0.0
 10
17.72721924311443
 20
-242.826032132781
 30
0.0
 10
21.59278164449572
 20
-242.826032132781
 30
0.0
 10
24.73754850871048
 20
-239.6812651891227
 30
0.0
 10
24.73754850871048
 20
-235.8153499123111
 30
0.0
 10
24.73754850871048
 20
-231.9496815799442
 30
0.0
 10
21.59278164449572
 20
-228.8049851918421
 30
0.0
 10
17.72721924311443
 20
-228.8049851918421
 30
0.0
  0
SPLINE
  5
1D7
330
1D2
100
AcDbEntity
  8
Слой 2
100
AcDbSpline
210
0.0
220
0.0
230
1.0
 70
     9
 71
     3
 72
    17
 73
    13
 74
     0
 42
0.0000000001
 43
0.0000000001
 40
0.0
 40
0.0
 40
0.0
 40
0.0
 40
1.0
 40
1.0
 40
1.0
 40
2.0
 40
2.0
 40
2.0
 40
3.0
 40
3.0
 40
3.0
 40
4.0
 40
4.0
 40
4.0
 40
4.0
 10
17.72721924311443
 20
-242.9647796327463
 30
0.0
 10
13.78510406590839
 20
-242.9647796327463
 30
0.0
 10
10.57804322957871
 20
-239.7576768557701
 30
0.0
 10
10.57804322957871
 20
-235.8153499123111
 30
0.0
 10
10.57804322957871
 20
-231.8733051910749
 30
0.0
 10
13.78510406590839
 20
-228.6661671363206
 30
0.0
 10
17.72721924311443
 20
-228.6661671363206
 30
0.0
 10
21.66922858698984
 20
-228.6661671363206
 30
0.0
 10
24.87633128294761
 20
-231.8733051910749
 30
0.0
 10
24.87633128294761
 20
-235.8153499123111
 30
0.0
 10
24.87633128294761
 20
-239.7576768557701
 30
0.0
 10
21.66922858698984
 20
-242.9647796327463
 30
0.0
 10
17.72721924311443
 20
-242.9647796327463
 30
0.0
  0
HATCH
  5
1D8
330
1D2
100
AcDbEntity
  8
Слой 2
 62
   250
420
  3947579
440
 33554687
100
AcDbHatch
 10
0.0
 20
0.0
 30
0.0
210
0.0
220
0.0
230
1.0
  2
SOLID
 70
     1
 71
     1
 91
        2
 92
        1
 93
        1
 72
     4
 94
        3
 73
     0
 74
     0
 95
       17
 96
       13
 40
0.0
 40
0.0
 40
0.0
 40
0.0
 40
1.0
 40
1.0
 40
1.0
 40
2.0
 40
2.0
 40
2.0
 40
3.0
 40
3.0
 40
3.0
 40
4.0
 40
4.0
 40
4.0
 40
4.0
 10
17.72721924311443
 20
-228.8049851918421
 10
13.86155100840251
 20
-228.8049851918421
 10
10.71681942196463
 20
-231.9496815799442
 10
10.71681942196463
 20
-235.8153499123111
 10
10.71681942196463
 20
-239.6812651891227
 10
13.86155100840251
 20
-242.826032132781
 10
17.72721924311443
 20
-242.826032132781
 10
21.59278164449572
 20
-242.826032132781
 10
24.73754850871048
 20
-239.6812651891227
 10
24.73754850871048
 20
-235.8153499123111
 10
24.73754850871048
 20
-231.9496815799442
 10
21.59278164449572
 20
-228.8049851918421
 10
17.72721924311443
 20
-228.8049851918421
 97
        0
 97
        1
330
1D6
 92
        1
 93
        1
 72
     4
 94
        3
 73
     0
 74
     0
 95
       17
 96
       13
 40
0.0
 40
0.0
 40
0.0
 40
0.0
 40
1.0
 40
1.0
 40
1.0
 40
2.0
 40
2.0
 40
2.0
 40
3.0
 40
3.0
 40
3.0
 40
4.0
 40
4.0
 40
4.0
 40
4.0
 10
17.72721924311443
 20
-242.9647796327463
 10
13.78510406590839
 20
-242.9647796327463
 10
10.57804322957871
 20
-239.7576768557701
 10
10.57804322957871
 20
-235.8153499123111
 10
10.57804322957871
 20
-231.8733051910749
 10
13.78510406590839
 20
-228.6661671363206
 10
17.72721924311443
 20
-228.6661671363206
 10
21.66922858698984
 20
-228.6661671363206
 10
24.87633128294761
 20
-231.8733051910749
 10
24.87633128294761
 20
-235.8153499123111
 10
24.87633128294761
 20
-239.7576768557701
 10
21.66922858698984
 20
-242.9647796327463
 10
17.72721924311443
 20
-242.9647796327463
 97
        0
 97
        1
330
1D7
 75
     2
 76
     1
 98
        1
 10
0.0
 20
0.0
450
        0
451
        0
460
0.0
461
0.0
452
        0
462
0.0
453
        0
470

  0
INSERT
  5
1DA
330
1D2
100
AcDbEntity
  8
Слой 2
100
AcDbBlockReference
  2
Block_8
 10
0.0
 20
0.0
 30
0.0
  0
ENDBLK
  5
1D5
330
1D2
100
AcDbEntity
  8
0
100
AcDbBlockEnd
  0
BLOCK
  5
1DB
330
1D9
100
AcDbEntity
  8
0
100
AcDbBlockBegin
  2
Block_8
 70
     0
 10
0.0
 20
0.0
 30
0.0
  3
Block_8
  1

  0
SPLINE
  5
1DD
330
1D9
100
AcDbEntity
  8
Слой 2
100
AcDbSpline
210
0.0
220
0.0
230
1.0
 70
    11
 71
     3
 72
    17
 73
    13
 74
     0
 42
0.0000000001
 43
0.0000000001
 40
0.0
 40
0.0
 40
0.0
 40
0.0
 40
1.0
 40
1.0
 40
1.0
 40
2.0
 40
2.0
 40
2.0
 40
3.0
 40
3.0
 40
3.0
 40
4.0
 40
4.0
 40
4.0
 40
4.0
 10
16.77923482285508
 20
-237.4107521341351
 30
0.0
 10
16.77923482285508
 20
-237.4107521341351
 30
0.0
 10
18.68003671880603
 20
-237.4107521341351
 30
0.0
 10
18.68003671880603
 20
-237.4107521341351
 30
0.0
 10
18.68003671880603
 20
-237.4107521341351
 30
0.0
 10
18.68003671880603
 20
-235.5096679679431
 30
0.0
 10
18.68003671880603
 20
-235.5096679679431
 30
0.0
 10
18.68003671880603
 20
-235.5096679679431
 30
0.0
 10
16.77923482285508
 20
-235.5096679679431
 30
0.0
 10
16.77923482285508
 20
-235.5096679679431
 30
0.0
 10
16.77923482285508
 20
-235.5096679679431
 30
0.0
 10
16.77923482285508
 20
-237.4107521341351
 30
0.0
 10
16.77923482285508
 20
-237.4107521341351
 30
0.0
  0
SPLINE
  5
1DE
330
1D9
100
AcDbEntity
  8
Слой 2
100
AcDbSpline
210
0.0
220
0.0
230
1.0
 70
     9
 71
     3
 72
    29
 73
    25
 74
     0
 42
0.0000000001
 43
0.0000000001
 40
0.0
 40
0.0
 40
0.0
 40
0.0
 40
1.0
 40
1.0
 40
1.0
 40
2.0
 40
2.0
 40
2.0
 40
3.0
 40
3.0
 40
3.0
 40
4.0
 40
4.0
 40
4.0
 40
5.0
 40
5.0
 40
5.0
 40
6.0
 40
6.0
 40
6.0
 40
7.0
 40
7.0
 40
7.0
 40
8.0
 40
8.0
 40
8.0
 40
8.0
 10
18.90221615758221
 20
-237.8551815784684
 30
0.0
 10
18.90221615758221
 20
-237.8551815784684
 30
0.0
 10
16.55698482852515
 20
-237.8551815784684
 30
0.0
 10
16.55698482852515
 20
-237.8551815784684
 30
0.0
 10
16.43453566498243
 20
-237.8551815784684
 30
0.0
 10
16.3347701119721
 20
-237.7555218562707
 30
0.0
 10
16.3347701119721
 20
-237.6330021340799
 30
0.0
 10
16.3347701119721
 20
-237.6330021340799
 30
0.0
 10
16.3347701119721
 20
-235.287700190221
 30
0.0
 10
16.3347701119721
 20
-235.287700190221
 30
0.0
 10
16.3347701119721
 20
-235.165180468029
 30
0.0
 10
16.43453566498243
 20
-235.0657324124989
 30
0.0
 10
16.55698482852515
 20
-235.0657324124989
 30
0.0
 10
16.55698482852515
 20
-235.0657324124989
 30
0.0
 10
18.90221615758221
 20
-235.0657324124989
 30
0.0
 10
18.90221615758221
 20
-235.0657324124989
 30
0.0
 10
19.02470059890181
 20
-235.0657324124989
 30
0.0
 10
19.12453670746589
 20
-235.165180468029
 30
0.0
 10
19.12453670746589
 20
-235.287700190221
 30
0.0
 10
19.12453670746589
 20
-235.287700190221
 30
0.0
 10
19.12453670746589
 20
-237.6330021340799
 30
0.0
 10
19.12453670746589
 20
-237.6330021340799
 30
0.0
 10
19.12453670746589
 20
-237.7555218562707
 30
0.0
 10
19.02470059890181
 20
-237.8551815784684
 30
0.0
 10
18.90221615758221
 20
-237.8551815784684
 30
0.0
  0
HATCH
  5
1DF
330
1D9
100
AcDbEntity
  8
Слой 2
 62
   250
420
  3947579
440
 33554687
100
AcDbHatch
 10
0.0
 20
0.0
 30
0.0
210
0.0
220
0.0
230
1.0
  2
SOLID
 70
     1
 71
     1
 91
        2
 92
        1
 93
        1
 72
     4
 94
        3
 73
     0
 74
     0
 95
       17
 96
       13
 40
0.0
 40
0.0
 40
0.0
 40
0.0
 40
1.0
 40
1.0
 40
1.0
 40
2.0
 40
2.0
 40
2.0
 40
3.0
 40
3.0
 40
3.0
 40
4.0
 40
4.0
 40
4.0
 40
4.0
 10
16.77923482285508
 20
-237.4107521341351
 10
16.77923482285508
 20
-237.4107521341351
 10
18.68003671880603
 20
-237.4107521341351
 10
18.68003671880603
 20
-237.4107521341351
 10
18.68003671880603
 20
-237.4107521341351
 10
18.68003671880603
 20
-235.5096679679431
 10
18.68003671880603
 20
-235.5096679679431
 10
18.68003671880603
 20
-235.5096679679431
 10
16.77923482285508
 20
-235.5096679679431
 10
16.77923482285508
 20
-235.5096679679431
 10
16.77923482285508
 20
-235.5096679679431
 10
16.77923482285508
 20
-237.4107521341351
 10
16.77923482285508
 20
-237.4107521341351
 97
        0
 97
        1
330
1DD
 92
        1
 93
        1
 72
     4
 94
        3
 73
     0
 74
     0
 95
       29
 96
       25
 40
0.0
 40
0.0
 40
0.0
 40
0.0
 40
1.0
 40
1.0
 40
1.0
 40
2.0
 40
2.0
 40
2.0
 40
3.0
 40
3.0
 40
3.0
 40
4.0
 40
4.0
 40
4.0
 40
5.0
 40
5.0
 40
5.0
 40
6.0
 40
6.0
 40
6.0
 40
7.0
 40
7.0
 40
7.0
 40
8.0
 40
8.0
 40
8.0
 40
8.0
 10
18.90221615758221
 20
-237.8551815784684
 10
18.90221615758221
 20
-237.8551815784684
 10
16.55698482852515
 20
-237.8551815784684
 10
16.55698482852515
 20
-237.8551815784684
 10
16.43453566498243
 20
-237.8551815784684
 10
16.3347701119721
 20
-237.7555218562707
 10
16.3347701119721
 20
-237.6330021340799
 10
16.3347701119721
 20
-237.6330021340799
 10
16.3347701119721
 20
-235.287700190221
 10
16.3347701119721
 20
-235.287700190221
 10
16.3347701119721
 20
-235.165180468029
 10
16.43453566498243
 20
-235.0657324124989
 10
16.55698482852515
 20
-235.0657324124989
 10
16.55698482852515
 20
-235.0657324124989
 10
18.90221615758221
 20
-235.0657324124989
 10
18.90221615758221
 20
-235.0657324124989
 10
19.02470059890181
 20
-235.0657324124989
 10
19.12453670746589
 20
-235.165180468029
 10
19.12453670746589
 20
-235.287700190221
 10
19.12453670746589
 20
-235.287700190221
 10
19.12453670746589
 20
-237.6330021340799
 10
19.12453670746589
 20
-237.6330021340799
 10
19.12453670746589
 20
-237.7555218562707
 10
19.02470059890181
 20
-237.8551815784684
 10
18.90221615758221
 20
-237.8551815784684
 97
        0
 97
        1
330
1DE
 75
     2
 76
     1
 98
        1
 10
0.0
 20
0.0
450
        0
451
        0
460
0.0
461
0.0
452
        0
462
0.0
453
        0
470

  0
INSERT
  5
1E1
330
1D9
100
AcDbEntity
  8
Слой 2
100
AcDbBlockReference
  2
Block_9
 10
0.0
 20
0.0
 30
0.0
  0
ENDBLK
  5
1DC
330
1D9
100
AcDbEntity
  8
0
100
AcDbBlockEnd
  0
BLOCK
  5
1E2
330
1E0
100
AcDbEntity
  8
0
100
AcDbBlockBegin
  2
Block_9
 70
     0
 10
0.0
 20
0.0
 30
0.0
  3
Block_9
  1

  0
SPLINE
  5
1E4
330
1E0
100
AcDbEntity
  8
Слой 2
100
AcDbSpline
210
0.0
220
0.0
230
1.0
 70
     9
 71
     3
 72
    35
 73
    31
 74
     0
 42
0.0000000001
 43
0.0000000001
 40
0.0
 40
0.0
 40
0.0
 40
0.0
 40
1.0
 40
1.0
 40
1.0
 40
2.0
 40
2.0
 40
2.0
 40
3.0
 40
3.0
 40
3.0
 40
4.0
 40
4.0
 40
4.0
 40
5.0
 40
5.0
 40
5.0
 40
6.0
 40
6.0
 40
6.0
 40
7.0
 40
7.0
 40
7.0
 40
8.0
 40
8.0
 40
8.0
 40
9.0
 40
9.0
 40
9.0
 40
10.0
 40
10.0
 40
10.0
 40
10.0
 10
13.45744407426769
 20
-235.2492474124527
 30
0.0
 10
13.3953904647397
 20
-235.2492474124527
 30
0.0
 10
13.33390129964175
 20
-235.2234946346813
 30
0.0
 10
13.28998046742893
 20
-235.1730826902498
 30
0.0
 10
13.20951185837075
 20
-235.0803021347178
 30
0.0
 10
13.21921324701213
 20
-234.9402140791966
 30
0.0
 10
13.31164102243188
 20
-234.8598160236618
 30
0.0
 10
13.31164102243188
 20
-234.8598160236618
 30
0.0
 10
17.58402674676758
 20
-231.1437254690349
 30
0.0
 10
17.58402674676758
 20
-231.1437254690349
 30
0.0
 10
17.66752924463725
 20
-231.0710885246083
 30
0.0
 10
17.79223618590015
 20
-231.0710885246083
 30
0.0
 10
17.87570340599295
 20
-231.1437254690349
 30
0.0
 10
17.87570340599295
 20
-231.1437254690349
 30
0.0
 10
22.14777163033675
 20
-234.8598160236618
 30
0.0
 10
22.14777163033675
 20
-234.8598160236618
 30
0.0
 10
22.24005829464898
 20
-234.9402140791966
 30
0.0
 10
22.25032412772042
 20
-235.0803021347178
 30
0.0
 10
22.16957329644721
 20
-235.1730826902498
 30
0.0
 10
22.08924579849653
 20
-235.2652282457826
 30
0.0
 10
21.94940469095306
 20
-235.2752471346688
 30
0.0
 10
21.85627135999576
 20
-235.1947079680226
 30
0.0
 10
21.85627135999576
 20
-235.1947079680226
 30
0.0
 10
17.72982979860338
 20
-231.605511580031
 30
0.0
 10
17.72982979860338
 20
-231.605511580031
 30
0.0
 10
17.72982979860338
 20
-231.605511580031
 30
0.0
 10
13.60300018166536
 20
-235.1947079680226
 30
0.0
 10
13.60300018166536
 20
-235.1947079680226
 30
0.0
 10
13.56126657161896
 20
-235.2313615791239
 30
0.0
 10
13.50919657294738
 20
-235.2492474124527
 30
0.0
 10
13.45744407426769
 20
-235.2492474124527
 30
0.0
  0
HATCH
  5
1E5
330
1E0
100
AcDbEntity
  8
Слой 2
 62
   250
420
  3947579
440
 33554687
100
AcDbHatch
 10
0.0
 20
0.0
 30
0.0
210
0.0
220
0.0
230
1.0
  2
SOLID
 70
     1
 71
     1
 91
        1
 92
        1
 93
        1
 72
     4
 94
        3
 73
     0
 74
     0
 95
       35
 96
       31
 40
0.0
 40
0.0
 40
0.0
 40
0.0
 40
1.0
 40
1.0
 40
1.0
 40
2.0
 40
2.0
 40
2.0
 40
3.0
 40
3.0
 40
3.0
 40
4.0
 40
4.0
 40
4.0
 40
5.0
 40
5.0
 40
5.0
 40
6.0
 40
6.0
 40
6.0
 40
7.0
 40
7.0
 40
7.0
 40
8.0
 40
8.0
 40
8.0
 40
9.0
 40
9.0
 40
9.0
 40
10.0
 40
10.0
 40
10.0
 40
10.0
 10
13.45744407426769
 20
-235.2492474124527
 10
13.3953904647397
 20
-235.2492474124527
 10
13.33390129964175
 20
-235.2234946346813
 10
13.28998046742893
 20
-235.1730826902498
 10
13.20951185837075
 20
-235.0803021347178
 10
13.21921324701213
 20
-234.9402140791966
 10
13.31164102243188
 20
-234.8598160236618
 10
13.31164102243188
 20
-234.8598160236618
 10
17.58402674676758
 20
-231.1437254690349
 10
17.58402674676758
 20
-231.1437254690349
 10
17.66752924463725
 20
-231.0710885246083
 10
17.79223618590015
 20
-231.0710885246083
 10
17.87570340599295
 20
-231.1437254690349
 10
17.87570340599295
 20
-231.1437254690349
 10
22.14777163033675
 20
-234.8598160236618
 10
22.14777163033675
 20
-234.8598160236618
 10
22.24005829464898
 20
-234.9402140791966
 10
22.25032412772042
 20
-235.0803021347178
 10
22.16957329644721
 20
-235.1730826902498
 10
22.08924579849653
 20
-235.2652282457826
 10
21.94940469095306
 20
-235.2752471346688
 10
21.85627135999576
 20
-235.1947079680226
 10
21.85627135999576
 20
-235.1947079680226
 10
17.72982979860338
 20
-231.605511580031
 10
17.72982979860338
 20
-231.605511580031
 10
17.72982979860338
 20
-231.605511580031
 10
13.60300018166536
 20
-235.1947079680226
 10
13.60300018166536
 20
-235.1947079680226
 10
13.56126657161896
 20
-235.2313615791239
 10
13.50919657294738
 20
-235.2492474124527
 10
13.45744407426769
 20
-235.2492474124527
 97
        0
 97
        1
330
1E4
 75
     2
 76
     1
 98
        1
 10
0.0
 20
0.0
450
        0
451
        0
460
0.0
461
0.0
452
        0
462
0.0
453
        0
470

  0
SPLINE
  5
1E6
330
1E0
100
AcDbEntity
  8
Слой 2
100
AcDbSpline
210
0.0
220
0.0
230
1.0
 70
     9
 71
     3
 72
    41
 73
    37
 74
     0
 42
0.0000000001
 43
0.0000000001
 40
0.0
 40
0.0
 40
0.0
 40
0.0
 40
1.0
 40
1.0
 40
1.0
 40
2.0
 40
2.0
 40
2.0
 40
3.0
 40
3.0
 40
3.0
 40
4.0
 40
4.0
 40
4.0
 40
5.0
 40
5.0
 40
5.0
 40
6.0
 40
6.0
 40
6.0
 40
7.0
 40
7.0
 40
7.0
 40
8.0
 40
8.0
 40
8.0
 40
9.0
 40
9.0
 40
9.0
 40
10.0
 40
10.0
 40
10.0
 40
11.0
 40
11.0
 40
11.0
 40
12.0
 40
12.0
 40
12.0
 40
12.0
 10
20.81716444206114
 20
-239.6644376891272
 30
0.0
 10
20.81716444206114
 20
-239.6644376891272
 30
0.0
 10
14.6528668215477
 20
-239.6644376891272
 30
0.0
 10
14.6528668215477
 20
-239.6644376891272
 30
0.0
 10
14.53031182467433
 20
-239.6644376891272
 30
0.0
 10
14.43065210499464
 20
-239.5647779669295
 30
0.0
 10
14.43065210499464
 20
-239.4422229669606
 30
0.0
 10
14.43065210499464
 20
-239.4422229669606
 30
0.0
 10
14.43065210499464
 20
-235.1545265791437
 30
0.0
 10
14.43065210499464
 20
-235.1545265791437
 30
0.0
 10
14.43065210499464
 20
-235.0321126902848
 30
0.0
 10
14.53031182467433
 20
-234.9326999125317
 30
0.0
 10
14.6528668215477
 20
-234.9326999125317
 30
0.0
 10
14.7753512628673
 20
-234.9326999125317
 30
0.0
 10
14.87508153810075
 20
-235.0321126902848
 30
0.0
 10
14.87508153810075
 20
-235.1545265791437
 30
0.0
 10
14.87508153810075
 20
-235.1545265791437
 30
0.0
 10
14.87508153810075
 20
-239.2200082447939
 30
0.0
 10
14.87508153810075
 20
-239.2200082447939
 30
0.0
 10
14.87508153810075
 20
-239.2200082447939
 30
0.0
 10
20.59494972550809
 20
-239.2200082447939
 30
0.0
 10
20.59494972550809
 20
-239.2200082447939
 30
0.0
 10
20.59494972550809
 20
-239.2200082447939
 30
0.0
 10
20.59494972550809
 20
-235.1545265791437
 30
0.0
 10
20.59494972550809
 20
-235.1545265791437
 30
0.0
 10
20.59494972550809
 20
-235.0321126902848
 30
0.0
 10
20.69471527851841
 20
-234.9326999125317
 30
0.0
 10
20.81716444206114
 20
-234.9326999125317
 30
0.0
 10
20.93968416115763
 20
-234.9326999125317
 30
0.0
 10
21.03937915861419
 20
-235.0321126902848
 30
0.0
 10
21.03937915861419
 20
-235.1545265791437
 30
0.0
 10
21.03937915861419
 20
-235.1545265791437
 30
0.0
 10
21.03937915861419
 20
-239.4422229669606
 30
0.0
 10
21.03937915861419
 20
-239.4422229669606
 30
0.0
 10
21.03937915861419
 20
-239.5647779669295
 30
0.0
 10
20.93968416115763
 20
-239.6644376891272
 30
0.0
 10
20.81716444206114
 20
-239.6644376891272
 30
0.0
  0
HATCH
  5
1E7
330
1E0
100
AcDbEntity
  8
Слой 2
 62
   250
420
  3947579
440
 33554687
100
AcDbHatch
 10
0.0
 20
0.0
 30
0.0
210
0.0
220
0.0
230
1.0
  2
SOLID
 70
     1
 71
     1
 91
        1
 92
        1
 93
        1
 72
     4
 94
        3
 73
     0
 74
     0
 95
       41
 96
       37
 40
0.0
 40
0.0
 40
0.0
 40
0.0
 40
1.0
 40
1.0
 40
1.0
 40
2.0
 40
2.0
 40
2.0
 40
3.0
 40
3.0
 40
3.0
 40
4.0
 40
4.0
 40
4.0
 40
5.0
 40
5.0
 40
5.0
 40
6.0
 40
6.0
 40
6.0
 40
7.0
 40
7.0
 40
7.0
 40
8.0
 40
8.0
 40
8.0
 40
9.0
 40
9.0
 40
9.0
 40
10.0
 40
10.0
 40
10.0
 40
11.0
 40
11.0
 40
11.0
 40
12.0
 40
12.0
 40
12.0
 40
12.0
 10
20.81716444206114
 20
-239.6644376891272
 10
20.81716444206114
 20
-239.6644376891272
 10
14.6528668215477
 20
-239.6644376891272
 10
14.6528668215477
 20
-239.6644376891272
 10
14.53031182467433
 20
-239.6644376891272
 10
14.43065210499464
 20
-239.5647779669295
 10
14.43065210499464
 20
-239.4422229669606
 10
14.43065210499464
 20
-239.4422229669606
 10
14.43065210499464
 20
-235.1545265791437
 10
14.43065210499464
 20
-235.1545265791437
 10
14.43065210499464
 20
-235.0321126902848
 10
14.53031182467433
 20
-234.9326999125317
 10
14.6528668215477
 20
-234.9326999125317
 10
14.7753512628673
 20
-234.9326999125317
 10
14.87508153810075
 20
-235.0321126902848
 10
14.87508153810075
 20
-235.1545265791437
 10
14.87508153810075
 20
-235.1545265791437
 10
14.87508153810075
 20
-239.2200082447939
 10
14.87508153810075
 20
-239.2200082447939
 10
14.87508153810075
 20
-239.2200082447939
 10
20.59494972550809
 20
-239.2200082447939
 10
20.59494972550809
 20
-239.2200082447939
 10
20.59494972550809
 20
-239.2200082447939
 10
20.59494972550809
 20
-235.1545265791437
 10
20.59494972550809
 20
-235.1545265791437
 10
20.59494972550809
 20
-235.0321126902848
 10
20.69471527851841
 20
-234.9326999125317
 10
20.81716444206114
 20
-234.9326999125317
 10
20.93968416115763
 20
-234.9326999125317
 10
21.03937915861419
 20
-235.0321126902848
 10
21.03937915861419
 20
-235.1545265791437
 10
21.03937915861419
 20
-235.1545265791437
 10
21.03937915861419
 20
-239.4422229669606
 10
21.03937915861419
 20
-239.4422229669606
 10
21.03937915861419
 20
-239.5647779669295
 10
20.93968416115763
 20
-239.6644376891272
 10
20.81716444206114
 20
-239.6644376891272
 97
        0
 97
        1
330
1E6
 75
     2
 76
     1
 98
        1
 10
0.0
 20
0.0
450
        0
451
        0
460
0.0
461
0.0
452
        0
462
0.0
453
        0
470

  0
ENDBLK
  5
1E3
330
1E0
100
AcDbEntity
  8
0
100
AcDbBlockEnd
  0
ENDSEC
  0
SECTION
  2
ENTITIES
  0
LWPOLYLINE
  5
79
330
70
100
AcDbEntity
  8
Слой 3
100
AcDbPolyline
 90
        4
 70
     1
 43
0.0
 10
210.7588863604421
 20
-252.9647796302453
 10
0.785886412935537
 20
-252.9647796302453
 10
0.785886412935537
 20
-42.99177968273838
 10
210.7588863604421
 20
-42.99177968273838
  0
LINE
  5
7B
330
70
100
AcDbEntity
  8
Слой 1
 62
     8
420
  7368559
370
    18
100
AcDbLine
 10
78.49227234167715
 20
-209.1491116514315
 30
0.0
 11
24.57989116420496
 21
-209.1491116514315
 31
0.0
  0
LINE
  5
7C
330
70
100
AcDbEntity
  8
Слой 1
 62
     8
420
  7368559
370
    18
100
AcDbLine
 10
78.49227234167715
 20
-203.0841924726428
 30
0.0
 11
45.78259400731653
 21
-203.0841924726428
 31
0.0
  0
LINE
  5
7D
330
70
100
AcDbEntity
  8
Слой 1
 62
     8
420
  7368559
370
    18
100
AcDbLine
 10
70.47856086498407
 20
-198.3380853852855
 30
0.0
 11
65.86243325518942
 21
-198.3380853852855
 31
0.0
  0
LINE
  5
7E
330
70
100
AcDbEntity
  8
Слой 1
 62
     8
420
  7368559
370
    18
100
AcDbLine
 10
78.49227234167715
 20
-198.3380853852855
 30
0.0
 11
70.47856086498407
 21
-198.3380853852855
 31
0.0
  0
LINE
  5
7F
330
70
100
AcDbEntity
  8
Слой 1
 62
     8
420
  7368559
370
    18
100
AcDbLine
 10
83.10839995147212
 20
-198.3380853852855
 30
0.0
 11
78.49227234167715
 21
-198.3380853852855
 31
0.0
  0
LINE
  5
80
330
70
100
AcDbEntity
  8
Слой 1
 62
     8
420
  7368559
370
    18
100
AcDbLine
 10
79.05370424084408
 20
-191.4896286992535
 30
0.0
 11
94.81210249840403
 21
-191.4896286992535
 31
0.0
  0
LINE
  5
81
330
70
100
AcDbEntity
  8
Слой 1
 62
     8
420
  7368559
370
    18
100
AcDbLine
 10
87.62917032266939
 20
-191.4896286992535
 30
0.0
 11
87.62917032266939
 21
-108.167503780811
 31
0.0
  0
LINE
  5
82
330
70
100
AcDbEntity
  8
Слой 1
 62
     8
420
  7368559
370
    18
100
AcDbLine
 10
45.22115237870524
 20
-179.2819200348112
 30
0.0
 11
13.44882760969914
 21
-179.2819200348112
 31
0.0
  0
LINE
  5
83
330
70
100
AcDbEntity
  8
Слой 1
 62
     8
420
  7368559
370
    18
100
AcDbLine
 10
78.49227575548749
 20
-192.6458148429196
 30
0.0
 11
78.49227575548749
 21
-210.1379556709433
 31
0.0
  0
LINE
  5
84
330
70
100
AcDbEntity
  8
Слой 1
 62
     8
420
  7368559
370
    18
100
AcDbLine
 10
34.5125543678866
 20
-170.774799753468
 30
0.0
 11
18.72143644855214
 21
-170.774799753468
 31
0.0
  0
LINE
  5
85
330
70
100
AcDbEntity
  8
Слой 1
 62
     8
420
  7368559
370
    18
100
AcDbLine
 10
70.47856427879473
 20
-192.4076315035889
 30
0.0
 11
70.47856427879473
 21
-198.8134284771055
 31
0.0
  0
LINE
  5
86
330
70
100
AcDbEntity
  8
Слой 1
 62
     8
420
  7368559
370
    18
100
AcDbLine
 10
45.78259400731653
 20
-180.6975091822871
 30
0.0
 11
45.78259400731653
 21
-204.0726856257918
 31
0.0
  0
LINE
  5
87
330
70
100
AcDbEntity
  8
Слой 1
 62
     8
420
  7368559
370
    18
100
AcDbLine
 10
34.5125543678866
 20
-128.9041321664485
 30
0.0
 11
18.72143644855214
 21
-128.9041321664485
 31
0.0
  0
LINE
  5
88
330
70
100
AcDbEntity
  8
Слой 1
 62
     8
420
  7368559
370
    18
100
AcDbLine
 10
45.22115237870524
 20
-120.375209962119
 30
0.0
 11
13.44882760969914
 21
-120.375209962119
 31
0.0
  0
LINE
  5
89
330
70
100
AcDbEntity
  8
Слой 1
 62
     8
420
  7368559
370
    18
100
AcDbLine
 10
24.57989116420496
 20
-169.2519286543413
 30
0.0
 11
24.57989116420496
 21
-210.1379544508906
 31
0.0
  0
LINE
  5
8A
330
70
100
AcDbEntity
  8
Слой 1
 62
     8
420
  7368559
370
    18
100
AcDbLine
 10
19.63437583317986
 20
-170.774799753468
 30
0.0
 11
19.63437583317986
 21
-128.9041321664485
 31
0.0
  0
LINE
  5
8B
330
70
100
AcDbEntity
  8
Слой 1
 62
     8
420
  7368559
370
    18
100
AcDbLine
 10
14.36436931953026
 20
-179.2819200348112
 30
0.0
 11
14.36436931953026
 21
-120.375209962119
 31
0.0
  0
LINE
  5
8C
330
70
100
AcDbEntity
  8
Слой 1
 62
     8
420
  7368559
370
    18
100
AcDbLine
 10
79.05370424084408
 20
-108.167503780811
 30
0.0
 11
88.54439419125466
 21
-108.167503780811
 31
0.0
  0
LINE
  5
8D
330
70
100
AcDbEntity
  8
Слой 1
 62
     8
420
  7368559
370
    18
100
AcDbLine
 10
103.7340028280897
 20
-201.9034017550985
 30
0.0
 11
200.5215405248797
 21
-201.9033719739943
 31
0.0
  0
LINE
  5
8E
330
70
100
AcDbEntity
  8
Слой 1
 62
     8
420
  7368559
370
    18
100
AcDbLine
 10
103.7340000559441
 20
-192.6058922955033
 30
0.0
 11
103.7340031540613
 21
-202.9966791638054
 31
0.0
  0
LINE
  5
8F
330
70
100
AcDbEntity
  8
Слой 1
 62
     8
420
  7368559
370
    18
100
AcDbLine
 10
200.3033931455662
 20
-192.6934056043401
 30
0.0
 11
200.3033967519969
 21
-203.0841924726428
 31
0.0
  0
INSERT
  5
91
330
70
100
AcDbEntity
  8
Слой 1
100
AcDbBlockReference
  2
Block_0
 10
0.0
 20
0.0
 30
0.0
  0
MTEXT
  5
D2
330
70
100
AcDbEntity
  8
Слой 1
100
AcDbMText
 10
148.7919514601978
 20
-201.2211371024725
 30
0.0
 40
0.2
 41
0.0
 46
0.0
 71
     7
 72
     1
  1
\C8;\c7303024;\FDINPro-Regular|b0|i0|c1;\H2.853387;\W1.000000;105
 73
     1
 44
1.0
  0
MTEXT
  5
D3
330
70
100
AcDbEntity
  8
Слой 1
100
AcDbMText
 10
13.69993896141876
 20
-151.6379448405627
 30
0.0
 40
0.2
 41
0.0
 46
0.0
 71
     7
 72
     1
  1
\C8;\c7303024;\FDINPro-Regular|b0|i0|c1;\H2.853387;\W1.000000;63.8
 11
0.0000000000000001
 21
1.0
 31
0.0
 73
     1
 44
1.0
  0
MTEXT
  5
D4
330
70
100
AcDbEntity
  8
Слой 1
100
AcDbMText
 10
18.97300211114217
 20
-151.862565066201
 30
0.0
 40
0.2
 41
0.0
 46
0.0
 71
     7
 72
     1
  1
\C8;\c7303024;\FDINPro-Regular|b0|i0|c1;\H2.853387;\W1.000000;45.4
 11
0.0000000000000001
 21
1.0
 31
0.0
 73
     1
 44
1.0
  0
MTEXT
  5
D5
330
70
100
AcDbEntity
  8
Слой 1
100
AcDbMText
 10
86.72769501955071
 20
-153.2106309295793
 30
0.0
 40
0.2
 41
0.0
 46
0.0
 71
     7
 72
     1
  1
\C8;\c7303024;\FDINPro-Regular|b0|i0|c1;\H2.853387;\W1.000000;90.3
 11
0.0000000000000001
 21
1.0
 31
0.0
 73
     1
 44
1.0
  0
LINE
  5
D6
330
70
100
AcDbEntity
  8
Слой 1
 62
     8
420
  7368559
370
    18
100
AcDbLine
 10
93.68019738267042
 20
-191.4896286992535
 30
0.0
 11
93.68019738267042
 21
-105.8707175632825
 31
0.0
  0
LINE
  5
D7
330
70
100
AcDbEntity
  8
Слой 1
 62
     8
420
  7368559
370
    18
100
AcDbLine
 10
79.05370424084408
 20
-105.8707175632825
 30
0.0
 11
94.59542125125535
 21
-105.8707175632825
 31
0.0
  0
MTEXT
  5
D8
330
70
100
AcDbEntity
  8
Слой 1
100
AcDbMText
 10
92.77934974894058
 20
-153.3081271318118
 30
0.0
 40
0.2
 41
0.0
 46
0.0
 71
     7
 72
     1
  1
\C8;\c7303024;\FDINPro-Regular|b0|i0|c1;\H2.853387;\W1.027570;92.6
 11
0.0000000000000001
 21
1.0
 31
0.0
 73
     1
 44
1.0
  0
MTEXT
  5
D9
330
70
100
AcDbEntity
  8
Слой 1
100
AcDbMText
 10
47.62499998809375
 20
-208.5381754035946
 30
0.0
 40
0.2
 41
0.0
 46
0.0
 71
     7
 72
     1
  1
\C8;\c7303024;\FDINPro-Regular|b0|i0|c1;\H2.853387;\W1.000000;58.5
 73
     1
 44
1.0
  0
MTEXT
  5
DA
330
70
100
AcDbEntity
  8
Слой 1
100
AcDbMText
 10
58.18215059309335
 20
-202.6070990161885
 30
0.0
 40
0.2
 41
0.0
 46
0.0
 71
     7
 72
     1
  1
\C8;\c7303024;\FDINPro-Regular|b0|i0|c1;\H2.853387;\W1.000000;35.5
 73
     1
 44
1.0
  0
MTEXT
  5
DB
330
70
100
AcDbEntity
  8
Слой 1
100
AcDbMText
 10
71.80061304628596
 20
-197.7787976936108
 30
0.0
 40
0.2
 41
0.0
 46
0.0
 71
     7
 72
     1
  1
\C8;\c7303024;\FDINPro-Regular|b0|i0|c1;\H2.853387;\W1.000000;8.7
 73
     1
 44
1.0
  0
INSERT
  5
DD
330
70
100
AcDbEntity
  8
Слой 1
100
AcDbBlockReference
  2
Block_1
 10
0.0
 20
0.0
 30
0.0
  0
INSERT
  5
E8
330
70
100
AcDbEntity
  8
Слой 1
100
AcDbBlockReference
  2
Block_2
 10
0.0
 20
0.0
 30
0.0
  0
INSERT
  5
1A6
330
70
100
AcDbEntity
  8
Слой 2
100
AcDbBlockReference
  2
Block_3
 10
0.0
 20
0.0
 30
0.0
  0
MTEXT
  5
1C9
330
70
100
AcDbEntity
  8
Слой 2
100
AcDbMText
 10
9.781358165414903
 20
-58.55216461413258
 30
0.0
 40
0.2
 41
0.0
 46
0.0
 71
     7
 72
     1
  1
\C250;\c3882044;\FDINPro-Light|b0|i0|c1;\H5.494867;\W1.000000;ИСТОЧНИКИ НАПРЯЖЕНИЯ 
 73
     1
 44
1.0
  0
MTEXT
  5
1CA
330
70
100
AcDbEntity
  8
Слой 2
100
AcDbMText
 10
9.781358165414903
 20
-67.86563574895699
 30
0.0
 40
0.2
 41
0.0
 46
0.0
 71
     7
 72
     1
  1
\C250;\c3882044;\FDINPro-Light|b0|i0|c1;\H5.494867;\W1.000000;СЕРИИ ARV-DR
 73
     1
 44
1.0
  0
MTEXT
  5
1CB
330
70
100
AcDbEntity
  8
Слой 2
100
AcDbMText
 10
9.781358165414903
 20
-77.17876237423287
 30
0.0
 40
0.2
 41
0.0
 46
0.0
 71
     7
 72
     1
  1
\C250;\c3882044;\FDINPro-Light|b0|i0|c1;\H5.494867;\W1.000000;ARV-DR135-12/150-24/48
 73
     1
 44
1.0
  0
INSERT
  5
1CD
330
70
100
AcDbEntity
  8
Слой 2
100
AcDbBlockReference
  2
Block_6
 10
0.0
 20
0.0
 30
0.0
  0
ENDSEC
  0
SECTION
  2
OBJECTS
  0
DICTIONARY
  5
C
330
0
100
AcDbDictionary
281
     1
  3
ACAD_COLOR
350
63
  3
ACAD_DETAILVIEWSTYLE
350
6A
  3
ACAD_GROUP
350
D
  3
ACAD_LAYOUT
350
62
  3
ACAD_MATERIAL
350
10
  3
ACAD_MLEADERSTYLE
350
66
  3
ACAD_MLINESTYLE
350
5F
  3
ACAD_PLOTSETTINGS
350
61
  3
ACAD_PLOTSTYLENAME
350
E
  3
ACAD_SCALELIST
350
42
  3
ACAD_SECTIONVIEWSTYLE
350
68
  3
ACAD_TABLESTYLE
350
64
  3
ACAD_VISUALSTYLE
350
29
  3
ACDB_RECOMPOSE_DATA
350
1F0
  3
AcDbVariableDictionary
350
1E8
  0
DICTIONARY
  5
63
102
{ACAD_REACTORS
330
C
102
}
330
C
100
AcDbDictionary
281
     1
  0
DICTIONARY
  5
6A
102
{ACAD_REACTORS
330
C
102
}
330
C
100
AcDbDictionary
281
     1
  3
Imperial24
350
6B
  0
DICTIONARY
  5
D
102
{ACAD_REACTORS
330
C
102
}
330
C
100
AcDbDictionary
281
     1
  0
DICTIONARY
  5
62
102
{ACAD_REACTORS
330
C
102
}
330
C
100
AcDbDictionary
281
     1
  3
Layout1
350
6F
  3
Layout2
350
77
  3
Model
350
73
  0
DICTIONARY
  5
10
102
{ACAD_REACTORS
330
C
102
}
330
C
100
AcDbDictionary
281
     1
  3
ByBlock
350
19
  3
ByLayer
350
11
  3
Global
350
21
  0
DICTIONARY
  5
66
102
{ACAD_REACTORS
330
C
102
}
330
C
100
AcDbDictionary
281
     1
  3
Standard
350
67
  0
DICTIONARY
  5
5F
102
{ACAD_REACTORS
330
C
102
}
330
C
100
AcDbDictionary
281
     1
  3
Standard
350
60
  0
DICTIONARY
  5
61
102
{ACAD_REACTORS
330
C
102
}
330
C
100
AcDbDictionary
281
     1
  0
ACDBDICTIONARYWDFLT
  5
E
102
{ACAD_REACTORS
330
C
102
}
330
C
100
AcDbDictionary
281
     1
  3
Normal
350
F
100
AcDbDictionaryWithDefault
340
F
  0
DICTIONARY
  5
42
102
{ACAD_REACTORS
330
C
102
}
330
C
100
AcDbDictionary
281
     1
  3
A0
350
43
  3
A1
350
44
  3
A2
350
45
  3
A3
350
46
  3
A4
350
47
  3
A5
350
48
  3
A6
350
49
  3
A7
350
4A
  3
A8
350
4B
  3
A9
350
4C
  3
B0
350
4D
  3
B1
350
4E
  3
B2
350
4F
  3
B3
350
50
  3
B4
350
51
  3
B5
350
52
  3
B6
350
53
  0
DICTIONARY
  5
68
102
{ACAD_REACTORS
330
C
102
}
330
C
100
AcDbDictionary
281
     1
  3
Imperial24
350
69
  0
DICTIONARY
  5
64
102
{ACAD_REACTORS
330
C
102
}
330
C
100
AcDbDictionary
281
     1
  3
Standard
350
65
  0
DICTIONARY
  5
29
102
{ACAD_REACTORS
330
C
102
}
330
C
100
AcDbDictionary
281
     1
  3
2dWireframe
350
2F
  3
Basic
350
2E
  3
Brighten
350
35
  3
ColorChange
350
39
  3
Conceptual
350
32
  3
Dim
350
34
  3
EdgeColorOff
350
41
  3
Facepattern
350
38
  3
Flat
350
2A
  3
FlatWithEdges
350
2B
  3
Gouraud
350
2C
  3
GouraudWithEdges
350
2D
  3
Hidden
350
31
  3
JitterOff
350
3F
  3
Linepattern
350
37
  3
OverhangOff
350
40
  3
Realistic
350
33
  3
Shaded
350
3E
  3
Shaded with edges
350
3D
  3
Shades of Gray
350
3A
  3
Sketchy
350
3B
  3
Thicken
350
36
  3
Wireframe
350
30
  3
X-Ray
350
3C
  0
XRECORD
  5
1F0
102
{ACAD_REACTORS
330
C
102
}
330
C
100
AcDbXrecord
280
     1
 90
        1
330
65
  0
DICTIONARY
  5
1E8
102
{ACAD_REACTORS
330
C
102
}
330
C
100
AcDbDictionary
281
     1
  3
CANNOSCALE
350
1ED
  3
CMLEADERSTYLE
350
1EA
  3
CTABLESTYLE
350
1E9
  3
CVIEWDETAILSTYLE
350
1EB
  3
CVIEWSECTIONSTYLE
350
1EC
  0
ACDBDETAILVIEWSTYLE
  5
6B
102
{ACAD_REACTORS
330
6A
102
}
330
6A
100
AcDbModelDocViewStyle
 70
     0
  3
Imperial24
290
     1
300
Imperial24
 90
        0
100
AcDbDetailViewStyle
 70
     0
 71
     0
 90
        3
 71
     1
340
55
 62
   256
 40
0.24
340
0
 62
   256
 40
0.24
300

 40
0.36
280
     3
 71
     2
340
5D
 90
       25
 62
   256
 71
     3
340
55
 62
   256
 40
0.24
 90
        1
 40
0.75
 90
        1
300
%<\AcVar ViewType \f "%tc1">% %<\AcVar ViewDetailId>%\PSCALE %<\AcVar ViewScale \f "%sn">%
 71
     4
340
5D
 90
       25
 62
   256
340
5D
 90
       25
 62
   256
280
     0
  0
LAYOUT
  5
6F
102
{ACAD_REACTORS
330
62
102
}
330
62
100
AcDbPlotSettings
  1

  2

  4

  6

 40
0.0
 41
0.0
 42
0.0
 43
0.0
 44
0.0
 45
0.0
 46
0.0
 47
0.0
 48
0.0
 49
0.0
140
0.0
141
0.0
142
1.0
143
1.0
 70
   688
 72
     0
 73
     0
 74
     5
  7

 75
    16
147
1.0
 76
     0
 77
     2
 78
   300
148
0.0
149
0.0
100
AcDbLayout
  1
Layout1
 70
     1
 71
     1
 10
0.0
 20
0.0
 11
12.0
 21
9.0
 12
0.0
 22
0.0
 32
0.0
 14
0.0
 24
0.0
 34
0.0
 15
0.0
 25
0.0
 35
0.0
146
0.0
 13
0.0
 23
0.0
 33
0.0
 16
1.0
 26
0.0
 36
0.0
 17
0.0
 27
1.0
 37
0.0
 76
     0
330
6C
  0
LAYOUT
  5
77
102
{ACAD_REACTORS
330
62
102
}
330
62
100
AcDbPlotSettings
  1

  2

  4

  6

 40
0.0
 41
0.0
 42
0.0
 43
0.0
 44
0.0
 45
0.0
 46
0.0
 47
0.0
 48
0.0
 49
0.0
140
0.0
141
0.0
142
1.0
143
1.0
 70
   688
 72
     0
 73
     0
 74
     5
  7

 75
    16
147
1.0
 76
     0
 77
     2
 78
   300
148
0.0
149
0.0
100
AcDbLayout
  1
Layout2
 70
     1
 71
     2
 10
0.0
 20
0.0
 11
12.0
 21
9.0
 12
0.0
 22
0.0
 32
0.0
 14
0.0
 24
0.0
 34
0.0
 15
0.0
 25
0.0
 35
0.0
146
0.0
 13
0.0
 23
0.0
 33
0.0
 16
1.0
 26
0.0
 36
0.0
 17
0.0
 27
1.0
 37
0.0
 76
     0
330
74
  0
LAYOUT
  5
73
102
{ACAD_REACTORS
330
62
102
}
330
62
100
AcDbPlotSettings
  1

  2

  4

  6

 40
0.0
 41
0.0
 42
0.0
 43
0.0
 44
0.0
 45
0.0
 46
0.0
 47
0.0
 48
0.0
 49
0.0
140
0.0
141
0.0
142
1.0
143
1.0
 70
  1712
 72
     0
 73
     0
 74
     0
  7

 75
     0
147
1.0
 76
     0
 77
     2
 78
   300
148
0.0
149
0.0
100
AcDbLayout
  1
Model
 70
     1
 71
     0
 10
0.0
 20
0.0
 11
12.0
 21
9.0
 12
0.0
 22
0.0
 32
0.0
 14
0.0
 24
0.0
 34
0.0
 15
0.0
 25
0.0
 35
0.0
146
0.0
 13
0.0
 23
0.0
 33
0.0
 16
1.0
 26
0.0
 36
0.0
 17
0.0
 27
1.0
 37
0.0
 76
     0
330
70
  0
MATERIAL
  5
19
102
{ACAD_XDICTIONARY
360
1A
102
}
102
{ACAD_REACTORS
330
10
102
}
330
10
100
AcDbMaterial
  1
ByBlock
 72
     0
 43
0.0208333333333333
 43
0.0
 43
0.0
 43
0.0
 43
0.0
 43
0.0208333333333333
 43
0.0
 43
0.0
 43
0.0
 43
0.0
 43
1.0
 43
0.0
 43
0.0
 43
0.0
 43
0.0
 43
1.0
 77
     0
 47
0.0208333333333333
 47
0.0
 47
0.0
 47
0.0
 47
0.0
 47
0.0208333333333333
 47
0.0
 47
0.0
 47
0.0
 47
0.0
 47
1.0
 47
0.0
 47
0.0
 47
0.0
 47
0.0
 47
1.0
171
     0
 49
0.0208333333333333
 49
0.0
 49
0.0
 49
0.0
 49
0.0
 49
0.0208333333333333
 49
0.0
 49
0.0
 49
0.0
 49
0.0
 49
1.0
 49
0.0
 49
0.0
 49
0.0
 49
0.0
 49
1.0
175
     0
142
0.0208333333333333
142
0.0
142
0.0
142
0.0
142
0.0
142
0.0208333333333333
142
0.0
142
0.0
142
0.0
142
0.0
142
1.0
142
0.0
142
0.0
142
0.0
142
0.0
142
1.0
179
     0
144
0.0208333333333333
144
0.0
144
0.0
144
0.0
144
0.0
144
0.0208333333333333
144
0.0
144
0.0
144
0.0
144
0.0
144
1.0
144
0.0
144
0.0
144
0.0
144
0.0
144
1.0
147
0.0208333333333333
147
0.0
147
0.0
147
0.0
147
0.0
147
0.0208333333333333
147
0.0
147
0.0
147
0.0
147
0.0
147
1.0
147
0.0
147
0.0
147
0.0
147
0.0
147
1.0
  0
MATERIAL
  5
11
102
{ACAD_XDICTIONARY
360
12
102
}
102
{ACAD_REACTORS
330
10
102
}
330
10
100
AcDbMaterial
  1
ByLayer
 72
     0
 43
0.0208333333333333
 43
0.0
 43
0.0
 43
0.0
 43
0.0
 43
0.0208333333333333
 43
0.0
 43
0.0
 43
0.0
 43
0.0
 43
1.0
 43
0.0
 43
0.0
 43
0.0
 43
0.0
 43
1.0
 77
     0
 47
0.0208333333333333
 47
0.0
 47
0.0
 47
0.0
 47
0.0
 47
0.0208333333333333
 47
0.0
 47
0.0
 47
0.0
 47
0.0
 47
1.0
 47
0.0
 47
0.0
 47
0.0
 47
0.0
 47
1.0
171
     0
 49
0.0208333333333333
 49
0.0
 49
0.0
 49
0.0
 49
0.0
 49
0.0208333333333333
 49
0.0
 49
0.0
 49
0.0
 49
0.0
 49
1.0
 49
0.0
 49
0.0
 49
0.0
 49
0.0
 49
1.0
175
     0
142
0.0208333333333333
142
0.0
142
0.0
142
0.0
142
0.0
142
0.0208333333333333
142
0.0
142
0.0
142
0.0
142
0.0
142
1.0
142
0.0
142
0.0
142
0.0
142
0.0
142
1.0
179
     0
144
0.0208333333333333
144
0.0
144
0.0
144
0.0
144
0.0
144
0.0208333333333333
144
0.0
144
0.0
144
0.0
144
0.0
144
1.0
144
0.0
144
0.0
144
0.0
144
0.0
144
1.0
147
0.0208333333333333
147
0.0
147
0.0
147
0.0
147
0.0
147
0.0208333333333333
147
0.0
147
0.0
147
0.0
147
0.0
147
1.0
147
0.0
147
0.0
147
0.0
147
0.0
147
1.0
  0
MATERIAL
  5
21
102
{ACAD_XDICTIONARY
360
22
102
}
102
{ACAD_REACTORS
330
10
102
}
330
10
100
AcDbMaterial
  1
Global
 72
     0
 43
0.0208333333333333
 43
0.0
 43
0.0
 43
0.0
 43
0.0
 43
0.0208333333333333
 43
0.0
 43
0.0
 43
0.0
 43
0.0
 43
1.0
 43
0.0
 43
0.0
 43
0.0
 43
0.0
 43
1.0
 77
     0
 47
0.0208333333333333
 47
0.0
 47
0.0
 47
0.0
 47
0.0
 47
0.0208333333333333
 47
0.0
 47
0.0
 47
0.0
 47
0.0
 47
1.0
 47
0.0
 47
0.0
 47
0.0
 47
0.0
 47
1.0
171
     0
 49
0.0208333333333333
 49
0.0
 49
0.0
 49
0.0
 49
0.0
 49
0.0208333333333333
 49
0.0
 49
0.0
 49
0.0
 49
0.0
 49
1.0
 49
0.0
 49
0.0
 49
0.0
 49
0.0
 49
1.0
175
     0
142
0.0208333333333333
142
0.0
142
0.0
142
0.0
142
0.0
142
0.0208333333333333
142
0.0
142
0.0
142
0.0
142
0.0
142
1.0
142
0.0
142
0.0
142
0.0
142
0.0
142
1.0
179
     0
144
0.0208333333333333
144
0.0
144
0.0
144
0.0
144
0.0
144
0.0208333333333333
144
0.0
144
0.0
144
0.0
144
0.0
144
1.0
144
0.0
144
0.0
144
0.0
144
0.0
144
1.0
147
0.0208333333333333
147
0.0
147
0.0
147
0.0
147
0.0
147
0.0208333333333333
147
0.0
147
0.0
147
0.0
147
0.0
147
1.0
147
0.0
147
0.0
147
0.0
147
0.0
147
1.0
  0
MLEADERSTYLE
  5
67
102
{ACAD_REACTORS
330
66
102
}
330
66
100
AcDbMLeaderStyle
179
     2
170
     2
171
     1
172
     0
 90
        2
 40
0.0
 41
0.0
173
     1
 91
-1056964608
340
5B
 92
       -2
290
     1
 42
0.09
291
     1
 43
0.36
  3
Standard
 44
0.18
300

342
55
174
     1
178
     6
175
     1
176
     0
 93
-1056964608
 45
0.18
292
     0
297
     0
 46
0.18
 94
-1056964608
 47
1.0
 49
1.0
140
1.0
293
     1
141
0.0
294
     1
177
     0
142
1.0
295
     1
296
     0
143
0.125
271
     0
272
     9
273
     9
298
     1
  0
MLINESTYLE
  5
60
102
{ACAD_REACTORS
330
5F
102
}
330
5F
100
AcDbMlineStyle
  2
STANDARD
 70
     0
  3

 62
   256
 51
90.0
 52
90.0
 71
     2
 49
0.5
 62
   256
  6
BYLAYER
 49
-0.5
 62
   256
  6
BYLAYER
  0
ACDBPLACEHOLDER
  5
F
102
{ACAD_REACTORS
330
E
102
}
330
E
  0
SCALE
  5
43
102
{ACAD_REACTORS
330
42
102
}
330
42
100
AcDbScale
 70
     0
300
1:1
140
1.0
141
1.0
290
     1
  0
SCALE
  5
44
102
{ACAD_REACTORS
330
42
102
}
330
42
100
AcDbScale
 70
     0
300
1/128" = 1'-0"
140
0.0078125
141
12.0
290
     0
  0
SCALE
  5
45
102
{ACAD_REACTORS
330
42
102
}
330
42
100
AcDbScale
 70
     0
300
1/64" = 1'-0"
140
0.015625
141
12.0
290
     0
  0
SCALE
  5
46
102
{ACAD_REACTORS
330
42
102
}
330
42
100
AcDbScale
 70
     0
300
1/32" = 1'-0"
140
0.03125
141
12.0
290
     0
  0
SCALE
  5
47
102
{ACAD_REACTORS
330
42
102
}
330
42
100
AcDbScale
 70
     0
300
1/16" = 1'-0"
140
0.0625
141
12.0
290
     0
  0
SCALE
  5
48
102
{ACAD_REACTORS
330
42
102
}
330
42
100
AcDbScale
 70
     0
300
3/32" = 1'-0"
140
0.09375
141
12.0
290
     0
  0
SCALE
  5
49
102
{ACAD_REACTORS
330
42
102
}
330
42
100
AcDbScale
 70
     0
300
1/8" = 1'-0"
140
0.125
141
12.0
290
     0
  0
SCALE
  5
4A
102
{ACAD_REACTORS
330
42
102
}
330
42
100
AcDbScale
 70
     0
300
3/16" = 1'-0"
140
0.1875
141
12.0
290
     0
  0
SCALE
  5
4B
102
{ACAD_REACTORS
330
42
102
}
330
42
100
AcDbScale
 70
     0
300
1/4" = 1'-0"
140
0.25
141
12.0
290
     0
  0
SCALE
  5
4C
102
{ACAD_REACTORS
330
42
102
}
330
42
100
AcDbScale
 70
     0
300
3/8" = 1'-0"
140
0.375
141
12.0
290
     0
  0
SCALE
  5
4D
102
{ACAD_REACTORS
330
42
102
}
330
42
100
AcDbScale
 70
     0
300
1/2" = 1'-0"
140
0.5
141
12.0
290
     0
  0
SCALE
  5
4E
102
{ACAD_REACTORS
330
42
102
}
330
42
100
AcDbScale
 70
     0
300
3/4" = 1'-0"
140
0.75
141
12.0
290
     0
  0
SCALE
  5
4F
102
{ACAD_REACTORS
330
42
102
}
330
42
100
AcDbScale
 70
     0
300
1" = 1'-0"
140
1.0
141
12.0
290
     0
  0
SCALE
  5
50
102
{ACAD_REACTORS
330
42
102
}
330
42
100
AcDbScale
 70
     0
300
1-1/2" = 1'-0"
140
1.5
141
12.0
290
     0
  0
SCALE
  5
51
102
{ACAD_REACTORS
330
42
102
}
330
42
100
AcDbScale
 70
     0
300
3" = 1'-0"
140
3.0
141
12.0
290
     0
  0
SCALE
  5
52
102
{ACAD_REACTORS
330
42
102
}
330
42
100
AcDbScale
 70
     0
300
6" = 1'-0"
140
6.0
141
12.0
290
     0
  0
SCALE
  5
53
102
{ACAD_REACTORS
330
42
102
}
330
42
100
AcDbScale
 70
     0
300
1'-0" = 1'-0"
140
12.0
141
12.0
290
     0
  0
ACDBSECTIONVIEWSTYLE
  5
69
102
{ACAD_REACTORS
330
68
102
}
330
68
100
AcDbModelDocViewStyle
 70
     0
  3
Imperial24
290
     1
300
Imperial24
 90
        0
100
AcDbSectionViewStyle
 70
     0
 71
     0
 90
       78
 71
     1
340
55
 62
   256
 40
0.24
340
0
340
0
 62
   256
 40
0.24
300
I, O, Q, S, X, Z
 40
0.48
 90
        3
 40
0.18
 90
        1
 71
     2
340
5D
 90
       25
 62
   256
340
5D
 90
       50
 62
   256
 40
0.24
 40
0.0
 40
0.24
 71
     3
340
55
 62
   256
 40
0.24
 90
        1
 40
0.75
 90
        1
300
%<\AcVar ViewType \f "%tc1">% %<\AcVar ViewSectionStartId>%-%<\AcVar ViewSectionEndId>%\PSCALE %<\AcVar ViewScale \f "%sn">%
 71
     4
 62
   256
 62
   257
300
ANSI31
 40
1.0
 90
        0
290
     0
290
     0
 90
        6
 40
0.0
 40
1.570796326794896
 40
0.2617993877991494
 40
1.308996938995747
 40
-0.2617993877991494
 40
1.832595714594046
  0
TABLESTYLE
  5
65
102
{ACAD_XDICTIONARY
360
1EE
102
}
102
{ACAD_REACTORS
330
64
102
}
330
64
100
AcDbTableStyle
280
     0
  3
Standard
 70
     0
 71
     0
 40
0.06
 41
0.06
280
     0
281
     0
  7
Standard
140
0.18
170
     2
 62
     0
 63
     7
283
     0
 90
      512
 91
        0
  1

274
    -2
284
     1
 64
     0
275
    -2
285
     1
 65
     0
276
    -2
286
     1
 66
     0
277
    -2
287
     1
 67
     0
278
    -2
288
     1
 68
     0
279
    -2
289
     1
 69
     0
  7
Standard
140
0.25
170
     5
 62
     0
 63
     7
283
     0
 90
      512
 91
        0
  1

274
    -2
284
     1
 64
     0
275
    -2
285
     1
 65
     0
276
    -2
286
     1
 66
     0
277
    -2
287
     1
 67
     0
278
    -2
288
     1
 68
     0
279
    -2
289
     1
 69
     0
  7
Standard
140
0.18
170
     5
 62
     0
 63
     7
283
     0
 90
      512
 91
        0
  1

274
    -2
284
     1
 64
     0
275
    -2
285
     1
 65
     0
276
    -2
286
     1
 66
     0
277
    -2
287
     1
 67
     0
278
    -2
288
     1
 68
     0
279
    -2
289
     1
 69
     0
  0
VISUALSTYLE
  5
2F
102
{ACAD_REACTORS
330
29
102
}
330
29
100
AcDbVisualStyle
  2
2dWireframe
 70
     4
177
     3
291
     0
 70
    58
 90
        0
176
     1
 90
        2
176
     1
 90
        0
176
     1
 90
        0
176
     1
 40
0.6
176
     1
 40
30.0
176
     1
 62
     7
420
 16777215
176
     1
 90
        1
176
     1
 90
        4
176
     1
 62
     7
176
     1
 62
   257
176
     1
 90
        1
176
     1
 90
        1
176
     1
 40
1.0
176
     1
 90
        0
176
     1
 62
   257
176
     1
 40
1.0
176
     1
 90
        1
176
     1
 90
        6
176
     1
 90
        2
176
     1
 62
     7
176
     1
 90
        5
176
     1
 90
        0
176
     1
 90
        0
176
     1
290
     0
176
     1
 90
        1
176
     1
 40
0.0
176
     1
 90
        0
176
     1
290
     1
176
     1
290
     1
176
     1
290
     0
176
     1
290
     0
176
     1
290
     0
176
     1
290
     0
176
     1
290
     0
176
     1
290
     0
176
     1
290
     0
176
     1
 90
       50
176
     1
 40
0.0
176
     1
 40
1.0
176
     1
 90
        0
176
     1
 62
    18
420
        0
176
     1
 90
       50
176
     1
 90
        3
176
     1
 62
     5
420
      255
176
     1
290
     0
176
     1
 90
       50
176
     1
 90
       50
176
     1
 90
       50
176
     1
290
     0
176
     1
 90
       50
176
     1
 62
   256
176
     0
 40
1.0
176
     0
 90
        2
176
     1
  1
strokes_ogs.tif
176
     1
290
     0
176
     1
 40
1.0
176
     1
 40
1.0
176
     1
  0
VISUALSTYLE
  5
2E
102
{ACAD_REACTORS
330
29
102
}
330
29
100
AcDbVisualStyle
  2
Basic
 70
     7
177
     3
291
     1
 70
    58
 90
        1
176
     1
 90
        0
176
     1
 90
        1
176
     1
 90
        0
176
     1
 40
0.6
176
     1
 40
30.0
176
     1
 62
     7
420
 16777215
176
     1
 90
        0
176
     1
 90
        4
176
     1
 62
     7
176
     1
 62
   257
176
     1
 90
        1
176
     1
 90
        1
176
     1
 40
1.0
176
     1
 90
        8
176
     1
 62
     7
176
     1
 40
1.0
176
     1
 90
        1
176
     1
 90
        6
176
     1
 90
        2
176
     1
 62
     7
176
     1
 90
        5
176
     1
 90
        0
176
     1
 90
        0
176
     1
290
     0
176
     1
 90
        1
176
     1
 40
0.0
176
     1
 90
        0
176
     1
290
     0
176
     1
290
     1
176
     1
290
     1
176
     1
290
     0
176
     1
290
     0
176
     1
290
     0
176
     1
290
     0
176
     1
290
     0
176
     1
290
     0
176
     1
 90
       50
176
     1
 40
0.0
176
     1
 40
1.0
176
     1
 90
        0
176
     1
 62
    18
420
        0
176
     1
 90
       50
176
     1
 90
        3
176
     1
 62
     5
420
      255
176
     1
290
     0
176
     1
 90
       50
176
     1
 90
       50
176
     1
 90
       50
176
     1
290
     0
176
     1
 90
       50
176
     1
 62
   256
176
     0
 40
1.0
176
     0
 90
        2
176
     1
  1
strokes_ogs.tif
176
     1
290
     0
176
     1
 40
1.0
176
     1
 40
1.0
176
     1
  0
VISUALSTYLE
  5
35
102
{ACAD_REACTORS
330
29
102
}
330
29
100
AcDbVisualStyle
  2
Brighten
 70
    12
177
     3
291
     1
 70
    58
 90
        2
176
     1
 90
        2
176
     1
 90
        0
176
     1
 90
        0
176
     1
 40
0.6
176
     1
 40
30.0
176
     1
 62
     7
420
 16777215
176
     1
 90
        1
176
     1
 90
        4
176
     1
 62
     7
176
     1
 62
   257
176
     1
 90
        1
176
     1
 90
        1
176
     1
 40
1.0
176
     1
 90
        8
176
     1
 62
     7
176
     1
 40
1.0
176
     1
 90
        1
176
     1
 90
        6
176
     1
 90
        2
176
     1
 62
     7
176
     1
 90
        5
176
     1
 90
        0
176
     1
 90
        0
176
     1
290
     0
176
     1
 90
        1
176
     1
 40
50.0
176
     1
 90
        0
176
     1
290
     0
176
     1
290
     1
176
     1
290
     1
176
     1
290
     0
176
     1
290
     0
176
     1
290
     0
176
     1
290
     0
176
     1
290
     0
176
     1
290
     0
176
     1
 90
       50
176
     1
 40
0.0
176
     1
 40
1.0
176
     1
 90
        0
176
     1
 62
    18
420
        0
176
     1
 90
       50
176
     1
 90
        3
176
     1
 62
     5
420
      255
176
     1
290
     0
176
     1
 90
       50
176
     1
 90
       50
176
     1
 90
       50
176
     1
290
     0
176
     1
 90
       50
176
     1
 62
   256
176
     0
 40
1.0
176
     0
 90
        2
176
     1
  1
strokes_ogs.tif
176
     1
290
     0
176
     1
 40
1.0
176
     1
 40
1.0
176
     1
  0
VISUALSTYLE
  5
39
102
{ACAD_REACTORS
330
29
102
}
330
29
100
AcDbVisualStyle
  2
ColorChange
 70
    16
177
     3
291
     1
 70
    58
 90
        2
176
     1
 90
        2
176
     1
 90
        3
176
     1
 90
        0
176
     1
 40
0.6
176
     1
 40
30.0
176
     1
 62
     8
420
  8421504
176
     1
 90
        1
176
     1
 90
        4
176
     1
 62
     7
176
     1
 62
   257
176
     1
 90
        1
176
     1
 90
        1
176
     1
 40
1.0
176
     1
 90
        8
176
     1
 62
     8
420
  8421504
176
     1
 40
1.0
176
     1
 90
        1
176
     1
 90
        6
176
     1
 90
        2
176
     1
 62
     7
176
     1
 90
        5
176
     1
 90
        0
176
     1
 90
        0
176
     1
290
     0
176
     1
 90
        1
176
     1
 40
0.0
176
     1
 90
        0
176
     1
290
     0
176
     1
290
     1
176
     1
290
     1
176
     1
290
     0
176
     1
290
     0
176
     1
290
     0
176
     1
290
     0
176
     1
290
     0
176
     1
290
     0
176
     1
 90
       50
176
     1
 40
0.0
176
     1
 40
1.0
176
     1
 90
        0
176
     1
 62
    18
420
        0
176
     1
 90
       50
176
     1
 90
        3
176
     1
 62
     5
420
      255
176
     1
290
     0
176
     1
 90
       50
176
     1
 90
       50
176
     1
 90
       50
176
     1
290
     0
176
     1
 90
       50
176
     1
 62
   256
176
     0
 40
1.0
176
     0
 90
        2
176
     1
  1
strokes_ogs.tif
176
     1
290
     0
176
     1
 40
1.0
176
     1
 40
1.0
176
     1
  0
VISUALSTYLE
  5
32
102
{ACAD_REACTORS
330
29
102
}
330
29
100
AcDbVisualStyle
  2
Conceptual
 70
     9
177
     3
291
     0
 70
    58
 90
        3
176
     1
 90
        2
176
     1
 90
        0
176
     1
 90
        0
176
     1
 40
0.6
176
     1
 40
30.0
176
     1
 62
     7
420
 16777215
176
     1
 90
        2
176
     1
 90
        2
176
     1
 62
     7
176
     1
 62
   257
176
     1
 90
        1
176
     1
 90
        1
176
     1
 40
179.0
176
     1
 90
        8
176
     1
 62
     7
176
     1
 40
1.0
176
     1
 90
        1
176
     1
 90
        6
176
     1
 90
        2
176
     1
 62
     7
176
     1
 90
        3
176
     1
 90
        0
176
     1
 90
        0
176
     1
290
     0
176
     1
 90
        1
176
     1
 40
0.0
176
     1
 90
        0
176
     1
290
     0
176
     1
290
     1
176
     1
290
     1
176
     1
290
     0
176
     1
290
     0
176
     1
290
     0
176
     1
290
     0
176
     1
290
     0
176
     1
290
     0
176
     1
 90
       50
176
     1
 40
0.0
176
     1
 40
1.0
176
     1
 90
        0
176
     1
 62
    18
420
        0
176
     1
 90
       50
176
     1
 90
        3
176
     1
 62
     5
420
      255
176
     1
290
     0
176
     1
 90
       50
176
     1
 90
       50
176
     1
 90
       50
176
     1
290
     0
176
     1
 90
       50
176
     1
 62
   256
176
     0
 40
1.0
176
     0
 90
        2
176
     1
  1
strokes_ogs.tif
176
     1
290
     0
176
     1
 40
1.0
176
     1
 40
1.0
176
     1
  0
VISUALSTYLE
  5
34
102
{ACAD_REACTORS
330
29
102
}
330
29
100
AcDbVisualStyle
  2
Dim
 70
    11
177
     3
291
     1
 70
    58
 90
        2
176
     1
 90
        2
176
     1
 90
        0
176
     1
 90
        0
176
     1
 40
0.6
176
     1
 40
30.0
176
     1
 62
     7
420
 16777215
176
     1
 90
        1
176
     1
 90
        4
176
     1
 62
     7
176
     1
 62
   257
176
     1
 90
        1
176
     1
 90
        1
176
     1
 40
1.0
176
     1
 90
        8
176
     1
 62
     7
176
     1
 40
1.0
176
     1
 90
        1
176
     1
 90
        6
176
     1
 90
        2
176
     1
 62
     7
176
     1
 90
        5
176
     1
 90
        0
176
     1
 90
        0
176
     1
290
     0
176
     1
 90
        1
176
     1
 40
-50.0
176
     1
 90
        0
176
     1
290
     0
176
     1
290
     1
176
     1
290
     1
176
     1
290
     0
176
     1
290
     0
176
     1
290
     0
176
     1
290
     0
176
     1
290
     0
176
     1
290
     0
176
     1
 90
       50
176
     1
 40
0.0
176
     1
 40
1.0
176
     1
 90
        0
176
     1
 62
    18
420
        0
176
     1
 90
       50
176
     1
 90
        3
176
     1
 62
     5
420
      255
176
     1
290
     0
176
     1
 90
       50
176
     1
 90
       50
176
     1
 90
       50
176
     1
290
     0
176
     1
 90
       50
176
     1
 62
   256
176
     0
 40
1.0
176
     0
 90
        2
176
     1
  1
strokes_ogs.tif
176
     1
290
     0
176
     1
 40
1.0
176
     1
 40
1.0
176
     1
  0
VISUALSTYLE
  5
41
102
{ACAD_REACTORS
330
29
102
}
330
29
100
AcDbVisualStyle
  2
EdgeColorOff
 70
    22
177
     3
291
     1
 70
    58
 90
        2
176
     0
 90
        2
176
     0
 90
        0
176
     0
 90
        0
176
     0
 40
0.6
176
     0
 40
30.0
176
     0
 62
     7
420
 16777215
176
     0
 90
        1
176
     0
 90
        4
176
     0
 62
     7
176
     0
 62
   257
176
     0
 90
        1
176
     0
 90
        1
176
     0
 40
1.0
176
     0
 90
        8
176
     2
 62
     7
176
     0
 40
1.0
176
     0
 90
        1
176
     0
 90
        6
176
     0
 90
        2
176
     0
 62
     7
176
     0
 90
        5
176
     0
 90
        0
176
     0
 90
        0
176
     0
290
     0
176
     0
 90
        1
176
     0
 40
0.0
176
     0
 90
        0
176
     0
290
     0
176
     0
290
     1
176
     0
290
     1
176
     0
290
     0
176
     0
290
     0
176
     0
290
     0
176
     0
290
     0
176
     0
290
     0
176
     0
290
     0
176
     0
 90
       50
176
     0
 40
0.0
176
     0
 40
1.0
176
     0
 90
        0
176
     0
 62
    18
420
        0
176
     0
 90
       50
176
     0
 90
        3
176
     0
 62
     5
420
      255
176
     0
290
     0
176
     0
 90
       50
176
     0
 90
       50
176
     0
 90
       50
176
     0
290
     0
176
     0
 90
       50
176
     0
 62
   256
176
     0
 40
1.0
176
     0
 90
        2
176
     0
  1
strokes_ogs.tif
176
     0
290
     0
176
     0
 40
1.0
176
     0
 40
1.0
176
     0
  0
VISUALSTYLE
  5
38
102
{ACAD_REACTORS
330
29
102
}
330
29
100
AcDbVisualStyle
  2
Facepattern
 70
    15
177
     3
291
     1
 70
    58
 90
        2
176
     1
 90
        2
176
     1
 90
        0
176
     1
 90
        0
176
     1
 40
0.6
176
     1
 40
30.0
176
     1
 62
     7
420
 16777215
176
     1
 90
        1
176
     1
 90
        4
176
     1
 62
     7
176
     1
 62
   257
176
     1
 90
        1
176
     1
 90
        1
176
     1
 40
1.0
176
     1
 90
        8
176
     1
 62
     7
176
     1
 40
1.0
176
     1
 90
        1
176
     1
 90
        6
176
     1
 90
        2
176
     1
 62
     7
176
     1
 90
        5
176
     1
 90
        0
176
     1
 90
        0
176
     1
290
     0
176
     1
 90
        1
176
     1
 40
0.0
176
     1
 90
        0
176
     1
290
     0
176
     1
290
     1
176
     1
290
     1
176
     1
290
     0
176
     1
290
     0
176
     1
290
     0
176
     1
290
     0
176
     1
290
     0
176
     1
290
     0
176
     1
 90
       50
176
     1
 40
0.0
176
     1
 40
1.0
176
     1
 90
        0
176
     1
 62
    18
420
        0
176
     1
 90
       50
176
     1
 90
        3
176
     1
 62
     5
420
      255
176
     1
290
     0
176
     1
 90
       50
176
     1
 90
       50
176
     1
 90
       50
176
     1
290
     0
176
     1
 90
       50
176
     1
 62
   256
176
     0
 40
1.0
176
     0
 90
        2
176
     1
  1
strokes_ogs.tif
176
     1
290
     0
176
     1
 40
1.0
176
     1
 40
1.0
176
     1
  0
VISUALSTYLE
  5
2A
102
{ACAD_REACTORS
330
29
102
}
330
29
100
AcDbVisualStyle
  2
Flat
 70
     0
177
     3
291
     1
 70
    58
 90
        2
176
     1
 90
        1
176
     1
 90
        1
176
     1
 90
        2
176
     1
 40
0.6
176
     1
 40
30.0
176
     1
 62
     7
420
 16777215
176
     1
 90
        0
176
     1
 90
        0
176
     1
 62
     7
176
     1
 62
   257
176
     1
 90
        1
176
     1
 90
        1
176
     1
 40
1.0
176
     1
 90
        8
176
     1
 62
     7
176
     1
 40
1.0
176
     1
 90
        1
176
     1
 90
        6
176
     1
 90
        2
176
     1
 62
     7
176
     1
 90
        5
176
     1
 90
        0
176
     1
 90
        0
176
     1
290
     0
176
     1
 90
       13
176
     1
 40
0.0
176
     1
 90
        0
176
     1
290
     0
176
     1
290
     1
176
     1
290
     1
176
     1
290
     0
176
     1
290
     0
176
     1
290
     0
176
     1
290
     0
176
     1
290
     0
176
     1
290
     0
176
     1
 90
       50
176
     1
 40
0.0
176
     1
 40
1.0
176
     1
 90
        0
176
     1
 62
    18
420
        0
176
     1
 90
       50
176
     1
 90
        3
176
     1
 62
     5
420
      255
176
     1
290
     0
176
     1
 90
       50
176
     1
 90
       50
176
     1
 90
       50
176
     1
290
     0
176
     1
 90
       50
176
     1
 62
   256
176
     0
 40
1.0
176
     0
 90
        2
176
     1
  1
strokes_ogs.tif
176
     1
290
     0
176
     1
 40
1.0
176
     1
 40
1.0
176
     1
  0
VISUALSTYLE
  5
2B
102
{ACAD_REACTORS
330
29
102
}
330
29
100
AcDbVisualStyle
  2
FlatWithEdges
 70
     1
177
     3
291
     1
 70
    58
 90
        2
176
     1
 90
        1
176
     1
 90
        1
176
     1
 90
        2
176
     1
 40
0.6
176
     1
 40
30.0
176
     1
 62
     7
420
 16777215
176
     1
 90
        1
176
     1
 90
        0
176
     1
 62
     7
176
     1
 62
   257
176
     1
 90
        1
176
     1
 90
        1
176
     1
 40
1.0
176
     1
 90
        0
176
     1
 62
   257
176
     1
 40
1.0
176
     1
 90
        1
176
     1
 90
        6
176
     1
 90
        2
176
     1
 62
     7
176
     1
 90
        5
176
     1
 90
        0
176
     1
 90
        0
176
     1
290
     0
176
     1
 90
       13
176
     1
 40
0.0
176
     1
 90
        0
176
     1
290
     0
176
     1
290
     1
176
     1
290
     1
176
     1
290
     0
176
     1
290
     0
176
     1
290
     0
176
     1
290
     0
176
     1
290
     0
176
     1
290
     0
176
     1
 90
       50
176
     1
 40
0.0
176
     1
 40
1.0
176
     1
 90
        0
176
     1
 62
    18
420
        0
176
     1
 90
       50
176
     1
 90
        3
176
     1
 62
     5
420
      255
176
     1
290
     0
176
     1
 90
       50
176
     1
 90
       50
176
     1
 90
       50
176
     1
290
     0
176
     1
 90
       50
176
     1
 62
   256
176
     0
 40
1.0
176
     0
 90
        2
176
     1
  1
strokes_ogs.tif
176
     1
290
     0
176
     1
 40
1.0
176
     1
 40
1.0
176
     1
  0
VISUALSTYLE
  5
2C
102
{ACAD_REACTORS
330
29
102
}
330
29
100
AcDbVisualStyle
  2
Gouraud
 70
     2
177
     3
291
     1
 70
    58
 90
        2
176
     1
 90
        2
176
     1
 90
        1
176
     1
 90
        2
176
     1
 40
0.6
176
     1
 40
30.0
176
     1
 62
     7
420
 16777215
176
     1
 90
        0
176
     1
 90
        0
176
     1
 62
     7
176
     1
 62
   257
176
     1
 90
        1
176
     1
 90
        1
176
     1
 40
1.0
176
     1
 90
        0
176
     1
 62
     7
176
     1
 40
1.0
176
     1
 90
        1
176
     1
 90
        6
176
     1
 90
        2
176
     1
 62
     7
176
     1
 90
        5
176
     1
 90
        0
176
     1
 90
        0
176
     1
290
     0
176
     1
 90
       13
176
     1
 40
0.0
176
     1
 90
        0
176
     1
290
     0
176
     1
290
     1
176
     1
290
     1
176
     1
290
     0
176
     1
290
     0
176
     1
290
     0
176
     1
290
     0
176
     1
290
     0
176
     1
290
     0
176
     1
 90
       50
176
     1
 40
0.0
176
     1
 40
1.0
176
     1
 90
        0
176
     1
 62
    18
420
        0
176
     1
 90
       50
176
     1
 90
        3
176
     1
 62
     5
420
      255
176
     1
290
     0
176
     1
 90
       50
176
     1
 90
       50
176
     1
 90
       50
176
     1
290
     0
176
     1
 90
       50
176
     1
 62
   256
176
     0
 40
1.0
176
     0
 90
        2
176
     1
  1
strokes_ogs.tif
176
     1
290
     0
176
     1
 40
1.0
176
     1
 40
1.0
176
     1
  0
VISUALSTYLE
  5
2D
102
{ACAD_REACTORS
330
29
102
}
330
29
100
AcDbVisualStyle
  2
GouraudWithEdges
 70
     3
177
     3
291
     1
 70
    58
 90
        2
176
     1
 90
        2
176
     1
 90
        1
176
     1
 90
        2
176
     1
 40
0.6
176
     1
 40
30.0
176
     1
 62
     7
420
 16777215
176
     1
 90
        1
176
     1
 90
        0
176
     1
 62
     7
176
     1
 62
   257
176
     1
 90
        1
176
     1
 90
        1
176
     1
 40
1.0
176
     1
 90
        0
176
     1
 62
   257
176
     1
 40
1.0
176
     1
 90
        1
176
     1
 90
        6
176
     1
 90
        2
176
     1
 62
     7
176
     1
 90
        5
176
     1
 90
        0
176
     1
 90
        0
176
     1
290
     0
176
     1
 90
       13
176
     1
 40
0.0
176
     1
 90
        0
176
     1
290
     0
176
     1
290
     1
176
     1
290
     1
176
     1
290
     0
176
     1
290
     0
176
     1
290
     0
176
     1
290
     0
176
     1
290
     0
176
     1
290
     0
176
     1
 90
       50
176
     1
 40
0.0
176
     1
 40
1.0
176
     1
 90
        0
176
     1
 62
    18
420
        0
176
     1
 90
       50
176
     1
 90
        3
176
     1
 62
     5
420
      255
176
     1
290
     0
176
     1
 90
       50
176
     1
 90
       50
176
     1
 90
       50
176
     1
290
     0
176
     1
 90
       50
176
     1
 62
   256
176
     0
 40
1.0
176
     0
 90
        2
176
     1
  1
strokes_ogs.tif
176
     1
290
     0
176
     1
 40
1.0
176
     1
 40
1.0
176
     1
  0
VISUALSTYLE
  5
31
102
{ACAD_REACTORS
330
29
102
}
330
29
100
AcDbVisualStyle
  2
Hidden
 70
     6
177
     3
291
     0
 70
    58
 90
        1
176
     1
 90
        2
176
     1
 90
        2
176
     1
 90
        0
176
     1
 40
0.6
176
     1
 40
30.0
176
     1
 62
     7
420
 16777215
176
     1
 90
        2
176
     1
 90
        2
176
     1
 62
     7
176
     1
 62
   257
176
     1
 90
        2
176
     1
 90
        1
176
     1
 40
40.0
176
     1
 90
        0
176
     1
 62
   257
176
     1
 40
1.0
176
     1
 90
        1
176
     1
 90
        6
176
     1
 90
        2
176
     1
 62
     7
176
     1
 90
        3
176
     1
 90
        0
176
     1
 90
        0
176
     1
290
     0
176
     1
 90
        1
176
     1
 40
0.0
176
     1
 90
        0
176
     1
290
     0
176
     1
290
     1
176
     1
290
     1
176
     1
290
     0
176
     1
290
     0
176
     1
290
     0
176
     1
290
     0
176
     1
290
     0
176
     1
290
     0
176
     1
 90
       50
176
     1
 40
0.0
176
     1
 40
1.0
176
     1
 90
        0
176
     1
 62
    18
420
        0
176
     1
 90
       50
176
     1
 90
        3
176
     1
 62
     5
420
      255
176
     1
290
     0
176
     1
 90
       50
176
     1
 90
       50
176
     1
 90
       50
176
     1
290
     0
176
     1
 90
       50
176
     1
 62
   256
176
     0
 40
1.0
176
     0
 90
        2
176
     1
  1
strokes_ogs.tif
176
     1
290
     0
176
     1
 40
1.0
176
     1
 40
1.0
176
     1
  0
VISUALSTYLE
  5
3F
102
{ACAD_REACTORS
330
29
102
}
330
29
100
AcDbVisualStyle
  2
JitterOff
 70
    20
177
     3
291
     1
 70
    58
 90
        2
176
     0
 90
        2
176
     0
 90
        0
176
     0
 90
        0
176
     0
 40
0.6
176
     0
 40
30.0
176
     0
 62
     7
420
 16777215
176
     0
 90
        1
176
     0
 90
        4
176
     0
 62
     7
176
     0
 62
   257
176
     0
 90
        1
176
     0
 90
        1
176
     0
 40
1.0
176
     0
 90
       10
176
     2
 62
     7
176
     0
 40
1.0
176
     0
 90
        1
176
     0
 90
        6
176
     0
 90
        2
176
     0
 62
     7
176
     0
 90
        5
176
     0
 90
        0
176
     0
 90
        0
176
     0
290
     0
176
     0
 90
        1
176
     0
 40
0.0
176
     0
 90
        0
176
     0
290
     0
176
     0
290
     1
176
     0
290
     1
176
     0
290
     0
176
     0
290
     0
176
     0
290
     0
176
     0
290
     0
176
     0
290
     0
176
     0
290
     0
176
     0
 90
       50
176
     0
 40
0.0
176
     0
 40
1.0
176
     0
 90
        0
176
     0
 62
    18
420
        0
176
     0
 90
       50
176
     0
 90
        3
176
     0
 62
     5
420
      255
176
     0
290
     0
176
     0
 90
       50
176
     0
 90
       50
176
     0
 90
       50
176
     0
290
     0
176
     0
 90
       50
176
     0
 62
   256
176
     0
 40
1.0
176
     0
 90
        2
176
     0
  1
strokes_ogs.tif
176
     0
290
     0
176
     0
 40
1.0
176
     0
 40
1.0
176
     0
  0
VISUALSTYLE
  5
37
102
{ACAD_REACTORS
330
29
102
}
330
29
100
AcDbVisualStyle
  2
Linepattern
 70
    14
177
     3
291
     1
 70
    58
 90
        2
176
     1
 90
        2
176
     1
 90
        0
176
     1
 90
        0
176
     1
 40
0.6
176
     1
 40
30.0
176
     1
 62
     7
420
 16777215
176
     1
 90
        1
176
     1
 90
        4
176
     1
 62
     7
176
     1
 62
   257
176
     1
 90
        7
176
     1
 90
        7
176
     1
 40
1.0
176
     1
 90
        8
176
     1
 62
     7
176
     1
 40
1.0
176
     1
 90
        1
176
     1
 90
        6
176
     1
 90
        2
176
     1
 62
     7
176
     1
 90
        5
176
     1
 90
        0
176
     1
 90
        0
176
     1
290
     0
176
     1
 90
        1
176
     1
 40
0.0
176
     1
 90
        0
176
     1
290
     0
176
     1
290
     1
176
     1
290
     1
176
     1
290
     0
176
     1
290
     0
176
     1
290
     0
176
     1
290
     0
176
     1
290
     0
176
     1
290
     0
176
     1
 90
       50
176
     1
 40
0.0
176
     1
 40
1.0
176
     1
 90
        0
176
     1
 62
    18
420
        0
176
     1
 90
       50
176
     1
 90
        3
176
     1
 62
     5
420
      255
176
     1
290
     0
176
     1
 90
       50
176
     1
 90
       50
176
     1
 90
       50
176
     1
290
     0
176
     1
 90
       50
176
     1
 62
   256
176
     0
 40
1.0
176
     0
 90
        2
176
     1
  1
strokes_ogs.tif
176
     1
290
     0
176
     1
 40
1.0
176
     1
 40
1.0
176
     1
  0
VISUALSTYLE
  5
40
102
{ACAD_REACTORS
330
29
102
}
330
29
100
AcDbVisualStyle
  2
OverhangOff
 70
    21
177
     3
291
     1
 70
    58
 90
        2
176
     0
 90
        2
176
     0
 90
        0
176
     0
 90
        0
176
     0
 40
0.6
176
     0
 40
30.0
176
     0
 62
     7
420
 16777215
176
     0
 90
        1
176
     0
 90
        4
176
     0
 62
     7
176
     0
 62
   257
176
     0
 90
        1
176
     0
 90
        1
176
     0
 40
1.0
176
     0
 90
        9
176
     2
 62
     7
176
     0
 40
1.0
176
     0
 90
        1
176
     0
 90
        6
176
     0
 90
        2
176
     0
 62
     7
176
     0
 90
        5
176
     0
 90
        0
176
     0
 90
        0
176
     0
290
     0
176
     0
 90
        1
176
     0
 40
0.0
176
     0
 90
        0
176
     0
290
     0
176
     0
290
     1
176
     0
290
     1
176
     0
290
     0
176
     0
290
     0
176
     0
290
     0
176
     0
290
     0
176
     0
290
     0
176
     0
290
     0
176
     0
 90
       50
176
     0
 40
0.0
176
     0
 40
1.0
176
     0
 90
        0
176
     0
 62
    18
420
        0
176
     0
 90
       50
176
     0
 90
        3
176
     0
 62
     5
420
      255
176
     0
290
     0
176
     0
 90
       50
176
     0
 90
       50
176
     0
 90
       50
176
     0
290
     0
176
     0
 90
       50
176
     0
 62
   256
176
     0
 40
1.0
176
     0
 90
        2
176
     0
  1
strokes_ogs.tif
176
     0
290
     0
176
     0
 40
1.0
176
     0
 40
1.0
176
     0
  0
VISUALSTYLE
  5
33
102
{ACAD_REACTORS
330
29
102
}
330
29
100
AcDbVisualStyle
  2
Realistic
 70
     8
177
     3
291
     0
 70
    58
 90
        2
176
     1
 90
        3
176
     1
 90
        0
176
     1
 90
        2
176
     1
 40
0.6
176
     1
 40
30.0
176
     1
 62
     7
420
 16777215
176
     1
 90
        0
176
     1
 90
        0
176
     1
 62
     7
176
     1
 62
   257
176
     1
 90
        1
176
     1
 90
        1
176
     1
 40
1.0
176
     1
 90
        8
176
     1
 62
   257
176
     1
 40
1.0
176
     1
 90
        1
176
     1
 90
        6
176
     1
 90
        2
176
     1
 62
     7
176
     1
 90
        3
176
     1
 90
        0
176
     1
 90
        0
176
     1
290
     0
176
     1
 90
       13
176
     1
 40
0.0
176
     1
 90
        0
176
     1
290
     0
176
     1
290
     1
176
     1
290
     1
176
     1
290
     0
176
     1
290
     0
176
     1
290
     0
176
     1
290
     0
176
     1
290
     0
176
     1
290
     0
176
     1
 90
       50
176
     1
 40
0.0
176
     1
 40
1.0
176
     1
 90
        0
176
     1
 62
    18
420
        0
176
     1
 90
       50
176
     1
 90
        3
176
     1
 62
     5
420
      255
176
     1
290
     0
176
     1
 90
       50
176
     1
 90
       50
176
     1
 90
       50
176
     1
290
     0
176
     1
 90
       50
176
     1
 62
   256
176
     0
 40
1.0
176
     0
 90
        2
176
     1
  1
strokes_ogs.tif
176
     1
290
     0
176
     1
 40
1.0
176
     1
 40
1.0
176
     1
  0
VISUALSTYLE
  5
3E
102
{ACAD_REACTORS
330
29
102
}
330
29
100
AcDbVisualStyle
  2
Shaded
 70
    27
177
     3
291
     0
 70
    58
 90
        2
176
     1
 90
        2
176
     1
 90
        1
176
     1
 90
        2
176
     1
 40
0.6
176
     1
 40
30.0
176
     1
 62
     7
420
 16777215
176
     1
 90
        0
176
     1
 90
        4
176
     1
 62
     7
176
     1
 62
   257
176
     1
 90
        1
176
     1
 90
        1
176
     1
 40
1.0
176
     1
 90
        8
176
     1
 62
   257
176
     1
 40
1.0
176
     1
 90
        1
176
     1
 90
        6
176
     1
 90
        2
176
     1
 62
     8
420
  7895160
176
     1
 90
        3
176
     1
 90
        0
176
     1
 90
        0
176
     1
290
     0
176
     1
 90
        5
176
     1
 40
0.0
176
     1
 90
        0
176
     1
290
     0
176
     1
290
     1
176
     1
290
     1
176
     1
290
     0
176
     1
290
     0
176
     1
290
     0
176
     1
290
     0
176
     1
290
     0
176
     1
290
     0
176
     1
 90
       50
176
     1
 40
0.0
176
     1
 40
1.0
176
     1
 90
        0
176
     1
 62
    18
420
        0
176
     1
 90
       50
176
     1
 90
        3
176
     1
 62
     5
420
      255
176
     1
290
     0
176
     1
 90
       50
176
     1
 90
       50
176
     1
 90
       50
176
     1
290
     0
176
     1
 90
       50
176
     1
 62
   256
176
     0
 40
1.0
176
     0
 90
        2
176
     1
  1
strokes_ogs.tif
176
     1
290
     0
176
     1
 40
1.0
176
     1
 40
1.0
176
     1
  0
VISUALSTYLE
  5
3D
102
{ACAD_REACTORS
330
29
102
}
330
29
100
AcDbVisualStyle
  2
Shaded with edges
 70
    26
177
     3
291
     0
 70
    58
 90
        2
176
     1
 90
        2
176
     1
 90
        1
176
     1
 90
        2
176
     1
 40
0.6
176
     1
 40
30.0
176
     1
 62
     7
420
 16777215
176
     1
 90
        1
176
     1
 90
        2
176
     1
 62
     7
176
     1
 62
   257
176
     1
 90
        2
176
     1
 90
        1
176
     1
 40
1.0
176
     1
 90
        8
176
     1
 62
   257
176
     1
 40
1.0
176
     1
 90
        1
176
     1
 90
        6
176
     1
 90
        2
176
     1
 62
     7
176
     1
 90
        3
176
     1
 90
        0
176
     1
 90
        0
176
     1
290
     0
176
     1
 90
        5
176
     1
 40
0.0
176
     1
 90
        0
176
     1
290
     0
176
     1
290
     1
176
     1
290
     1
176
     1
290
     0
176
     1
290
     0
176
     1
290
     0
176
     1
290
     0
176
     1
290
     0
176
     1
290
     0
176
     1
 90
       50
176
     1
 40
0.0
176
     1
 40
1.0
176
     1
 90
        0
176
     1
 62
    18
420
        0
176
     1
 90
       50
176
     1
 90
        3
176
     1
 62
     5
420
      255
176
     1
290
     0
176
     1
 90
       50
176
     1
 90
       50
176
     1
 90
       50
176
     1
290
     0
176
     1
 90
       50
176
     1
 62
   256
176
     0
 40
1.0
176
     0
 90
        2
176
     1
  1
strokes_ogs.tif
176
     1
290
     0
176
     1
 40
1.0
176
     1
 40
1.0
176
     1
  0
VISUALSTYLE
  5
3A
102
{ACAD_REACTORS
330
29
102
}
330
29
100
AcDbVisualStyle
  2
Shades of Gray
 70
    23
177
     3
291
     0
 70
    58
 90
        2
176
     1
 90
        2
176
     1
 90
        3
176
     1
 90
        0
176
     1
 40
0.6
176
     1
 40
30.0
176
     1
 62
     7
420
 16777215
176
     1
 90
        2
176
     1
 90
        2
176
     1
 62
     7
176
     1
 62
     7
176
     1
 90
        1
176
     1
 90
        1
176
     1
 40
40.0
176
     1
 90
        8
176
     1
 62
     7
176
     1
 40
1.0
176
     1
 90
        1
176
     1
 90
        6
176
     1
 90
        2
176
     1
 62
     7
176
     1
 90
        3
176
     1
 90
        0
176
     1
 90
        0
176
     1
290
     0
176
     1
 90
        1
176
     1
 40
0.0
176
     1
 90
        0
176
     1
290
     0
176
     1
290
     1
176
     1
290
     1
176
     1
290
     0
176
     1
290
     0
176
     1
290
     0
176
     1
290
     0
176
     1
290
     0
176
     1
290
     0
176
     1
 90
       50
176
     1
 40
0.0
176
     1
 40
1.0
176
     1
 90
        0
176
     1
 62
    18
420
        0
176
     1
 90
       50
176
     1
 90
        3
176
     1
 62
     5
420
      255
176
     1
290
     0
176
     1
 90
       50
176
     1
 90
       50
176
     1
 90
       50
176
     1
290
     0
176
     1
 90
       50
176
     1
 62
   256
176
     0
 40
1.0
176
     0
 90
        2
176
     1
  1
strokes_ogs.tif
176
     1
290
     0
176
     1
 40
1.0
176
     1
 40
1.0
176
     1
  0
VISUALSTYLE
  5
3B
102
{ACAD_REACTORS
330
29
102
}
330
29
100
AcDbVisualStyle
  2
Sketchy
 70
    24
177
     3
291
     0
 70
    58
 90
        1
176
     1
 90
        2
176
     1
 90
        2
176
     1
 90
        0
176
     1
 40
0.6
176
     1
 40
30.0
176
     1
 62
     7
420
 16777215
176
     1
 90
        2
176
     1
 90
        2
176
     1
 62
     7
176
     1
 62
     7
176
     1
 90
        1
176
     1
 90
        1
176
     1
 40
40.0
176
     1
 90
       11
176
     1
 62
     7
176
     1
 40
1.0
176
     1
 90
        1
176
     1
 90
        6
176
     1
 90
        2
176
     1
 62
     7
176
     1
 90
        6
176
     1
 90
        0
176
     1
 90
        0
176
     1
290
     0
176
     1
 90
        1
176
     1
 40
0.0
176
     1
 90
        0
176
     1
290
     0
176
     1
290
     1
176
     1
290
     1
176
     1
290
     0
176
     1
290
     0
176
     1
290
     0
176
     1
290
     0
176
     1
290
     0
176
     1
290
     0
176
     1
 90
       50
176
     1
 40
0.0
176
     1
 40
1.0
176
     1
 90
        0
176
     1
 62
    18
420
        0
176
     1
 90
       50
176
     1
 90
        3
176
     1
 62
     5
420
      255
176
     1
290
     0
176
     1
 90
       50
176
     1
 90
       50
176
     1
 90
       50
176
     1
290
     0
176
     1
 90
       50
176
     1
 62
   256
176
     0
 40
1.0
176
     0
 90
        2
176
     1
  1
strokes_ogs.tif
176
     1
290
     0
176
     1
 40
1.0
176
     1
 40
1.0
176
     1
  0
VISUALSTYLE
  5
36
102
{ACAD_REACTORS
330
29
102
}
330
29
100
AcDbVisualStyle
  2
Thicken
 70
    13
177
     3
291
     1
 70
    58
 90
        2
176
     1
 90
        2
176
     1
 90
        0
176
     1
 90
        0
176
     1
 40
0.6
176
     1
 40
30.0
176
     1
 62
     7
420
 16777215
176
     1
 90
        1
176
     1
 90
        4
176
     1
 62
     7
176
     1
 62
   257
176
     1
 90
        1
176
     1
 90
        1
176
     1
 40
1.0
176
     1
 90
       12
176
     1
 62
     7
176
     1
 40
1.0
176
     1
 90
        1
176
     1
 90
        6
176
     1
 90
        2
176
     1
 62
     7
176
     1
 90
        5
176
     1
 90
        0
176
     1
 90
        0
176
     1
290
     0
176
     1
 90
        1
176
     1
 40
0.0
176
     1
 90
        0
176
     1
290
     0
176
     1
290
     1
176
     1
290
     1
176
     1
290
     0
176
     1
290
     0
176
     1
290
     0
176
     1
290
     0
176
     1
290
     0
176
     1
290
     0
176
     1
 90
       50
176
     1
 40
0.0
176
     1
 40
1.0
176
     1
 90
        0
176
     1
 62
    18
420
        0
176
     1
 90
       50
176
     1
 90
        3
176
     1
 62
     5
420
      255
176
     1
290
     0
176
     1
 90
       50
176
     1
 90
       50
176
     1
 90
       50
176
     1
290
     0
176
     1
 90
       50
176
     1
 62
   256
176
     0
 40
1.0
176
     0
 90
        2
176
     1
  1
strokes_ogs.tif
176
     1
290
     0
176
     1
 40
1.0
176
     1
 40
1.0
176
     1
  0
VISUALSTYLE
  5
30
102
{ACAD_REACTORS
330
29
102
}
330
29
100
AcDbVisualStyle
  2
Wireframe
 70
     5
177
     3
291
     0
 70
    58
 90
        0
176
     1
 90
        2
176
     1
 90
        0
176
     1
 90
        0
176
     1
 40
0.6
176
     1
 40
30.0
176
     1
 62
     7
420
 16777215
176
     1
 90
        1
176
     1
 90
        4
176
     1
 62
     7
176
     1
 62
   257
176
     1
 90
        1
176
     1
 90
        1
176
     1
 40
1.0
176
     1
 90
        0
176
     1
 62
   257
176
     1
 40
1.0
176
     1
 90
        1
176
     1
 90
        6
176
     1
 90
        2
176
     1
 62
     7
176
     1
 90
        3
176
     1
 90
        0
176
     1
 90
        0
176
     1
290
     0
176
     1
 90
        1
176
     1
 40
0.0
176
     1
 90
        0
176
     1
290
     0
176
     1
290
     1
176
     1
290
     1
176
     1
290
     0
176
     1
290
     0
176
     1
290
     0
176
     1
290
     0
176
     1
290
     0
176
     1
290
     0
176
     1
 90
       50
176
     1
 40
0.0
176
     1
 40
1.0
176
     1
 90
        0
176
     1
 62
    18
420
        0
176
     1
 90
       50
176
     1
 90
        3
176
     1
 62
     5
420
      255
176
     1
290
     0
176
     1
 90
       50
176
     1
 90
       50
176
     1
 90
       50
176
     1
290
     0
176
     1
 90
       50
176
     1
 62
   256
176
     0
 40
1.0
176
     0
 90
        2
176
     1
  1
strokes_ogs.tif
176
     1
290
     0
176
     1
 40
1.0
176
     1
 40
1.0
176
     1
  0
VISUALSTYLE
  5
3C
102
{ACAD_REACTORS
330
29
102
}
330
29
100
AcDbVisualStyle
  2
X-Ray
 70
    25
177
     3
291
     0
 70
    58
 90
        2
176
     1
 90
        2
176
     1
 90
        1
176
     1
 90
        1
176
     1
 40
0.5
176
     1
 40
30.0
176
     1
 62
     7
420
 16777215
176
     1
 90
        1
176
     1
 90
        0
176
     1
 62
     7
176
     1
 62
   257
176
     1
 90
        1
176
     1
 90
        1
176
     1
 40
1.0
176
     1
 90
        8
176
     1
 62
     7
176
     1
 40
1.0
176
     1
 90
        1
176
     1
 90
        6
176
     1
 90
        2
176
     1
 62
     7
176
     1
 90
        3
176
     1
 90
        0
176
     1
 90
        0
176
     1
290
     0
176
     1
 90
       13
176
     1
 40
0.0
176
     1
 90
        0
176
     1
290
     0
176
     1
290
     1
176
     1
290
     1
176
     1
290
     0
176
     1
290
     0
176
     1
290
     0
176
     1
290
     0
176
     1
290
     0
176
     1
290
     0
176
     1
 90
       50
176
     1
 40
0.0
176
     1
 40
1.0
176
     1
 90
        0
176
     1
 62
    18
420
        0
176
     1
 90
       50
176
     1
 90
        3
176
     1
 62
     5
420
      255
176
     1
290
     0
176
     1
 90
       50
176
     1
 90
       50
176
     1
 90
       50
176
     1
290
     0
176
     1
 90
       50
176
     1
 62
   256
176
     0
 40
1.0
176
     0
 90
        2
176
     1
  1
strokes_ogs.tif
176
     1
290
     0
176
     1
 40
1.0
176
     1
 40
1.0
176
     1
  0
DICTIONARYVAR
  5
1ED
102
{ACAD_REACTORS
330
1E8
102
}
330
1E8
100
DictionaryVariables
280
     0
  1
1:1
  0
DICTIONARYVAR
  5
1EA
102
{ACAD_REACTORS
330
1E8
102
}
330
1E8
100
DictionaryVariables
280
     0
  1
STANDARD
  0
DICTIONARYVAR
  5
1E9
102
{ACAD_REACTORS
330
1E8
102
}
330
1E8
100
DictionaryVariables
280
     0
  1
STANDARD
  0
DICTIONARYVAR
  5
1EB
102
{ACAD_REACTORS
330
1E8
102
}
330
1E8
100
DictionaryVariables
280
     0
  1
Imperial24
  0
DICTIONARYVAR
  5
1EC
102
{ACAD_REACTORS
330
1E8
102
}
330
1E8
100
DictionaryVariables
280
     0
  1
Imperial24
  0
DICTIONARY
  5
1A
330
19
100
AcDbDictionary
280
     1
281
     1
  3
BUMPTILE
360
1C
  3
DIFFUSETILE
360
1B
  3
OPACITYTILE
360
1F
  3
REFLECTIONTILE
360
1E
  3
REFRACTIONTILE
360
20
  3
SPECULARTILE
360
1D
  0
DICTIONARY
  5
12
330
11
100
AcDbDictionary
280
     1
281
     1
  3
BUMPTILE
360
14
  3
DIFFUSETILE
360
13
  3
OPACITYTILE
360
17
  3
REFLECTIONTILE
360
16
  3
REFRACTIONTILE
360
18
  3
SPECULARTILE
360
15
  0
DICTIONARY
  5
22
330
21
100
AcDbDictionary
280
     1
281
     1
  3
BUMPTILE
360
24
  3
DIFFUSETILE
360
23
  3
OPACITYTILE
360
27
  3
REFLECTIONTILE
360
26
  3
REFRACTIONTILE
360
28
  3
SPECULARTILE
360
25
  0
DICTIONARY
  5
1EE
330
65
100
AcDbDictionary
280
     1
281
     1
  3
ACAD_ROUNDTRIP_2008_TABLESTYLE_CELLSTYLEMAP
360
1EF
  0
XRECORD
  5
1C
102
{ACAD_REACTORS
330
1A
102
}
330
1A
100
AcDbXrecord
280
     1
270
     1
271
     1
  0
XRECORD
  5
1B
102
{ACAD_REACTORS
330
1A
102
}
330
1A
100
AcDbXrecord
280
     1
270
     1
271
     1
  0
XRECORD
  5
1F
102
{ACAD_REACTORS
330
1A
102
}
330
1A
100
AcDbXrecord
280
     1
270
     1
271
     1
  0
XRECORD
  5
1E
102
{ACAD_REACTORS
330
1A
102
}
330
1A
100
AcDbXrecord
280
     1
270
     1
271
     1
  0
XRECORD
  5
20
102
{ACAD_REACTORS
330
1A
102
}
330
1A
100
AcDbXrecord
280
     1
270
     1
271
     1
  0
XRECORD
  5
1D
102
{ACAD_REACTORS
330
1A
102
}
330
1A
100
AcDbXrecord
280
     1
270
     1
271
     1
  0
XRECORD
  5
14
102
{ACAD_REACTORS
330
12
102
}
330
12
100
AcDbXrecord
280
     1
270
     1
271
     1
  0
XRECORD
  5
13
102
{ACAD_REACTORS
330
12
102
}
330
12
100
AcDbXrecord
280
     1
270
     1
271
     1
  0
XRECORD
  5
17
102
{ACAD_REACTORS
330
12
102
}
330
12
100
AcDbXrecord
280
     1
270
     1
271
     1
  0
XRECORD
  5
16
102
{ACAD_REACTORS
330
12
102
}
330
12
100
AcDbXrecord
280
     1
270
     1
271
     1
  0
XRECORD
  5
18
102
{ACAD_REACTORS
330
12
102
}
330
12
100
AcDbXrecord
280
     1
270
     1
271
     1
  0
XRECORD
  5
15
102
{ACAD_REACTORS
330
12
102
}
330
12
100
AcDbXrecord
280
     1
270
     1
271
     1
  0
XRECORD
  5
24
102
{ACAD_REACTORS
330
22
102
}
330
22
100
AcDbXrecord
280
     1
270
     1
271
     1
  0
XRECORD
  5
23
102
{ACAD_REACTORS
330
22
102
}
330
22
100
AcDbXrecord
280
     1
270
     1
271
     1
  0
XRECORD
  5
27
102
{ACAD_REACTORS
330
22
102
}
330
22
100
AcDbXrecord
280
     1
270
     1
271
     1
  0
XRECORD
  5
26
102
{ACAD_REACTORS
330
22
102
}
330
22
100
AcDbXrecord
280
     1
270
     1
271
     1
  0
XRECORD
  5
28
102
{ACAD_REACTORS
330
22
102
}
330
22
100
AcDbXrecord
280
     1
270
     1
271
     1
  0
XRECORD
  5
25
102
{ACAD_REACTORS
330
22
102
}
330
22
100
AcDbXrecord
280
     1
270
     1
271
     1
  0
CELLSTYLEMAP
  5
1EF
102
{ACAD_REACTORS
330
1EE
102
}
330
1EE
100
AcDbCellStyleMap
 90
        3
300
CELLSTYLE
  1
TABLEFORMAT_BEGIN
 90
        5
170
     1
 91
        0
 92
    32768
 62
   257
 93
        1
300
CONTENTFORMAT
  1
CONTENTFORMAT_BEGIN
 90
        0
 91
        0
 92
      512
 93
        0
300

 40
0.0
140
1.0
 94
        5
 62
     0
340
55
144
0.25
309
CONTENTFORMAT_END
171
     0
 94
        0
309
TABLEFORMAT_END
  1
CELLSTYLE_BEGIN
 90
        1
 91
        1
300
_TITLE
309
CELLSTYLE_END
300
CELLSTYLE
  1
TABLEFORMAT_BEGIN
 90
        5
170
     1
 91
        0
 92
        0
 62
   257
 93
        1
300
CONTENTFORMAT
  1
CONTENTFORMAT_BEGIN
 90
        0
 91
        0
 92
      512
 93
        0
300

 40
0.0
140
1.0
 94
        5
 62
     0
340
55
144
0.18
309
CONTENTFORMAT_END
171
     0
 94
        0
309
TABLEFORMAT_END
  1
CELLSTYLE_BEGIN
 90
        2
 91
        1
300
_HEADER
309
CELLSTYLE_END
300
CELLSTYLE
  1
TABLEFORMAT_BEGIN
 90
        5
170
     1
 91
        0
 92
        0
 62
   257
 93
        1
300
CONTENTFORMAT
  1
CONTENTFORMAT_BEGIN
 90
        0
 91
        0
 92
      512
 93
        0
300

 40
0.0
140
1.0
 94
        2
 62
     0
340
55
144
0.18
309
CONTENTFORMAT_END
171
     0
 94
        0
309
TABLEFORMAT_END
  1
CELLSTYLE_BEGIN
 90
        3
 91
        2
300
_DATA
309
CELLSTYLE_END
  0
ENDSEC
  0
EOF
