  0
SECTION
  2
HEADER
  9
$ACADVER
  1
AC1032
  9
$ACADMAINTVER
 90
      155
  9
$DWGCODEPAGE
  3
ANSI_1251
  9
$REQUIREDVERSIONS
160
                 0
  9
$INSBASE
 10
0.0
 20
0.0
 30
0.0
  9
$EXTMIN
 10
1.000000000000000E+20
 20
1.000000000000000E+20
 30
1.000000000000000E+20
  9
$EXTMAX
 10
-1.000000000000000E+20
 20
-1.000000000000000E+20
 30
-1.000000000000000E+20
  9
$LIMMIN
 10
0.0
 20
0.0
  9
$LIMMAX
 10
12.0
 20
9.0
  9
$ORTHOMODE
 70
     0
  9
$REGENMODE
 70
     1
  9
$FILLMODE
 70
     1
  9
$QTEXTMODE
 70
     0
  9
$MIRRTEXT
 70
     0
  9
$LTSCALE
 40
1.0
  9
$ATTMODE
 70
     1
  9
$TEXTSIZE
 40
0.2
  9
$TRACEWID
 40
0.05
  9
$TEXTSTYLE
  7
Standard
  9
$CLAYER
  8
0
  9
$CELTYPE
  6
ByLayer
  9
$CECOLOR
 62
   256
  9
$CELTSCALE
 40
1.0
  9
$DISPSILH
 70
     0
  9
$DIMSCALE
 40
1.0
  9
$DIMASZ
 40
0.18
  9
$DIMEXO
 40
0.0625
  9
$DIMDLI
 40
0.38
  9
$DIMRND
 40
0.0
  9
$DIMDLE
 40
0.0
  9
$DIMEXE
 40
0.18
  9
$DIMTP
 40
0.0
  9
$DIMTM
 40
0.0
  9
$DIMTXT
 40
0.18
  9
$DIMCEN
 40
0.09
  9
$DIMTSZ
 40
0.0
  9
$DIMTOL
 70
     0
  9
$DIMLIM
 70
     0
  9
$DIMTIH
 70
     1
  9
$DIMTOH
 70
     1
  9
$DIMSE1
 70
     0
  9
$DIMSE2
 70
     0
  9
$DIMTAD
 70
     0
  9
$DIMZIN
 70
     0
  9
$DIMBLK
  1

  9
$DIMASO
 70
     1
  9
$DIMSHO
 70
     1
  9
$DIMPOST
  1

  9
$DIMAPOST
  1

  9
$DIMALT
 70
     0
  9
$DIMALTD
 70
     2
  9
$DIMALTF
 40
25.4
  9
$DIMLFAC
 40
1.0
  9
$DIMTOFL
 70
     0
  9
$DIMTVP
 40
0.0
  9
$DIMTIX
 70
     0
  9
$DIMSOXD
 70
     0
  9
$DIMSAH
 70
     0
  9
$DIMBLK1
  1

  9
$DIMBLK2
  1

  9
$DIMSTYLE
  2
Standard
  9
$DIMCLRD
 70
     0
  9
$DIMCLRE
 70
     0
  9
$DIMCLRT
 70
     0
  9
$DIMTFAC
 40
1.0
  9
$DIMGAP
 40
0.09
  9
$DIMJUST
 70
     0
  9
$DIMSD1
 70
     0
  9
$DIMSD2
 70
     0
  9
$DIMTOLJ
 70
     1
  9
$DIMTZIN
 70
     0
  9
$DIMALTZ
 70
     0
  9
$DIMALTTZ
 70
     0
  9
$DIMUPT
 70
     0
  9
$DIMDEC
 70
     4
  9
$DIMTDEC
 70
     4
  9
$DIMALTU
 70
     2
  9
$DIMALTTD
 70
     2
  9
$DIMTXSTY
  7
Standard
  9
$DIMAUNIT
 70
     0
  9
$DIMADEC
 70
     0
  9
$DIMALTRND
 40
0.0
  9
$DIMAZIN
 70
     0
  9
$DIMDSEP
 70
    46
  9
$DIMATFIT
 70
     3
  9
$DIMFRAC
 70
     0
  9
$DIMLDRBLK
  1

  9
$DIMLUNIT
 70
     2
  9
$DIMLWD
 70
    -2
  9
$DIMLWE
 70
    -2
  9
$DIMTMOVE
 70
     0
  9
$DIMFXL
 40
1.0
  9
$DIMFXLON
 70
     0
  9
$DIMJOGANG
 40
0.7853981633974483
  9
$DIMTFILL
 70
     0
  9
$DIMTFILLCLR
 70
     0
  9
$DIMARCSYM
 70
     0
  9
$DIMLTYPE
  6

  9
$DIMLTEX1
  6

  9
$DIMLTEX2
  6

  9
$DIMTXTDIRECTION
 70
     0
  9
$LUNITS
 70
     2
  9
$LUPREC
 70
     4
  9
$SKETCHINC
 40
0.1
  9
$FILLETRAD
 40
0.0
  9
$AUNITS
 70
     0
  9
$AUPREC
 70
     0
  9
$MENU
  1
.
  9
$ELEVATION
 40
0.0
  9
$PELEVATION
 40
0.0
  9
$THICKNESS
 40
0.0
  9
$LIMCHECK
 70
     0
  9
$CHAMFERA
 40
0.0
  9
$CHAMFERB
 40
0.0
  9
$CHAMFERC
 40
0.0
  9
$CHAMFERD
 40
0.0
  9
$SKPOLY
 70
     0
  9
$TDCREATE
 40
2460539.668483796
  9
$TDUCREATE
 40
2460539.543483796
  9
$TDUPDATE
 40
2460539.668483796
  9
$TDUUPDATE
 40
2460539.543483796
  9
$TDINDWG
 40
0.0000000000
  9
$TDUSRTIMER
 40
0.0000000000
  9
$USRTIMER
 70
     1
  9
$ANGBASE
 50
0.0
  9
$ANGDIR
 70
     0
  9
$PDMODE
 70
     0
  9
$PDSIZE
 40
0.0
  9
$PLINEWID
 40
0.0
  9
$SPLFRAME
 70
     0
  9
$SPLINETYPE
 70
     6
  9
$SPLINESEGS
 70
     8
  9
$HANDSEED
  5
31D
  9
$SURFTAB1
 70
     6
  9
$SURFTAB2
 70
     6
  9
$SURFTYPE
 70
     6
  9
$SURFU
 70
     6
  9
$SURFV
 70
     6
  9
$UCSBASE
  2

  9
$UCSNAME
  2

  9
$UCSORG
 10
0.0
 20
0.0
 30
0.0
  9
$UCSXDIR
 10
1.0
 20
0.0
 30
0.0
  9
$UCSYDIR
 10
0.0
 20
1.0
 30
0.0
  9
$UCSORTHOREF
  2

  9
$UCSORTHOVIEW
 70
     0
  9
$UCSORGTOP
 10
0.0
 20
0.0
 30
0.0
  9
$UCSORGBOTTOM
 10
0.0
 20
0.0
 30
0.0
  9
$UCSORGLEFT
 10
0.0
 20
0.0
 30
0.0
  9
$UCSORGRIGHT
 10
0.0
 20
0.0
 30
0.0
  9
$UCSORGFRONT
 10
0.0
 20
0.0
 30
0.0
  9
$UCSORGBACK
 10
0.0
 20
0.0
 30
0.0
  9
$PUCSBASE
  2

  9
$PUCSNAME
  2

  9
$PUCSORG
 10
0.0
 20
0.0
 30
0.0
  9
$PUCSXDIR
 10
1.0
 20
0.0
 30
0.0
  9
$PUCSYDIR
 10
0.0
 20
1.0
 30
0.0
  9
$PUCSORTHOREF
  2

  9
$PUCSORTHOVIEW
 70
     0
  9
$PUCSORGTOP
 10
0.0
 20
0.0
 30
0.0
  9
$PUCSORGBOTTOM
 10
0.0
 20
0.0
 30
0.0
  9
$PUCSORGLEFT
 10
0.0
 20
0.0
 30
0.0
  9
$PUCSORGRIGHT
 10
0.0
 20
0.0
 30
0.0
  9
$PUCSORGFRONT
 10
0.0
 20
0.0
 30
0.0
  9
$PUCSORGBACK
 10
0.0
 20
0.0
 30
0.0
  9
$USERI1
 70
     0
  9
$USERI2
 70
     0
  9
$USERI3
 70
     0
  9
$USERI4
 70
     0
  9
$USERI5
 70
     0
  9
$USERR1
 40
0.0
  9
$USERR2
 40
0.0
  9
$USERR3
 40
0.0
  9
$USERR4
 40
0.0
  9
$USERR5
 40
0.0
  9
$WORLDVIEW
 70
     1
  9
$SHADEDGE
 70
     3
  9
$SHADEDIF
 70
    70
  9
$TILEMODE
 70
     1
  9
$MAXACTVP
 70
    64
  9
$PINSBASE
 10
0.0
 20
0.0
 30
0.0
  9
$PLIMCHECK
 70
     0
  9
$PEXTMIN
 10
1.000000000000000E+20
 20
1.000000000000000E+20
 30
1.000000000000000E+20
  9
$PEXTMAX
 10
-1.000000000000000E+20
 20
-1.000000000000000E+20
 30
-1.000000000000000E+20
  9
$PLIMMIN
 10
0.0
 20
0.0
  9
$PLIMMAX
 10
12.0
 20
9.0
  9
$UNITMODE
 70
     0
  9
$VISRETAIN
 70
     1
  9
$PLINEGEN
 70
     0
  9
$PSLTSCALE
 70
     1
  9
$TREEDEPTH
 70
  3020
  9
$CMLSTYLE
  2
Standard
  9
$CMLJUST
 70
     0
  9
$CMLSCALE
 40
1.0
  9
$PROXYGRAPHICS
 70
     1
  9
$MEASUREMENT
 70
     0
  9
$CELWEIGHT
370
    -1
  9
$ENDCAPS
280
     0
  9
$JOINSTYLE
280
     0
  9
$LWDISPLAY
290
     1
  9
$INSUNITS
 70
     4
  9
$HYPERLINKBASE
  1

  9
$STYLESHEET
  1

  9
$XEDIT
290
     1
  9
$CEPSNTYPE
380
     0
  9
$PSTYLEMODE
290
     1
  9
$FINGERPRINTGUID
  2
{3AC0A240-01AD-5F4B-B5E1-4F19CFB6E81F}
  9
$VERSIONGUID
  2
{33DA00FC-7D14-E147-BDDF-8B45663235FE}
  9
$EXTNAMES
290
     1
  9
$PSVPSCALE
 40
0.0
  9
$OLESTARTUP
290
     0
  9
$SORTENTS
280
   127
  9
$INDEXCTL
280
     0
  9
$HIDETEXT
280
     1
  9
$XCLIPFRAME
280
     2
  9
$HALOGAP
280
     0
  9
$OBSCOLOR
 70
   257
  9
$OBSLTYPE
280
     0
  9
$INTERSECTIONDISPLAY
280
     0
  9
$INTERSECTIONCOLOR
 70
   257
  9
$DIMASSOC
280
     2
  9
$PROJECTNAME
  1

  9
$CAMERADISPLAY
290
     0
  9
$LENSLENGTH
 40
50.0
  9
$CAMERAHEIGHT
 40
0.0
  9
$STEPSPERSEC
 40
2.0
  9
$STEPSIZE
 40
6.0
  9
$3DDWFPREC
 40
2.0
  9
$PSOLWIDTH
 40
0.25
  9
$PSOLHEIGHT
 40
4.0
  9
$LOFTANG1
 40
1.570796326794896
  9
$LOFTANG2
 40
1.570796326794896
  9
$LOFTMAG1
 40
0.0
  9
$LOFTMAG2
 40
0.0
  9
$LOFTPARAM
 70
     7
  9
$LOFTNORMALS
280
     1
  9
$LATITUDE
 40
37.795
  9
$LONGITUDE
 40
-122.394
  9
$NORTHDIRECTION
 40
0.0
  9
$TIMEZONE
 70
 -8000
  9
$LIGHTGLYPHDISPLAY
280
     1
  9
$TILEMODELIGHTSYNCH
280
     1
  9
$CMATERIAL
347
11
  9
$SOLIDHIST
280
     0
  9
$SHOWHIST
280
     1
  9
$DWFFRAME
280
     2
  9
$DGNFRAME
280
     0
  9
$REALWORLDSCALE
290
     1
  9
$INTERFERECOLOR
 62
     1
  9
$INTERFEREOBJVS
345
33
  9
$INTERFEREVPVS
346
30
  9
$CSHADOW
280
     0
  9
$SHADOWPLANELOCATION
 40
0.0
  0
ENDSEC
  0
SECTION
  2
CLASSES
  0
CLASS
  1
ACDBDICTIONARYWDFLT
  2
AcDbDictionaryWithDefault
  3
ObjectDBX Classes
 90
        0
 91
        1
280
     0
281
     0
  0
CLASS
  1
MATERIAL
  2
AcDbMaterial
  3
ObjectDBX Classes
 90
     1153
 91
        3
280
     0
281
     0
  0
CLASS
  1
VISUALSTYLE
  2
AcDbVisualStyle
  3
ObjectDBX Classes
 90
     4095
 91
       24
280
     0
281
     0
  0
CLASS
  1
SCALE
  2
AcDbScale
  3
ObjectDBX Classes
 90
     1153
 91
       17
280
     0
281
     0
  0
CLASS
  1
TABLESTYLE
  2
AcDbTableStyle
  3
ObjectDBX Classes
 90
     4095
 91
        1
280
     0
281
     0
  0
CLASS
  1
MLEADERSTYLE
  2
AcDbMLeaderStyle
  3
ACDB_MLEADERSTYLE_CLASS
 90
     4095
 91
        1
280
     0
281
     0
  0
CLASS
  1
ACDBSECTIONVIEWSTYLE
  2
AcDbSectionViewStyle
  3
ObjectDBX Classes
 90
     1025
 91
        1
280
     0
281
     0
  0
CLASS
  1
ACDBDETAILVIEWSTYLE
  2
AcDbDetailViewStyle
  3
ObjectDBX Classes
 90
     1025
 91
        1
280
     0
281
     0
  0
CLASS
  1
DICTIONARYVAR
  2
AcDbDictionaryVar
  3
ObjectDBX Classes
 90
        0
 91
        5
280
     0
281
     0
  0
CLASS
  1
CELLSTYLEMAP
  2
AcDbCellStyleMap
  3
ObjectDBX Classes
 90
     1152
 91
        1
280
     0
281
     0
  0
ENDSEC
  0
SECTION
  2
TABLES
  0
TABLE
  2
VPORT
  5
8
330
0
100
AcDbSymbolTable
 70
     1
  0
VPORT
  5
57
330
8
100
AcDbSymbolTableRecord
100
AcDbViewportTableRecord
  2
*Active
 70
     0
 10
0.0
 20
0.0
 11
1.0
 21
1.0
 12
0.0
 22
0.0
 13
0.0
 23
0.0
 14
1.0
 24
1.0
 15
0.0
 25
0.0
 16
0.0
 26
0.0
 36
1.0
 17
105.6535468009907
 27
-147.9782796564918
 37
0.0
 40
214.172459946457
 41
1.00113195111493
 42
50.0
 43
0.0
 44
0.0
 50
0.0
 51
0.0
 71
     0
 72
   100
 73
     1
 74
     0
 75
     1
 76
     0
 77
     0
 78
     0
281
     0
 65
     1
110
0.0
120
0.0
130
0.0
111
1.0
121
0.0
131
0.0
112
0.0
122
1.0
132
0.0
 79
     0
146
0.0
 60
     3
 61
     5
292
     1
282
     1
141
0.0
142
0.0
 63
   250
421
  3355443
  0
ENDTAB
  0
TABLE
  2
LTYPE
  5
5
330
0
100
AcDbSymbolTable
 70
     1
  0
LTYPE
  5
5B
330
5
100
AcDbSymbolTableRecord
100
AcDbLinetypeTableRecord
  2
ByBlock
 70
     0
  3

 72
    65
 73
     0
 40
0.0
  0
LTYPE
  5
5C
330
5
100
AcDbSymbolTableRecord
100
AcDbLinetypeTableRecord
  2
ByLayer
 70
     0
  3

 72
    65
 73
     0
 40
0.0
  0
LTYPE
  5
5D
330
5
100
AcDbSymbolTableRecord
100
AcDbLinetypeTableRecord
  2
Continuous
 70
     0
  3
Solid line
 72
    65
 73
     0
 40
0.0
  0
ENDTAB
  0
TABLE
  2
LAYER
  5
2
330
0
100
AcDbSymbolTable
 70
     4
  0
LAYER
  5
54
330
2
100
AcDbSymbolTableRecord
100
AcDbLayerTableRecord
  2
0
 70
     0
 62
     7
  6
Continuous
370
    -3
390
F
347
21
348
0
  0
LAYER
  5
78
330
2
100
AcDbSymbolTableRecord
100
AcDbLayerTableRecord
  2
Слой 3
 70
     4
 62
     7
  6
Continuous
370
     0
390
F
347
21
348
0
  0
LAYER
  5
7A
330
2
100
AcDbSymbolTableRecord
100
AcDbLayerTableRecord
  2
Слой 1
 70
     0
 62
     7
  6
Continuous
370
     0
390
F
347
21
348
0
  0
LAYER
  5
2D0
330
2
100
AcDbSymbolTableRecord
100
AcDbLayerTableRecord
  2
Слой 2
 70
     0
 62
     7
  6
Continuous
370
     0
390
F
347
21
348
0
  0
ENDTAB
  0
TABLE
  2
STYLE
  5
3
330
0
100
AcDbSymbolTable
 70
     2
  0
STYLE
  5
55
330
3
100
AcDbSymbolTableRecord
100
AcDbTextStyleTableRecord
  2
Standard
 70
     0
 40
0.0
 41
1.0
 50
0.0
 71
     0
 42
0.2
  3
txt
  4

  0
STYLE
  5
5A
330
3
100
AcDbSymbolTableRecord
100
AcDbTextStyleTableRecord
  2
Annotative
 70
     0
 40
0.0
 41
1.0
 50
0.0
 71
     0
 42
0.2
  3
txt
  4

1001
AcadAnnotative
1000
AnnotativeData
1002
{
1070
     1
1070
     1
1002
}
  0
ENDTAB
  0
TABLE
  2
VIEW
  5
6
330
0
100
AcDbSymbolTable
 70
     0
  0
ENDTAB
  0
TABLE
  2
UCS
  5
7
330
0
100
AcDbSymbolTable
 70
     0
  0
ENDTAB
  0
TABLE
  2
APPID
  5
9
330
0
100
AcDbSymbolTable
 70
     2
  0
APPID
  5
56
330
9
100
AcDbSymbolTableRecord
100
AcDbRegAppTableRecord
  2
ACAD
 70
     0
  0
APPID
  5
5E
330
9
100
AcDbSymbolTableRecord
100
AcDbRegAppTableRecord
  2
AcadAnnotative
 70
     0
  0
ENDTAB
  0
TABLE
  2
DIMSTYLE
  5
A
330
0
100
AcDbSymbolTable
 70
     2
100
AcDbDimStyleTable
 71
     0
  0
DIMSTYLE
105
58
330
A
100
AcDbSymbolTableRecord
100
AcDbDimStyleTableRecord
  2
Standard
 70
     0
340
55
  0
DIMSTYLE
105
59
330
A
100
AcDbSymbolTableRecord
100
AcDbDimStyleTableRecord
  2
Annotative
 70
     0
340
55
1001
AcadAnnotative
1000
AnnotativeData
1002
{
1070
     1
1070
     1
1002
}
  0
ENDTAB
  0
TABLE
  2
BLOCK_RECORD
  5
1
330
0
100
AcDbSymbolTable
 70
    11
  0
BLOCK_RECORD
  5
70
330
1
100
AcDbSymbolTableRecord
100
AcDbBlockTableRecord
  2
*Model_Space
340
73
 70
     0
280
     1
281
     0
  0
BLOCK_RECORD
  5
6C
330
1
100
AcDbSymbolTableRecord
100
AcDbBlockTableRecord
  2
*Paper_Space
340
6F
 70
     0
280
     1
281
     0
  0
BLOCK_RECORD
  5
74
330
1
100
AcDbSymbolTableRecord
100
AcDbBlockTableRecord
  2
*Paper_Space0
340
77
 70
     0
280
     1
281
     0
  0
BLOCK_RECORD
  5
90
330
1
100
AcDbSymbolTableRecord
100
AcDbBlockTableRecord
  2
Block_0
340
0
102
{BLKREFS
331
91
102
}
 70
     0
280
     1
281
     0
  0
BLOCK_RECORD
  5
DC
330
1
100
AcDbSymbolTableRecord
100
AcDbBlockTableRecord
  2
Block_1
340
0
102
{BLKREFS
331
DD
102
}
 70
     0
280
     1
281
     0
  0
BLOCK_RECORD
  5
E7
330
1
100
AcDbSymbolTableRecord
100
AcDbBlockTableRecord
  2
Block_2
340
0
102
{BLKREFS
331
E8
102
}
 70
     0
280
     1
281
     0
  0
BLOCK_RECORD
  5
2D1
330
1
100
AcDbSymbolTableRecord
100
AcDbBlockTableRecord
  2
Block_3
340
0
102
{BLKREFS
331
2D2
102
}
 70
     0
280
     1
281
     0
  0
BLOCK_RECORD
  5
2D5
330
1
100
AcDbSymbolTableRecord
100
AcDbBlockTableRecord
  2
Block_4
340
0
102
{BLKREFS
331
2D6
102
}
 70
     0
280
     1
281
     0
  0
BLOCK_RECORD
  5
2D9
330
1
100
AcDbSymbolTableRecord
100
AcDbBlockTableRecord
  2
Block_5
340
0
102
{BLKREFS
331
2DA
102
}
 70
     0
280
     1
281
     0
  0
BLOCK_RECORD
  5
2F8
330
1
100
AcDbSymbolTableRecord
100
AcDbBlockTableRecord
  2
Block_6
340
0
102
{BLKREFS
331
2F9
102
}
 70
     0
280
     1
281
     0
  0
BLOCK_RECORD
  5
2FE
330
1
100
AcDbSymbolTableRecord
100
AcDbBlockTableRecord
  2
Block_7
340
0
102
{BLKREFS
331
2FF
102
}
 70
     0
280
     1
281
     0
  0
BLOCK_RECORD
  5
305
330
1
100
AcDbSymbolTableRecord
100
AcDbBlockTableRecord
  2
Block_8
340
0
102
{BLKREFS
331
306
102
}
 70
     0
280
     1
281
     0
  0
BLOCK_RECORD
  5
30C
330
1
100
AcDbSymbolTableRecord
100
AcDbBlockTableRecord
  2
Block_9
340
0
102
{BLKREFS
331
30D
102
}
 70
     0
280
     1
281
     0
  0
ENDTAB
  0
ENDSEC
  0
SECTION
  2
BLOCKS
  0
BLOCK
  5
71
330
70
100
AcDbEntity
  8
0
100
AcDbBlockBegin
  2
*Model_Space
 70
     0
 10
0.0
 20
0.0
 30
0.0
  3
*Model_Space
  1

  0
ENDBLK
  5
72
330
70
100
AcDbEntity
  8
0
100
AcDbBlockEnd
  0
BLOCK
  5
6D
330
6C
100
AcDbEntity
 67
     1
  8
0
100
AcDbBlockBegin
  2
*Paper_Space
 70
     0
 10
0.0
 20
0.0
 30
0.0
  3
*Paper_Space
  1

  0
ENDBLK
  5
6E
330
6C
100
AcDbEntity
 67
     1
  8
0
100
AcDbBlockEnd
  0
BLOCK
  5
75
330
74
100
AcDbEntity
 67
     1
  8
0
100
AcDbBlockBegin
  2
*Paper_Space0
 70
     0
 10
0.0
 20
0.0
 30
0.0
  3
*Paper_Space0
  1

  0
ENDBLK
  5
76
330
74
100
AcDbEntity
 67
     1
  8
0
100
AcDbBlockEnd
  0
BLOCK
  5
92
330
90
100
AcDbEntity
  8
0
100
AcDbBlockBegin
  2
Block_0
 70
     0
 10
0.0
 20
0.0
 30
0.0
  3
Block_0
  1

  0
LINE
  5
94
330
90
100
AcDbEntity
  8
Слой 1
 62
   250
420
  3947579
370
    25
100
AcDbLine
 10
101.1122683944139
 20
-149.8849161610429
 30
0.0
 11
100.8890251316066
 21
-158.0307313076623
 31
0.0
  0
LINE
  5
95
330
90
100
AcDbEntity
  8
Слой 1
 62
   250
420
  3947579
370
    25
100
AcDbLine
 10
101.1122683944139
 20
-149.6131222486967
 30
0.0
 11
101.7765286055272
 21
-124.2649256751261
 31
0.0
  0
LINE
  5
96
330
90
100
AcDbEntity
  8
Слой 1
 62
   250
420
  3947579
370
    25
100
AcDbLine
 10
101.9737881157455
 20
-149.6131222486967
 30
0.0
 11
101.9737881157455
 21
-149.8849161610429
 31
0.0
  0
LINE
  5
97
330
90
100
AcDbEntity
  8
Слой 1
 62
   250
420
  3947579
370
    25
100
AcDbLine
 10
113.7120122508586
 20
-123.6724585567679
 30
0.0
 11
114.0583301321836
 21
-112.9188261532161
 31
0.0
  0
LINE
  5
98
330
90
100
AcDbEntity
  8
Слой 1
 62
   250
420
  3947579
370
    25
100
AcDbLine
 10
129.6115127143232
 20
-157.4386084831555
 30
0.0
 11
127.7913824057318
 21
-155.9384680094492
 31
0.0
  0
LINE
  5
99
330
90
100
AcDbEntity
  8
Слой 1
 62
   250
420
  3947579
370
    25
100
AcDbLine
 10
137.312201638776
 20
-138.4736422725619
 30
0.0
 11
137.2611549547237
 21
-138.3438508402701
 31
0.0
  0
LINE
  5
9A
330
90
100
AcDbEntity
  8
Слой 1
 62
   250
420
  3947579
370
    25
100
AcDbLine
 10
137.2611549547237
 20
-138.3438508402701
 30
0.0
 11
137.2611549547237
 21
-143.0118235520816
 31
0.0
  0
LINE
  5
9B
330
90
100
AcDbEntity
  8
Слой 1
 62
   250
420
  3947579
370
    25
100
AcDbLine
 10
116.1249539716594
 20
-149.8849161610429
 30
0.0
 11
116.1249539716594
 21
-149.6131222486967
 31
0.0
  0
LINE
  5
9C
330
90
100
AcDbEntity
  8
Слой 1
 62
   250
420
  3947579
370
    25
100
AcDbLine
 10
100.8890251316066
 20
-158.0307313076623
 30
0.0
 11
129.6115127143232
 21
-158.0307313076623
 31
0.0
  0
LINE
  5
9D
330
90
100
AcDbEntity
  8
Слой 1
 62
   250
420
  3947579
370
    25
100
AcDbLine
 10
162.5185347183261
 20
-158.0307313076623
 30
0.0
 11
188.4106529772917
 21
-158.0307313076623
 31
0.0
  0
LINE
  5
9E
330
90
100
AcDbEntity
  8
Слой 1
 62
   250
420
  3947579
370
    25
100
AcDbLine
 10
127.4474537150688
 20
-154.2643130770268
 30
0.0
 11
130.9653335180089
 21
-155.2489100251613
 31
0.0
  0
LINE
  5
9F
330
90
100
AcDbEntity
  8
Слой 1
 62
   250
420
  3947579
370
    25
100
AcDbLine
 10
142.799067417539
 20
-142.882032119792
 30
0.0
 11
142.8501195869432
 21
-143.0118235520816
 31
0.0
  0
LINE
  5
A0
330
90
100
AcDbEntity
  8
Слой 1
 62
   250
420
  3947579
370
    25
100
AcDbLine
 10
120.6527206710485
 20
-149.6131222486967
 30
0.0
 11
120.6527206710485
 21
-149.8849161610429
 31
0.0
  0
LINE
  5
A1
330
90
100
AcDbEntity
  8
Слой 1
 62
   250
420
  3947579
370
    25
100
AcDbLine
 10
127.7913824057318
 20
-155.9384680094492
 30
0.0
 11
127.3965190914428
 21
-155.9384680094492
 31
0.0
  0
LINE
  5
A2
330
90
100
AcDbEntity
  8
Слой 1
 62
   250
420
  3947579
370
    25
100
AcDbLine
 10
161.8546214093516
 20
-154.2643130770268
 30
0.0
 11
133.6500639345811
 21
-154.2643130770268
 31
0.0
  0
LINE
  5
A3
330
90
100
AcDbEntity
  8
Слой 1
 62
   250
420
  3947579
370
    25
100
AcDbLine
 10
142.8501195869432
 20
-143.0118235520816
 30
0.0
 11
142.8501195869432
 21
-138.3438508402701
 31
0.0
  0
LINE
  5
A4
330
90
100
AcDbEntity
  8
Слой 1
 62
   250
420
  3947579
370
    25
100
AcDbLine
 10
122.6478983199071
 20
-112.4265381122958
 30
0.0
 11
122.8937032630902
 21
-103.2961260175406
 31
0.0
  0
LINE
  5
A5
330
90
100
AcDbEntity
  8
Слой 1
 62
   250
420
  3947579
370
    25
100
AcDbLine
 10
188.1898041217194
 20
-149.8849161610429
 30
0.0
 11
101.1122683944139
 21
-149.8849161610429
 31
0.0
  0
LINE
  5
A6
330
90
100
AcDbEntity
  8
Слой 1
 62
   250
420
  3947579
370
    25
100
AcDbLine
 10
101.1122683944139
 20
-149.6131222486967
 30
0.0
 11
188.1898041217194
 21
-149.6131222486967
 31
0.0
  0
LINE
  5
A7
330
90
100
AcDbEntity
  8
Слой 1
 62
   250
420
  3947579
370
    25
100
AcDbLine
 10
151.9221540671896
 20
-143.0118235520816
 30
0.0
 11
146.4665174832426
 21
-143.0118235520816
 31
0.0
  0
LINE
  5
A8
330
90
100
AcDbEntity
  8
Слой 1
 62
   250
420
  3947579
370
    25
100
AcDbLine
 10
137.2611549547237
 20
-143.0118235520816
 30
0.0
 11
142.8501195869432
 21
-143.0118235520816
 31
0.0
  0
LINE
  5
A9
330
90
100
AcDbEntity
  8
Слой 1
 62
   250
420
  3947579
370
    25
100
AcDbLine
 10
129.6115127143232
 20
-158.0307313076623
 30
0.0
 11
129.6115127143232
 21
-157.4386084831555
 31
0.0
  0
LINE
  5
AA
330
90
100
AcDbEntity
  8
Слой 1
 62
   250
420
  3947579
370
    25
100
AcDbLine
 10
127.3965190914428
 20
-155.9384680094492
 30
0.0
 11
127.4474537150688
 21
-154.2643130770268
 31
0.0
  0
LINE
  5
AB
330
90
100
AcDbEntity
  8
Слой 1
 62
   250
420
  3947579
370
    25
100
AcDbLine
 10
142.8501195869432
 20
-138.3438508402701
 30
0.0
 11
137.2611549547237
 21
-138.3438508402701
 31
0.0
  0
LINE
  5
AC
330
90
100
AcDbEntity
  8
Слой 1
 62
   250
420
  3947579
370
    25
100
AcDbLine
 10
146.4665174832426
 20
-138.3438508402701
 30
0.0
 11
151.9221540671896
 21
-138.3438508402701
 31
0.0
  0
LINE
  5
AD
330
90
100
AcDbEntity
  8
Слой 1
 62
   250
420
  3947579
370
    25
100
AcDbLine
 10
137.7600665620279
 20
-149.6131222486967
 30
0.0
 11
137.7833116135321
 21
-149.8849161610429
 31
0.0
  0
LINE
  5
AE
330
90
100
AcDbEntity
  8
Слой 1
 62
   250
420
  3947579
370
    25
100
AcDbLine
 10
137.8831411805456
 20
-149.8849161610429
 30
0.0
 11
137.8575017218071
 21
-149.6131222486967
 31
0.0
  0
LINE
  5
AF
330
90
100
AcDbEntity
  8
Слой 1
 62
   250
420
  3947579
370
    25
100
AcDbLine
 10
137.312201638776
 20
-142.882032119792
 30
0.0
 11
137.2611549547237
 21
-143.0118235520816
 31
0.0
  0
LINE
  5
B0
330
90
100
AcDbEntity
  8
Слой 1
 62
   250
420
  3947579
370
    25
100
AcDbLine
 10
142.799067417539
 20
-138.4736422725619
 30
0.0
 11
142.8501195869432
 21
-138.3438508402701
 31
0.0
  0
LINE
  5
B1
330
90
100
AcDbEntity
  8
Слой 1
 62
   250
420
  3947579
370
    25
100
AcDbLine
 10
101.9737881157455
 20
-124.0673218710567
 30
0.0
 11
113.7120122508586
 21
-123.6724585567679
 31
0.0
  0
LINE
  5
B2
330
90
100
AcDbEntity
  8
Слой 1
 62
   250
420
  3947579
370
    25
100
AcDbLine
 10
175.5876684663263
 20
-123.6724585567679
 30
0.0
 11
187.3282870086736
 21
-124.0673218710567
 31
0.0
  0
LINE
  5
B3
330
90
100
AcDbEntity
  8
Слой 1
 62
   250
420
  3947579
370
    25
100
AcDbLine
 10
146.5166860042257
 20
-138.4736422725619
 30
0.0
 11
146.4665174832426
 21
-138.3438508402701
 31
0.0
  0
LINE
  5
B4
330
90
100
AcDbEntity
  8
Слой 1
 62
   250
420
  3947579
370
    25
100
AcDbLine
 10
151.4189287273019
 20
-149.8849161610429
 30
0.0
 11
151.4189287273019
 21
-149.6131222486967
 31
0.0
  0
LINE
  5
B5
330
90
100
AcDbEntity
  8
Слой 1
 62
   250
420
  3947579
370
    25
100
AcDbLine
 10
151.5163638870797
 20
-149.6131222486967
 30
0.0
 11
151.5163638870797
 21
-149.8849161610429
 31
0.0
  0
LINE
  5
B6
330
90
100
AcDbEntity
  8
Слой 1
 62
   250
420
  3947579
370
    25
100
AcDbLine
 10
151.8719855462077
 20
-142.882032119792
 30
0.0
 11
151.9221540671896
 21
-143.0118235520816
 31
0.0
  0
LINE
  5
B7
330
90
100
AcDbEntity
  8
Слой 1
 62
   250
420
  3947579
370
    25
100
AcDbLine
 10
162.5185347183261
 20
-158.0307313076623
 30
0.0
 11
161.8546214093516
 21
-154.2643130770268
 31
0.0
  0
LINE
  5
B8
330
90
100
AcDbEntity
  8
Слой 1
 62
   250
420
  3947579
370
    25
100
AcDbLine
 10
131.4576319920752
 20
-155.2000202983463
 30
0.0
 11
133.6500639345811
 21
-154.2643130770268
 31
0.0
  0
LINE
  5
B9
330
90
100
AcDbEntity
  8
Слой 1
 62
   250
420
  3947579
370
    25
100
AcDbLine
 10
114.2555896424026
 20
-112.7215666429971
 30
0.0
 11
122.6478983199071
 21
-112.4265381122958
 31
0.0
  0
LINE
  5
BA
330
90
100
AcDbEntity
  8
Слой 1
 62
   250
420
  3947579
370
    25
100
AcDbLine
 10
166.6288816396246
 20
-112.4265381122958
 30
0.0
 11
175.046824559294
 21
-112.7215666429971
 31
0.0
  0
LINE
  5
BB
330
90
100
AcDbEntity
  8
Слой 1
 62
   250
420
  3947579
370
    25
100
AcDbLine
 10
166.408366644756
 20
-103.2961260175406
 30
0.0
 11
166.6288816396246
 21
-112.4265381122958
 31
0.0
  0
LINE
  5
BC
330
90
100
AcDbEntity
  8
Слой 1
 62
   250
420
  3947579
370
    25
100
AcDbLine
 10
146.4665174832426
 20
-143.0118235520816
 30
0.0
 11
146.4665174832426
 21
-138.3438508402701
 31
0.0
  0
LINE
  5
BD
330
90
100
AcDbEntity
  8
Слой 1
 62
   250
420
  3947579
370
    25
100
AcDbLine
 10
175.2440840695136
 20
-112.9188261532161
 30
0.0
 11
175.5876684663263
 21
-123.6724585567679
 31
0.0
  0
LINE
  5
BE
330
90
100
AcDbEntity
  8
Слой 1
 62
   250
420
  3947579
370
    25
100
AcDbLine
 10
151.9221540671896
 20
-138.3438508402701
 30
0.0
 11
151.9221540671896
 21
-143.0118235520816
 31
0.0
  0
LINE
  5
BF
330
90
100
AcDbEntity
  8
Слой 1
 62
   250
420
  3947579
370
    25
100
AcDbLine
 10
146.5166860042257
 20
-142.882032119792
 30
0.0
 11
146.4665174832426
 21
-143.0118235520816
 31
0.0
  0
LINE
  5
C0
330
90
100
AcDbEntity
  8
Слой 1
 62
   250
420
  3947579
370
    25
100
AcDbLine
 10
151.8719855462077
 20
-138.4736422725619
 30
0.0
 11
151.9221540671896
 21
-138.3438508402701
 31
0.0
  0
LINE
  5
C1
330
90
100
AcDbEntity
  8
Слой 1
 62
   250
420
  3947579
370
    25
100
AcDbLine
 10
124.8375967779
 20
-101.4011222295459
 30
0.0
 11
164.4620839392855
 21
-101.4011222295459
 31
0.0
  0
LINE
  5
C2
330
90
100
AcDbEntity
  8
Слой 1
 62
   250
420
  3947579
370
    25
100
AcDbLine
 10
187.3282870086736
 20
-149.8849161610429
 30
0.0
 11
187.3026423333634
 21
-149.6131222486967
 31
0.0
  0
LINE
  5
C3
330
90
100
AcDbEntity
  8
Слой 1
 62
   250
420
  3947579
370
    25
100
AcDbLine
 10
187.5258908127443
 20
-124.2649256751261
 30
0.0
 11
188.1898041217194
 21
-149.6131222486967
 31
0.0
  0
LINE
  5
C4
330
90
100
AcDbEntity
  8
Слой 1
 62
   250
420
  3947579
370
    25
100
AcDbLine
 10
188.4106529772917
 20
-158.0307313076623
 30
0.0
 11
188.1898041217194
 21
-149.8849161610429
 31
0.0
  0
SPLINE
  5
C5
330
90
100
AcDbEntity
  8
Слой 1
 62
   250
420
  3947579
370
    25
100
AcDbSpline
210
0.0
220
0.0
230
1.0
 70
     8
 71
     3
 72
     8
 73
     4
 74
     0
 42
0.0000000001
 43
0.0000000001
 40
0.0
 40
0.0
 40
0.0
 40
0.0
 40
1.0
 40
1.0
 40
1.0
 40
1.0
 10
166.359821211792
 20
-103.2961260175406
 30
0.0
 10
166.3519650521052
 20
-102.2575062342697
 30
0.0
 10
165.5109490729048
 20
-101.4141114975538
 30
0.0
 10
164.4648174237972
 20
-101.4011222295459
 30
0.0
  0
SPLINE
  5
C6
330
90
100
AcDbEntity
  8
Слой 1
 62
   250
420
  3947579
370
    25
100
AcDbSpline
210
0.0
220
0.0
230
1.0
 70
     8
 71
     3
 72
    11
 73
     7
 74
     0
 42
0.0000000001
 43
0.0000000001
 40
0.0
 40
0.0
 40
0.0
 40
0.0
 40
1.0
 40
1.0
 40
1.0
 40
2.0
 40
2.0
 40
2.0
 40
2.0
 10
124.8375967779
 20
-101.4011222295459
 30
0.0
 10
124.8451138603093
 20
-101.4011222295459
 30
0.0
 10
124.832468886152
 20
-101.4011222295459
 30
0.0
 10
124.8013572418158
 20
-101.4011222295459
 30
0.0
 10
123.7528311854733
 20
-101.4011222295459
 30
0.0
 10
122.9015646393505
 20
-102.2472504507741
 30
0.0
 10
122.8937032630902
 20
-103.2961260175406
 30
0.0
  0
LINE
  5
C7
330
90
100
AcDbEntity
  8
Слой 1
 62
   250
420
  3947579
370
    25
100
AcDbLine
 10
130.9653335180089
 20
-155.2489100251613
 30
0.0
 11
131.0398627035612
 21
-155.2489100251613
 31
0.0
  0
LINE
  5
C8
330
90
100
AcDbEntity
  8
Слой 1
 62
   250
420
  3947579
370
    25
100
AcDbLine
 10
131.0398627035612
 20
-155.2489100251613
 30
0.0
 11
131.1143918891136
 21
-155.2745442673269
 31
0.0
  0
LINE
  5
C9
330
90
100
AcDbEntity
  8
Слой 1
 62
   250
420
  3947579
370
    25
100
AcDbLine
 10
131.1143918891136
 20
-155.2745442673269
 30
0.0
 11
131.1885767808168
 21
-155.2745442673269
 31
0.0
  0
LINE
  5
CA
330
90
100
AcDbEntity
  8
Слой 1
 62
   250
420
  3947579
370
    25
100
AcDbLine
 10
131.1885767808168
 20
-155.2745442673269
 30
0.0
 11
131.2631059663698
 21
-155.2745442673269
 31
0.0
  0
LINE
  5
CB
330
90
100
AcDbEntity
  8
Слой 1
 62
   250
420
  3947579
370
    25
100
AcDbLine
 10
131.2631059663698
 20
-155.2745442673269
 30
0.0
 11
131.3345573735594
 21
-155.2489100251613
 31
0.0
  0
LINE
  5
CC
330
90
100
AcDbEntity
  8
Слой 1
 62
   250
420
  3947579
370
    25
100
AcDbLine
 10
131.3345573735594
 20
-155.2489100251613
 30
0.0
 11
131.3834418838002
 21
-155.2256545405118
 31
0.0
  0
LINE
  5
CD
330
90
100
AcDbEntity
  8
Слой 1
 62
   250
420
  3947579
370
    25
100
AcDbLine
 10
131.3834418838002
 20
-155.2256545405118
 30
0.0
 11
131.4576319920752
 21
-155.2000202983463
 31
0.0
  0
SPLINE
  5
CE
330
90
100
AcDbEntity
  8
Слой 1
 62
   250
420
  3947579
370
    25
100
AcDbSpline
210
0.0
220
0.0
230
1.0
 70
     8
 71
     3
 72
    11
 73
     7
 74
     0
 42
0.0000000001
 43
0.0000000001
 40
0.0
 40
0.0
 40
0.0
 40
0.0
 40
1.0
 40
1.0
 40
1.0
 40
2.0
 40
2.0
 40
2.0
 40
2.0
 10
187.4746014621207
 20
-124.2570590822927
 30
0.0
 10
187.4746014621207
 20
-124.2519364071184
 30
0.0
 10
187.4746014621207
 20
-124.2468032987975
 30
0.0
 10
187.4746014621207
 20
-124.2392809998152
 30
0.0
 10
187.4746014621207
 20
-124.1545012473399
 30
0.0
 10
187.4103332766366
 20
-124.0803111390643
 30
0.0
 10
187.3258873848657
 20
-124.070055355569
 30
0.0
  0
SPLINE
  5
CF
330
90
100
AcDbEntity
  8
Слой 1
 62
   250
420
  3947579
370
    25
100
AcDbSpline
210
0.0
220
0.0
230
1.0
 70
     8
 71
     3
 72
    14
 73
    10
 74
     0
 42
0.0000000001
 43
0.0000000001
 40
0.0
 40
0.0
 40
0.0
 40
0.0
 40
1.0
 40
1.0
 40
1.0
 40
2.0
 40
2.0
 40
2.0
 40
3.0
 40
3.0
 40
3.0
 40
3.0
 10
114.2528561578909
 20
-112.723966266806
 30
0.0
 10
114.245333858908
 20
-112.7215666429971
 30
0.0
 10
114.237467266074
 20
-112.7215666429971
 30
0.0
 10
114.2299501836647
 20
-112.7215666429971
 30
0.0
 10
114.1325150238855
 20
-112.7215666429971
 30
0.0
 10
114.0583301321836
 20
-112.7984902357853
 30
0.0
 10
114.0583301321836
 20
-112.8931919110512
 30
0.0
 10
114.0583301321836
 20
-112.9010585038854
 30
0.0
 10
114.0583301321836
 20
-112.9085703697208
 30
0.0
 10
114.0607193228456
 20
-112.9164369625544
 30
0.0
  0
SPLINE
  5
D0
330
90
100
AcDbEntity
  8
Слой 1
 62
   250
420
  3947579
370
    25
100
AcDbSpline
210
0.0
220
0.0
230
1.0
 70
     8
 71
     3
 72
    11
 73
     7
 74
     0
 42
0.0000000001
 43
0.0000000001
 40
0.0
 40
0.0
 40
0.0
 40
0.0
 40
1.0
 40
1.0
 40
1.0
 40
2.0
 40
2.0
 40
2.0
 40
2.0
 10
175.1979382603588
 20
-112.9113142873801
 30
0.0
 10
175.1979382603588
 20
-112.9061811790595
 30
0.0
 10
175.1979382603588
 20
-112.9010585038854
 30
0.0
 10
175.1979382603588
 20
-112.8931919110512
 30
0.0
 10
175.1979382603588
 20
-112.80874601928
 30
0.0
 10
175.1336596417268
 20
-112.7342220503009
 30
0.0
 10
175.0492241831032
 20
-112.723966266806
 30
0.0
  0
SPLINE
  5
D1
330
90
100
AcDbEntity
  8
Слой 1
 62
   250
420
  3947579
370
    25
100
AcDbSpline
210
0.0
220
0.0
230
1.0
 70
     8
 71
     3
 72
    14
 73
    10
 74
     0
 42
0.0000000001
 43
0.0000000001
 40
0.0
 40
0.0
 40
0.0
 40
0.0
 40
1.0
 40
1.0
 40
1.0
 40
2.0
 40
2.0
 40
2.0
 40
3.0
 40
3.0
 40
3.0
 40
3.0
 10
101.9710546312332
 20
-124.070055355569
 30
0.0
 10
101.9635323322509
 20
-124.0673218710567
 30
0.0
 10
101.9556683477038
 20
-124.0673218710567
 30
0.0
 10
101.9481486570076
 20
-124.0673218710567
 30
0.0
 10
101.8507134972294
 20
-124.0673218710567
 30
0.0
 10
101.7765286055272
 20
-124.1442454638443
 30
0.0
 10
101.7765286055272
 20
-124.2392809998152
 30
0.0
 10
101.7765286055272
 20
-124.2468032987975
 30
0.0
 10
101.7765286055272
 20
-124.2546698916308
 30
0.0
 10
101.7789204044753
 20
-124.262192190614
 30
0.0
  0
ENDBLK
  5
93
330
90
100
AcDbEntity
  8
0
100
AcDbBlockEnd
  0
BLOCK
  5
DE
330
DC
100
AcDbEntity
  8
0
100
AcDbBlockBegin
  2
Block_1
 70
     0
 10
0.0
 20
0.0
 30
0.0
  3
Block_1
  1

  0
LINE
  5
E0
330
DC
100
AcDbEntity
  8
Слой 1
 62
   250
420
  3947579
370
    25
100
AcDbLine
 10
188.4333552497701
 20
-157.9585686201923
 30
0.0
 11
190.7684716535657
 21
-157.9585686201923
 31
0.0
  0
LINE
  5
E1
330
DC
100
AcDbEntity
  8
Слой 1
 62
   250
420
  3947579
370
    25
100
AcDbLine
 10
188.2998713972468
 20
-153.6485664309111
 30
0.0
 11
190.7684716535657
 21
-153.6485664309111
 31
0.0
  0
LINE
  5
E2
330
DC
100
AcDbEntity
  8
Слой 1
 62
   250
420
  3947579
370
    25
100
AcDbLine
 10
190.901955506089
 20
-153.7788554880517
 30
0.0
 11
190.9673302273399
 21
-155.7880330073875
 31
0.0
  0
LINE
  5
E3
330
DC
100
AcDbEntity
  8
Слой 1
 62
   250
420
  3947579
370
    25
100
AcDbLine
 10
190.3739493014019
 20
-153.7139411521614
 30
0.0
 11
190.3739493014019
 21
-153.6485664309111
 31
0.0
  0
LINE
  5
E4
330
DC
100
AcDbEntity
  8
Слой 1
 62
   250
420
  3947579
370
    25
100
AcDbLine
 10
190.901955506089
 20
-157.8282795630499
 30
0.0
 11
190.9673302273399
 21
-155.7880330073875
 31
0.0
  0
SPLINE
  5
E5
330
DC
100
AcDbEntity
  8
Слой 1
 62
   250
420
  3947579
370
    25
100
AcDbSpline
210
0.0
220
0.0
230
1.0
 70
     8
 71
     3
 72
     8
 73
     4
 74
     0
 42
0.0000000001
 43
0.0000000001
 40
0.0
 40
0.0
 40
0.0
 40
0.0
 40
1.0
 40
1.0
 40
1.0
 40
1.0
 10
190.7444426738381
 20
-157.9585686201923
 30
0.0
 10
190.8231990899635
 20
-157.9343240005467
 30
0.0
 10
190.8827003768845
 20
-157.863744504368
 30
0.0
 10
190.901955506089
 20
-157.7762838075063
 30
0.0
  0
SPLINE
  5
E6
330
DC
100
AcDbEntity
  8
Слой 1
 62
   250
420
  3947579
370
    25
100
AcDbSpline
210
0.0
220
0.0
230
1.0
 70
     8
 71
     3
 72
    11
 73
     7
 74
     0
 42
0.0000000001
 43
0.0000000001
 40
0.0
 40
0.0
 40
0.0
 40
0.0
 40
1.0
 40
1.0
 40
1.0
 40
2.0
 40
2.0
 40
2.0
 40
2.0
 10
190.901955506089
 20
-153.8331448583722
 30
0.0
 10
190.901955506089
 20
-153.827193646461
 30
0.0
 10
190.901955506089
 20
-153.8219693001263
 30
0.0
 10
190.901955506089
 20
-153.8160180882151
 30
0.0
 10
190.901955506089
 20
-153.7438312505988
 30
0.0
 10
190.8434911981677
 20
-153.6768460447658
 30
0.0
 10
190.748003460253
 20
-153.6485664309111
 30
0.0
  0
ENDBLK
  5
DF
330
DC
100
AcDbEntity
  8
0
100
AcDbBlockEnd
  0
BLOCK
  5
E9
330
E7
100
AcDbEntity
  8
0
100
AcDbBlockBegin
  2
Block_2
 70
     0
 10
0.0
 20
0.0
 30
0.0
  3
Block_2
  1

  0
LINE
  5
EB
330
E7
100
AcDbEntity
  8
Слой 1
 62
   250
420
  3947579
370
    25
100
AcDbLine
 10
187.7799842298785
 20
-236.4602100510391
 30
0.0
 11
188.273129397556
 21
-235.9670718507559
 31
0.0
  0
LINE
  5
EC
330
E7
100
AcDbEntity
  8
Слой 1
 62
   250
420
  3947579
370
    25
100
AcDbLine
 10
188.273129397556
 20
-186.001960749668
 30
0.0
 11
187.7799842298785
 21
-185.5088155819899
 31
0.0
  0
LINE
  5
ED
330
E7
100
AcDbEntity
  8
Слой 1
 62
   250
420
  3947579
370
    25
100
AcDbLine
 10
190.2109985122189
 20
-216.7376362146904
 30
0.0
 11
190.2109985122189
 21
-216.604308166418
 31
0.0
  0
LINE
  5
EE
330
E7
100
AcDbEntity
  8
Слой 1
 62
   250
420
  3947579
370
    25
100
AcDbLine
 10
190.2109985122189
 20
-205.3647244340047
 30
0.0
 11
190.2109985122189
 21
-205.2309365377387
 31
0.0
  0
LINE
  5
EF
330
E7
100
AcDbEntity
  8
Слой 1
 62
   250
420
  3947579
370
    25
100
AcDbLine
 10
188.273129397556
 20
-200.4981182915814
 30
0.0
 11
188.273129397556
 21
-186.001960749668
 31
0.0
  0
LINE
  5
F0
330
E7
100
AcDbEntity
  8
Слой 1
 62
   250
420
  3947579
370
    25
100
AcDbLine
 10
188.273129397556
 20
-221.5015081351355
 30
0.0
 11
188.273129397556
 21
-235.9670718507559
 31
0.0
  0
LINE
  5
F1
330
E7
100
AcDbEntity
  8
Слой 1
 62
   250
420
  3947579
370
    25
100
AcDbLine
 10
188.1087476749958
 20
-220.9773092931715
 30
0.0
 11
188.1087476749958
 21
-220.8129206032183
 31
0.0
  0
LINE
  5
F2
330
E7
100
AcDbEntity
  8
Слой 1
 62
   250
420
  3947579
370
    25
100
AcDbLine
 10
188.1087476749958
 20
-201.1898899224758
 30
0.0
 11
188.1087476749958
 21
-200.991263459257
 31
0.0
  0
LINE
  5
F3
330
E7
100
AcDbEntity
  8
Слой 1
 62
   250
420
  3947579
370
    25
100
AcDbLine
 10
188.1087476749958
 20
-205.2309365377387
 30
0.0
 11
188.1087476749958
 21
-205.3647244340047
 31
0.0
  0
LINE
  5
F4
330
E7
100
AcDbEntity
  8
Слой 1
 62
   250
420
  3947579
370
    25
100
AcDbLine
 10
188.1087476749958
 20
-216.604308166418
 30
0.0
 11
188.1087476749958
 21
-216.7376362146904
 31
0.0
  0
LINE
  5
F5
330
E7
100
AcDbEntity
  8
Слой 1
 62
   250
420
  3947579
370
    25
100
AcDbLine
 10
188.0744959669442
 20
-200.597661447187
 30
0.0
 11
188.0744959669442
 21
-221.3713711532363
 31
0.0
  0
LINE
  5
F6
330
E7
100
AcDbEntity
  8
Слой 1
 62
   250
420
  3947579
370
    25
100
AcDbLine
 10
187.1219974916498
 20
-230.6726189556008
 30
0.0
 11
187.1219974916498
 21
-204.4743263398909
 31
0.0
  0
LINE
  5
F7
330
E7
100
AcDbEntity
  8
Слой 1
 62
   250
420
  3947579
370
    25
100
AcDbLine
 10
174.7933777615761
 20
-235.4054216481733
 30
0.0
 11
173.925566723192
 21
-236.4104333937627
 31
0.0
  0
LINE
  5
F8
330
E7
100
AcDbEntity
  8
Слой 1
 62
   250
420
  3947579
370
    25
100
AcDbLine
 10
174.2263811046978
 20
-185.5088155819893
 30
0.0
 11
174.8517067976015
 21
-186.5911527604578
 31
0.0
  0
LINE
  5
F9
330
E7
100
AcDbEntity
  8
Слой 1
 62
   250
420
  3947579
370
    25
100
AcDbLine
 10
180.8449121429004
 20
-215.9467812761828
 30
0.0
 11
180.8449121429004
 21
-214.5015905138103
 31
0.0
  0
LINE
  5
FA
330
E7
100
AcDbEntity
  8
Слой 1
 62
   250
420
  3947579
370
    25
100
AcDbLine
 10
180.8449121429004
 20
-216.4088727695725
 30
0.0
 11
180.8449121429004
 21
-217.8540635319445
 31
0.0
  0
LINE
  5
FB
330
E7
100
AcDbEntity
  8
Слой 1
 62
   250
420
  3947579
370
    25
100
AcDbLine
 10
180.8449121429004
 20
-224.1964403282467
 30
0.0
 11
180.8449121429004
 21
-225.6452820049836
 31
0.0
  0
LINE
  5
FC
330
E7
100
AcDbEntity
  8
Слой 1
 62
   250
420
  3947579
370
    25
100
AcDbLine
 10
180.8449121429004
 20
-226.1384341400554
 30
0.0
 11
180.8449121429004
 21
-227.5836109676382
 31
0.0
  0
LINE
  5
FD
330
E7
100
AcDbEntity
  8
Слой 1
 62
   250
420
  3947579
370
    25
100
AcDbLine
 10
180.3517669752229
 20
-214.5015905138103
 30
0.0
 11
180.3517669752229
 21
-215.9467812761828
 31
0.0
  0
LINE
  5
FE
330
E7
100
AcDbEntity
  8
Слой 1
 62
   250
420
  3947579
370
    25
100
AcDbLine
 10
180.3517669752229
 20
-216.4088727695725
 30
0.0
 11
180.3517669752229
 21
-217.8540635319445
 31
0.0
  0
LINE
  5
FF
330
E7
100
AcDbEntity
  8
Слой 1
 62
   250
420
  3947579
370
    25
100
AcDbLine
 10
180.3517669752229
 20
-224.1964403282467
 30
0.0
 11
180.3517669752229
 21
-225.6452820049836
 31
0.0
  0
LINE
  5
100
330
E7
100
AcDbEntity
  8
Слой 1
 62
   250
420
  3947579
370
    25
100
AcDbLine
 10
180.3517669752229
 20
-226.1384341400554
 30
0.0
 11
180.3517669752229
 21
-227.5836109676382
 31
0.0
  0
LINE
  5
101
330
E7
100
AcDbEntity
  8
Слой 1
 62
   250
420
  3947579
370
    25
100
AcDbLine
 10
166.1807149966688
 20
-235.3095449605201
 30
0.0
 11
165.6875698289919
 21
-235.8026831608027
 31
0.0
  0
LINE
  5
102
330
E7
100
AcDbEntity
  8
Слой 1
 62
   250
420
  3947579
370
    25
100
AcDbLine
 10
175.9783060004764
 20
-226.4977844440732
 30
0.0
 11
175.9783060004764
 21
-208.6487010034263
 31
0.0
  0
LINE
  5
103
330
E7
100
AcDbEntity
  8
Слой 1
 62
   250
420
  3947579
370
    25
100
AcDbLine
 10
174.8280937905561
 20
-235.4054302343664
 30
0.0
 11
174.8280937905561
 21
-186.5599444842983
 31
0.0
  0
LINE
  5
104
330
E7
100
AcDbEntity
  8
Слой 1
 62
   250
420
  3947579
370
    25
100
AcDbLine
 10
129.5305025206811
 20
-185.5430603226504
 30
0.0
 11
127.6880588318729
 21
-185.5736541489434
 31
0.0
  0
LINE
  5
105
330
E7
100
AcDbEntity
  8
Слой 1
 62
   250
420
  3947579
370
    25
100
AcDbLine
 10
127.3592953867543
 20
-185.6078988896038
 30
0.0
 11
130.8766030080462
 21
-185.5736541489434
 31
0.0
  0
LINE
  5
106
330
E7
100
AcDbEntity
  8
Слой 1
 62
   250
420
  3947579
370
    25
100
AcDbLine
 10
187.7799842298785
 20
-185.5088155819899
 30
0.0
 11
162.4684387939174
 21
-185.5088155819899
 31
0.0
  0
LINE
  5
107
330
E7
100
AcDbEntity
  8
Слой 1
 62
   250
420
  3947579
370
    25
100
AcDbLine
 10
129.5305025206811
 20
-185.5088155819899
 30
0.0
 11
101.3902300279507
 21
-185.5088155819899
 31
0.0
  0
LINE
  5
108
330
E7
100
AcDbEntity
  8
Слой 1
 62
   250
420
  3947579
370
    25
100
AcDbLine
 10
127.6880588318729
 20
-185.5736541489434
 30
0.0
 11
127.2944568198009
 21
-185.5736541489434
 31
0.0
  0
LINE
  5
109
330
E7
100
AcDbEntity
  8
Слой 1
 62
   250
420
  3947579
370
    25
100
AcDbLine
 10
161.8109119036816
 20
-185.6078988896038
 30
0.0
 11
133.5715491359447
 21
-185.6078988896038
 31
0.0
  0
LINE
  5
10A
330
E7
100
AcDbEntity
  8
Слой 1
 62
   250
420
  3947579
370
    25
100
AcDbLine
 10
131.3692952951244
 20
-185.5736541489434
 30
0.0
 11
133.5715491359447
 21
-185.6078988896038
 31
0.0
  0
LINE
  5
10B
330
E7
100
AcDbEntity
  8
Слой 1
 62
   250
420
  3947579
370
    25
100
AcDbLine
 10
162.4684387939174
 20
-185.5088155819899
 30
0.0
 11
161.8109119036816
 21
-185.6078988896038
 31
0.0
  0
LINE
  5
10C
330
E7
100
AcDbEntity
  8
Слой 1
 62
   250
420
  3947579
370
    25
100
AcDbLine
 10
164.2423860340136
 20
-186.2005872128856
 30
0.0
 11
124.927828223816
 21
-186.2005872128856
 31
0.0
  0
LINE
  5
10D
330
E7
100
AcDbEntity
  8
Слой 1
 62
   250
420
  3947579
370
    25
100
AcDbLine
 10
162.5985688084235
 20
-187.7106165422109
 30
0.0
 11
126.5716315146188
 21
-187.7106165422109
 31
0.0
  0
LINE
  5
10E
330
E7
100
AcDbEntity
  8
Слой 1
 62
   250
420
  3947579
370
    25
100
AcDbLine
 10
126.5716315146188
 20
-187.7448612828701
 30
0.0
 11
162.5985688084235
 21
-187.7448612828701
 31
0.0
  0
LINE
  5
10F
330
E7
100
AcDbEntity
  8
Слой 1
 62
   250
420
  3947579
370
    25
100
AcDbLine
 10
166.1807149966688
 20
-186.6594876399032
 30
0.0
 11
166.1807149966688
 21
-235.3095449605201
 31
0.0
  0
LINE
  5
110
330
E7
100
AcDbEntity
  8
Слой 1
 62
   250
420
  3947579
370
    25
100
AcDbLine
 10
163.0917139761004
 20
-233.7305663018828
 30
0.0
 11
163.0917139761004
 21
-188.2380064505469
 31
0.0
  0
LINE
  5
111
330
E7
100
AcDbEntity
  8
Слой 1
 62
   250
420
  3947579
370
    25
100
AcDbLine
 10
163.0611201498068
 20
-188.2380064505469
 30
0.0
 11
163.0611201498068
 21
-233.7305663018828
 31
0.0
  0
LINE
  5
112
330
E7
100
AcDbEntity
  8
Слой 1
 62
   250
420
  3947579
370
    25
100
AcDbLine
 10
123.2191724312724
 20
-235.8985823694375
 30
0.0
 11
123.478986547079
 21
-235.8026831608027
 31
0.0
  0
LINE
  5
113
330
E7
100
AcDbEntity
  8
Слой 1
 62
   250
420
  3947579
370
    25
100
AcDbLine
 10
123.478986547079
 20
-186.1663424722264
 30
0.0
 11
123.2191724312724
 21
-186.0667993166215
 31
0.0
  0
LINE
  5
114
330
E7
100
AcDbEntity
  8
Слой 1
 62
   250
420
  3947579
370
    25
100
AcDbLine
 10
162.5985688084235
 20
-234.2579562102208
 30
0.0
 11
162.5985688084235
 21
-234.2237184369539
 31
0.0
  0
LINE
  5
115
330
E7
100
AcDbEntity
  8
Слой 1
 62
   250
420
  3947579
370
    25
100
AcDbLine
 10
188.273129397556
 20
-200.4981182915814
 30
0.0
 11
188.0744959669442
 21
-200.597661447187
 31
0.0
  0
LINE
  5
116
330
E7
100
AcDbEntity
  8
Слой 1
 62
   250
420
  3947579
370
    25
100
AcDbLine
 10
188.0744959669442
 20
-221.3713711532363
 30
0.0
 11
188.273129397556
 21
-221.5015081351355
 31
0.0
  0
LINE
  5
117
330
E7
100
AcDbEntity
  8
Слой 1
 62
   250
420
  3947579
370
    25
100
AcDbLine
 10
127.2944568198009
 20
-236.3917205697201
 30
0.0
 11
127.3592953867543
 21
-236.3606738628278
 31
0.0
  0
LINE
  5
118
330
E7
100
AcDbEntity
  8
Слой 1
 62
   250
420
  3947579
370
    25
100
AcDbLine
 10
188.0744959669442
 20
-200.991263459257
 30
0.0
 11
188.1087476749958
 21
-200.991263459257
 31
0.0
  0
LINE
  5
119
330
E7
100
AcDbEntity
  8
Слой 1
 62
   250
420
  3947579
370
    25
100
AcDbLine
 10
188.0744959669442
 20
-201.0255081999175
 30
0.0
 11
188.1087476749958
 21
-201.0255081999175
 31
0.0
  0
LINE
  5
11A
330
E7
100
AcDbEntity
  8
Слой 1
 62
   250
420
  3947579
370
    25
100
AcDbLine
 10
188.1087476749958
 20
-201.1898899224758
 30
0.0
 11
188.0744959669442
 21
-201.1898899224758
 31
0.0
  0
LINE
  5
11B
330
E7
100
AcDbEntity
  8
Слой 1
 62
   250
420
  3947579
370
    25
100
AcDbLine
 10
127.3592953867543
 20
-185.6078988896038
 30
0.0
 11
127.2944568198009
 21
-185.5736541489434
 31
0.0
  0
LINE
  5
11C
330
E7
100
AcDbEntity
  8
Слой 1
 62
   250
420
  3947579
370
    25
100
AcDbLine
 10
101.1916035647323
 20
-212.1007102097718
 30
0.0
 11
101.3902300279507
 21
-212.1007102097718
 31
0.0
  0
LINE
  5
11D
330
E7
100
AcDbEntity
  8
Слой 1
 62
   250
420
  3947579
370
    25
100
AcDbLine
 10
180.1188957713455
 20
-204.4743263398909
 30
0.0
 11
187.2863792142094
 21
-204.4743263398909
 31
0.0
  0
LINE
  5
11E
330
E7
100
AcDbEntity
  8
Слой 1
 62
   250
420
  3947579
370
    25
100
AcDbLine
 10
190.180404685924
 20
-204.837334525668
 30
0.0
 11
188.0744959669442
 21
-204.837334525668
 31
0.0
  0
LINE
  5
11F
330
E7
100
AcDbEntity
  8
Слой 1
 62
   250
420
  3947579
370
    25
100
AcDbLine
 10
190.2109985122189
 20
-205.3647244340047
 30
0.0
 11
188.1087476749958
 21
-205.3647244340047
 31
0.0
  0
LINE
  5
120
330
E7
100
AcDbEntity
  8
Слой 1
 62
   250
420
  3947579
370
    25
100
AcDbLine
 10
129.0031126123444
 20
-234.2237184369539
 30
0.0
 11
129.0031126123444
 21
-234.2579562102208
 31
0.0
  0
LINE
  5
121
330
E7
100
AcDbEntity
  8
Слой 1
 62
   250
420
  3947579
370
    25
100
AcDbLine
 10
189.7525579331929
 20
-202.5017456691823
 30
0.0
 11
189.9169396557525
 21
-202.4706989622913
 31
0.0
  0
LINE
  5
122
330
E7
100
AcDbEntity
  8
Слой 1
 62
   250
420
  3947579
370
    25
100
AcDbLine
 10
188.0744959669442
 20
-205.3647244340047
 30
0.0
 11
188.1087476749958
 21
-205.3647244340047
 31
0.0
  0
LINE
  5
123
330
E7
100
AcDbEntity
  8
Слой 1
 62
   250
420
  3947579
370
    25
100
AcDbLine
 10
190.2109985122189
 20
-205.3647244340047
 30
0.0
 11
190.3447864084843
 21
-205.3304796933455
 31
0.0
  0
LINE
  5
124
330
E7
100
AcDbEntity
  8
Слой 1
 62
   250
420
  3947579
370
    25
100
AcDbLine
 10
101.1916035647323
 20
-207.9605802868963
 30
0.0
 11
101.3902300279507
 21
-207.9605802868963
 31
0.0
  0
LINE
  5
125
330
E7
100
AcDbEntity
  8
Слой 1
 62
   250
420
  3947579
370
    25
100
AcDbLine
 10
109.8047376179597
 20
-209.7687792350453
 30
0.0
 11
108.393784628854
 21
-209.7687792350453
 31
0.0
  0
LINE
  5
126
330
E7
100
AcDbEntity
  8
Слой 1
 62
   250
420
  3947579
370
    25
100
AcDbLine
 10
107.9006464285708
 20
-209.7687792350453
 30
0.0
 11
106.4522645998268
 21
-209.7687792350453
 31
0.0
  0
LINE
  5
127
330
E7
100
AcDbEntity
  8
Слой 1
 62
   250
420
  3947579
370
    25
100
AcDbLine
 10
108.393784628854
 20
-210.2619174353279
 30
0.0
 11
109.8047376179597
 21
-210.2619174353279
 31
0.0
  0
LINE
  5
128
330
E7
100
AcDbEntity
  8
Слой 1
 62
   250
420
  3947579
370
    25
100
AcDbLine
 10
107.9006464285708
 20
-210.2619174353279
 30
0.0
 11
106.4522645998268
 21
-210.2619174353279
 31
0.0
  0
LINE
  5
129
330
E7
100
AcDbEntity
  8
Слой 1
 62
   250
420
  3947579
370
    25
100
AcDbLine
 10
190.3447864084843
 20
-216.6385459396842
 30
0.0
 11
190.2109985122189
 21
-216.604308166418
 31
0.0
  0
LINE
  5
12A
330
E7
100
AcDbEntity
  8
Слой 1
 62
   250
420
  3947579
370
    25
100
AcDbLine
 10
188.0744959669442
 20
-216.604308166418
 30
0.0
 11
188.1087476749958
 21
-216.604308166418
 31
0.0
  0
LINE
  5
12B
330
E7
100
AcDbEntity
  8
Слой 1
 62
   250
420
  3947579
370
    25
100
AcDbLine
 10
189.9169396557525
 20
-219.5289274644275
 30
0.0
 11
189.7525579331929
 21
-219.4636290494811
 31
0.0
  0
LINE
  5
12C
330
E7
100
AcDbEntity
  8
Слой 1
 62
   250
420
  3947579
370
    25
100
AcDbLine
 10
126.078493314335
 20
-231.2990991389444
 30
0.0
 11
126.078493314335
 21
-231.3301458458373
 31
0.0
  0
LINE
  5
12D
330
E7
100
AcDbEntity
  8
Слой 1
 62
   250
420
  3947579
370
    25
100
AcDbLine
 10
101.1916035647323
 20
-217.0321479517562
 30
0.0
 11
101.3902300279507
 21
-216.9979101784906
 31
0.0
  0
LINE
  5
12E
330
E7
100
AcDbEntity
  8
Слой 1
 62
   250
420
  3947579
370
    25
100
AcDbLine
 10
101.3902300279507
 20
-212.1007102097718
 30
0.0
 11
101.1916035647323
 21
-212.1007102097718
 31
0.0
  0
LINE
  5
12F
330
E7
100
AcDbEntity
  8
Слой 1
 62
   250
420
  3947579
370
    25
100
AcDbLine
 10
101.1916035647323
 20
-212.8920249962736
 30
0.0
 11
101.3902300279507
 21
-212.8920249962736
 31
0.0
  0
LINE
  5
130
330
E7
100
AcDbEntity
  8
Слой 1
 62
   250
420
  3947579
370
    25
100
AcDbLine
 10
109.8047376179597
 20
-214.7308177707169
 30
0.0
 11
108.393784628854
 21
-214.7308177707169
 31
0.0
  0
LINE
  5
131
330
E7
100
AcDbEntity
  8
Слой 1
 62
   250
420
  3947579
370
    25
100
AcDbLine
 10
107.9006464285708
 20
-214.7308177707169
 30
0.0
 11
106.4522645998268
 21
-214.7308177707169
 31
0.0
  0
LINE
  5
132
330
E7
100
AcDbEntity
  8
Слой 1
 62
   250
420
  3947579
370
    25
100
AcDbLine
 10
101.3902300279507
 20
-207.9911741131892
 30
0.0
 11
101.1916035647323
 21
-207.9605802868963
 31
0.0
  0
LINE
  5
133
330
E7
100
AcDbEntity
  8
Слой 1
 62
   250
420
  3947579
370
    25
100
AcDbLine
 10
108.393784628854
 20
-215.2239559710001
 30
0.0
 11
109.8047376179597
 21
-215.2239559710001
 31
0.0
  0
LINE
  5
134
330
E7
100
AcDbEntity
  8
Слой 1
 62
   250
420
  3947579
370
    25
100
AcDbLine
 10
107.9006464285708
 20
-215.2239559710001
 30
0.0
 11
106.4522645998268
 21
-215.2239559710001
 31
0.0
  0
LINE
  5
135
330
E7
100
AcDbEntity
  8
Слой 1
 62
   250
420
  3947579
370
    25
100
AcDbLine
 10
182.2900959378787
 20
-215.9467812761828
 30
0.0
 11
180.8449121429004
 21
-215.9467812761828
 31
0.0
  0
LINE
  5
136
330
E7
100
AcDbEntity
  8
Слой 1
 62
   250
420
  3947579
370
    25
100
AcDbLine
 10
180.3517669752229
 20
-215.9467812761828
 30
0.0
 11
178.9029252984866
 21
-215.9467812761828
 31
0.0
  0
LINE
  5
137
330
E7
100
AcDbEntity
  8
Слой 1
 62
   250
420
  3947579
370
    25
100
AcDbLine
 10
180.8449121429004
 20
-216.4088727695725
 30
0.0
 11
182.2900959378787
 21
-216.4088727695725
 31
0.0
  0
LINE
  5
138
330
E7
100
AcDbEntity
  8
Слой 1
 62
   250
420
  3947579
370
    25
100
AcDbLine
 10
180.3517669752229
 20
-216.4088727695725
 30
0.0
 11
178.9029252984866
 21
-216.4088727695725
 31
0.0
  0
LINE
  5
139
330
E7
100
AcDbEntity
  8
Слой 1
 62
   250
420
  3947579
370
    25
100
AcDbLine
 10
188.1087476749958
 20
-216.604308166418
 30
0.0
 11
190.2109985122189
 21
-216.604308166418
 31
0.0
  0
LINE
  5
13A
330
E7
100
AcDbEntity
  8
Слой 1
 62
   250
420
  3947579
370
    25
100
AcDbLine
 10
101.3902300279507
 20
-217.0321479517562
 30
0.0
 11
101.1916035647323
 21
-217.0321479517562
 31
0.0
  0
LINE
  5
13B
330
E7
100
AcDbEntity
  8
Слой 1
 62
   250
420
  3947579
370
    25
100
AcDbLine
 10
188.0744959669442
 20
-217.131698074756
 30
0.0
 11
190.180404685924
 21
-217.131698074756
 31
0.0
  0
LINE
  5
13C
330
E7
100
AcDbEntity
  8
Слой 1
 62
   250
420
  3947579
370
    25
100
AcDbLine
 10
108.6540585926522
 20
-217.3609113968728
 30
0.0
 11
107.8015561535639
 21
-217.3609113968728
 31
0.0
  0
LINE
  5
13D
330
E7
100
AcDbEntity
  8
Слой 1
 62
   250
420
  3947579
370
    25
100
AcDbLine
 10
101.3902300279507
 20
-212.8920249962736
 30
0.0
 11
101.1916035647323
 21
-212.8920249962736
 31
0.0
  0
LINE
  5
13E
330
E7
100
AcDbEntity
  8
Слой 1
 62
   250
420
  3947579
370
    25
100
AcDbLine
 10
188.0744959669442
 20
-220.8129206032183
 30
0.0
 11
188.1087476749958
 21
-220.8129206032183
 31
0.0
  0
LINE
  5
13F
330
E7
100
AcDbEntity
  8
Слой 1
 62
   250
420
  3947579
370
    25
100
AcDbLine
 10
188.1087476749958
 20
-220.9430575851186
 30
0.0
 11
188.0744959669442
 21
-220.9430575851186
 31
0.0
  0
LINE
  5
140
330
E7
100
AcDbEntity
  8
Слой 1
 62
   250
420
  3947579
370
    25
100
AcDbLine
 10
188.0744959669442
 20
-220.9773092931715
 30
0.0
 11
188.1087476749958
 21
-220.9773092931715
 31
0.0
  0
LINE
  5
141
330
E7
100
AcDbEntity
  8
Слой 1
 62
   250
420
  3947579
370
    25
100
AcDbLine
 10
182.2900959378787
 20
-225.6452820049836
 30
0.0
 11
180.8449121429004
 21
-225.6452820049836
 31
0.0
  0
LINE
  5
142
330
E7
100
AcDbEntity
  8
Слой 1
 62
   250
420
  3947579
370
    25
100
AcDbLine
 10
180.3517669752229
 20
-225.6452820049836
 30
0.0
 11
178.9029252984866
 21
-225.6452820049836
 31
0.0
  0
LINE
  5
143
330
E7
100
AcDbEntity
  8
Слой 1
 62
   250
420
  3947579
370
    25
100
AcDbLine
 10
166.2332322181832
 20
-186.716693924017
 30
0.0
 11
165.9698745396516
 21
-186.1978770831593
 31
0.0
  0
LINE
  5
144
330
E7
100
AcDbEntity
  8
Слой 1
 62
   250
420
  3947579
370
    25
100
AcDbLine
 10
180.8449121429004
 20
-226.1384341400554
 30
0.0
 11
182.2900959378787
 21
-226.1384341400554
 31
0.0
  0
LINE
  5
145
330
E7
100
AcDbEntity
  8
Слой 1
 62
   250
420
  3947579
370
    25
100
AcDbLine
 10
180.3517669752229
 20
-226.1384341400554
 30
0.0
 11
178.9029252984866
 21
-226.1384341400554
 31
0.0
  0
LINE
  5
146
330
E7
100
AcDbEntity
  8
Слой 1
 62
   250
420
  3947579
370
    25
100
AcDbLine
 10
129.5305025206811
 20
-236.4602100510391
 30
0.0
 11
129.5305025206811
 21
-236.3917205697201
 31
0.0
  0
LINE
  5
147
330
E7
100
AcDbEntity
  8
Слой 1
 62
   250
420
  3947579
370
    25
100
AcDbLine
 10
129.5305025206811
 20
-185.6078988896038
 30
0.0
 11
129.5305025206811
 21
-185.5430603226504
 31
0.0
  0
LINE
  5
148
330
E7
100
AcDbEntity
  8
Слой 1
 62
   250
420
  3947579
370
    25
100
AcDbLine
 10
127.6880588318729
 20
-185.5736541489434
 30
0.0
 11
127.6880588318729
 21
-185.6078988896038
 31
0.0
  0
LINE
  5
149
330
E7
100
AcDbEntity
  8
Слой 1
 62
   250
420
  3947579
370
    25
100
AcDbLine
 10
127.6880588318729
 20
-236.3606738628278
 30
0.0
 11
127.6880588318729
 21
-236.3917205697201
 31
0.0
  0
LINE
  5
14A
330
E7
100
AcDbEntity
  8
Слой 1
 62
   250
420
  3947579
370
    25
100
AcDbLine
 10
187.2863792142094
 20
-230.6726189556008
 30
0.0
 11
180.1188957713455
 21
-230.6726189556008
 31
0.0
  0
LINE
  5
14B
330
E7
100
AcDbEntity
  8
Слой 1
 62
   250
420
  3947579
370
    25
100
AcDbLine
 10
126.078493314335
 20
-188.2380064505469
 30
0.0
 11
126.078493314335
 21
-231.2990991389444
 31
0.0
  0
LINE
  5
14C
330
E7
100
AcDbEntity
  8
Слой 1
 62
   250
420
  3947579
370
    25
100
AcDbLine
 10
126.078493314335
 20
-188.2380064505469
 30
0.0
 11
126.078493314335
 21
-231.3301458458373
 31
0.0
  0
LINE
  5
14D
330
E7
100
AcDbEntity
  8
Слой 1
 62
   250
420
  3947579
370
    25
100
AcDbLine
 10
133.5715491359447
 20
-236.3606738628278
 30
0.0
 11
131.3692952951244
 21
-236.3917205697201
 31
0.0
  0
LINE
  5
14E
330
E7
100
AcDbEntity
  8
Слой 1
 62
   250
420
  3947579
370
    25
100
AcDbLine
 10
129.0031126123444
 20
-234.2237184369539
 30
0.0
 11
162.5985688084235
 21
-234.2237184369539
 31
0.0
  0
LINE
  5
14F
330
E7
100
AcDbEntity
  8
Слой 1
 62
   250
420
  3947579
370
    25
100
AcDbLine
 10
129.0031126123444
 20
-234.2579562102208
 30
0.0
 11
162.5985688084235
 21
-234.2579562102208
 31
0.0
  0
LINE
  5
150
330
E7
100
AcDbEntity
  8
Слой 1
 62
   250
420
  3947579
370
    25
100
AcDbLine
 10
124.927828223816
 20
-235.8026831608027
 30
0.0
 11
164.2423860340136
 21
-235.8026831608027
 31
0.0
  0
LINE
  5
151
330
E7
100
AcDbEntity
  8
Слой 1
 62
   250
420
  3947579
370
    25
100
AcDbLine
 10
133.5715491359447
 20
-236.3606738628278
 30
0.0
 11
161.8109119036816
 21
-236.3606738628278
 31
0.0
  0
LINE
  5
152
330
E7
100
AcDbEntity
  8
Слой 1
 62
   250
420
  3947579
370
    25
100
AcDbLine
 10
127.2944568198009
 20
-236.3917205697201
 30
0.0
 11
127.6880588318729
 21
-236.3917205697201
 31
0.0
  0
LINE
  5
153
330
E7
100
AcDbEntity
  8
Слой 1
 62
   250
420
  3947579
370
    25
100
AcDbLine
 10
187.7799842298785
 20
-236.4602100510391
 30
0.0
 11
162.4684387939174
 21
-236.4602100510391
 31
0.0
  0
LINE
  5
154
330
E7
100
AcDbEntity
  8
Слой 1
 62
   250
420
  3947579
370
    25
100
AcDbLine
 10
129.5305025206811
 20
-236.4602100510391
 30
0.0
 11
101.3902300279507
 21
-236.4602100510391
 31
0.0
  0
LINE
  5
155
330
E7
100
AcDbEntity
  8
Слой 1
 62
   250
420
  3947579
370
    25
100
AcDbLine
 10
130.8766030080462
 20
-236.3917205697201
 30
0.0
 11
127.3592953867543
 21
-236.3606738628278
 31
0.0
  0
LINE
  5
156
330
E7
100
AcDbEntity
  8
Слой 1
 62
   250
420
  3947579
370
    25
100
AcDbLine
 10
161.8109119036816
 20
-236.3606738628278
 30
0.0
 11
162.4684387939174
 21
-236.4602100510391
 31
0.0
  0
LINE
  5
157
330
E7
100
AcDbEntity
  8
Слой 1
 62
   250
420
  3947579
370
    25
100
AcDbLine
 10
122.7566210898892
 20
-235.4054302343664
 30
0.0
 11
122.7566210898892
 21
-186.5599444842983
 31
0.0
  0
LINE
  5
158
330
E7
100
AcDbEntity
  8
Слой 1
 62
   250
420
  3947579
370
    25
100
AcDbLine
 10
127.6880588318729
 20
-236.3917205697201
 30
0.0
 11
129.5305025206811
 21
-236.4602100510391
 31
0.0
  0
LINE
  5
159
330
E7
100
AcDbEntity
  8
Слой 1
 62
   250
420
  3947579
370
    25
100
AcDbLine
 10
129.0031126123444
 20
-234.2237184369539
 30
0.0
 11
126.078493314335
 21
-231.2990991389444
 31
0.0
  0
LINE
  5
15A
330
E7
100
AcDbEntity
  8
Слой 1
 62
   250
420
  3947579
370
    25
100
AcDbLine
 10
126.078493314335
 20
-231.3301458458373
 30
0.0
 11
129.0031126123444
 21
-234.2579562102208
 31
0.0
  0
LINE
  5
15B
330
E7
100
AcDbEntity
  8
Слой 1
 62
   250
420
  3947579
370
    25
100
AcDbLine
 10
113.8151834395348
 20
-235.504520509372
 30
0.0
 11
113.8151834395348
 21
-186.4608542092901
 31
0.0
  0
LINE
  5
15C
330
E7
100
AcDbEntity
  8
Слой 1
 62
   250
420
  3947579
370
    25
100
AcDbLine
 10
123.2191724312724
 20
-186.0667993166215
 30
0.0
 11
122.7566210898892
 21
-186.5599444842983
 31
0.0
  0
LINE
  5
15D
330
E7
100
AcDbEntity
  8
Слой 1
 62
   250
420
  3947579
370
    25
100
AcDbLine
 10
122.7566210898892
 20
-235.4054302343664
 30
0.0
 11
123.2191724312724
 21
-235.8985823694375
 31
0.0
  0
LINE
  5
15E
330
E7
100
AcDbEntity
  8
Слой 1
 62
   250
420
  3947579
370
    25
100
AcDbLine
 10
108.393784628854
 20
-209.7687792350453
 30
0.0
 11
108.393784628854
 21
-208.3199375583084
 31
0.0
  0
LINE
  5
15F
330
E7
100
AcDbEntity
  8
Слой 1
 62
   250
420
  3947579
370
    25
100
AcDbLine
 10
108.393784628854
 20
-210.2619174353279
 30
0.0
 11
108.393784628854
 21
-211.7071081976999
 31
0.0
  0
LINE
  5
160
330
E7
100
AcDbEntity
  8
Слой 1
 62
   250
420
  3947579
370
    25
100
AcDbLine
 10
108.393784628854
 20
-213.2856270083449
 30
0.0
 11
108.393784628854
 21
-214.7308177707169
 31
0.0
  0
LINE
  5
161
330
E7
100
AcDbEntity
  8
Слой 1
 62
   250
420
  3947579
370
    25
100
AcDbLine
 10
108.393784628854
 20
-215.2239559710001
 30
0.0
 11
108.393784628854
 21
-216.6385459396842
 31
0.0
  0
LINE
  5
162
330
E7
100
AcDbEntity
  8
Слой 1
 62
   250
420
  3947579
370
    25
100
AcDbLine
 10
107.9006464285708
 20
-214.7308177707169
 30
0.0
 11
107.9006464285708
 21
-213.2856270083449
 31
0.0
  0
LINE
  5
163
330
E7
100
AcDbEntity
  8
Слой 1
 62
   250
420
  3947579
370
    25
100
AcDbLine
 10
107.9006464285708
 20
-209.7687792350453
 30
0.0
 11
107.9006464285708
 21
-208.3199375583084
 31
0.0
  0
LINE
  5
164
330
E7
100
AcDbEntity
  8
Слой 1
 62
   250
420
  3947579
370
    25
100
AcDbLine
 10
107.9006464285708
 20
-210.2619174353279
 30
0.0
 11
107.9006464285708
 21
-211.7071081976999
 31
0.0
  0
LINE
  5
165
330
E7
100
AcDbEntity
  8
Слой 1
 62
   250
420
  3947579
370
    25
100
AcDbLine
 10
107.9006464285708
 20
-215.2239559710001
 30
0.0
 11
107.9006464285708
 21
-216.6385459396842
 31
0.0
  0
LINE
  5
166
330
E7
100
AcDbEntity
  8
Слой 1
 62
   250
420
  3947579
370
    25
100
AcDbLine
 10
113.8151861298349
 20
-186.4608558637167
 30
0.0
 11
114.6345060195696
 21
-185.60790055098
 31
0.0
  0
LINE
  5
167
330
E7
100
AcDbEntity
  8
Слой 1
 62
   250
420
  3947579
370
    25
100
AcDbLine
 10
113.8151680114009
 20
-235.5045130632407
 30
0.0
 11
114.6203877384619
 21
-236.460202573625
 31
0.0
  0
LINE
  5
168
330
E7
100
AcDbEntity
  8
Слой 1
 62
   250
420
  3947579
370
    25
100
AcDbLine
 10
101.3902300279507
 20
-217.0321479517562
 30
0.0
 11
101.3902300279507
 21
-212.8920249962736
 31
0.0
  0
LINE
  5
169
330
E7
100
AcDbEntity
  8
Слой 1
 62
   250
420
  3947579
370
    25
100
AcDbLine
 10
101.3902300279507
 20
-212.1007102097718
 30
0.0
 11
101.3902300279507
 21
-207.9605802868963
 31
0.0
  0
LINE
  5
16A
330
E7
100
AcDbEntity
  8
Слой 1
 62
   250
420
  3947579
370
    25
100
AcDbLine
 10
101.1916035647323
 20
-207.9605802868963
 30
0.0
 11
101.1916035647323
 21
-212.1007102097718
 31
0.0
  0
LINE
  5
16B
330
E7
100
AcDbEntity
  8
Слой 1
 62
   250
420
  3947579
370
    25
100
AcDbLine
 10
101.1916035647323
 20
-212.8920249962736
 30
0.0
 11
101.1916035647323
 21
-217.0321479517562
 31
0.0
  0
LINE
  5
16C
330
E7
100
AcDbEntity
  8
Слой 1
 62
   250
420
  3947579
370
    25
100
AcDbLine
 10
100.8975377408722
 20
-186.001960749668
 30
0.0
 11
100.8975377408722
 21
-235.9670718507559
 31
0.0
  0
LINE
  5
16D
330
E7
100
AcDbEntity
  8
Слой 1
 62
   250
420
  3947579
370
    25
100
AcDbLine
 10
101.3902300279507
 20
-185.5088155819899
 30
0.0
 11
100.8975377408722
 21
-186.001960749668
 31
0.0
  0
LINE
  5
16E
330
E7
100
AcDbEntity
  8
Слой 1
 62
   250
420
  3947579
370
    25
100
AcDbLine
 10
100.8975377408722
 20
-235.9670718507559
 30
0.0
 11
101.3902300279507
 21
-236.4602100510391
 31
0.0
  0
LINE
  5
16F
330
E7
100
AcDbEntity
  8
Слой 1
 62
   250
420
  3947579
370
    25
100
AcDbLine
 10
19.69959019593216
 20
-101.8580200868411
 30
0.0
 11
20.19272839621569
 21
-101.36486795177
 31
0.0
  0
LINE
  5
170
330
E7
100
AcDbEntity
  8
Слой 1
 62
   250
420
  3947579
370
    25
100
AcDbLine
 10
19.60004007293364
 20
-113.4605980702442
 30
0.0
 11
20.09319220800443
 21
-112.967459869961
 31
0.0
  0
LINE
  5
171
330
E7
100
AcDbEntity
  8
Слой 1
 62
   250
420
  3947579
370
    25
100
AcDbLine
 10
19.60004007293364
 20
-112.967459869961
 30
0.0
 11
20.09319220800443
 21
-112.4743216696778
 31
0.0
  0
LINE
  5
172
330
E7
100
AcDbEntity
  8
Слой 1
 62
   250
420
  3947579
370
    25
100
AcDbLine
 10
19.04206330569669
 20
-158.0664246766178
 30
0.0
 11
69.99345777474521
 21
-158.0664246766178
 31
0.0
  0
LINE
  5
173
330
E7
100
AcDbEntity
  8
Слой 1
 62
   250
420
  3947579
370
    25
100
AcDbLine
 10
46.78462302399755
 20
-158.0011262616715
 30
0.0
 11
42.25043820845047
 21
-158.0011262616715
 31
0.0
  0
LINE
  5
174
330
E7
100
AcDbEntity
  8
Слой 1
 62
   250
420
  3947579
370
    25
100
AcDbLine
 10
34.71993961241619
 20
-157.8024997984546
 30
0.0
 11
54.28132975997193
 21
-157.8024997984546
 31
0.0
  0
LINE
  5
175
330
E7
100
AcDbEntity
  8
Слой 1
 62
   250
420
  3947579
370
    25
100
AcDbLine
 10
19.69959019593216
 20
-101.8580200868411
 30
0.0
 11
19.23703885454953
 21
-149.6176793133436
 31
0.0
  0
LINE
  5
176
330
E7
100
AcDbEntity
  8
Слой 1
 62
   250
420
  3947579
370
    25
100
AcDbLine
 10
34.06241272218009
 20
-155.2408817188273
 30
0.0
 11
34.52450421557043
 21
-155.2408817188273
 31
0.0
  0
LINE
  5
177
330
E7
100
AcDbEntity
  8
Слой 1
 62
   250
420
  3947579
370
    25
100
AcDbLine
 10
54.47630530882444
 20
-155.2408817188273
 30
0.0
 11
54.96990335710122
 21
-155.2408817188273
 31
0.0
  0
LINE
  5
178
330
E7
100
AcDbEntity
  8
Слой 1
 62
   250
420
  3947579
370
    25
100
AcDbLine
 10
42.25043820845047
 20
-158.0011262616715
 30
0.0
 11
41.68879659206161
 21
-157.8024997984546
 31
0.0
  0
LINE
  5
179
330
E7
100
AcDbEntity
  8
Слой 1
 62
   250
420
  3947579
370
    25
100
AcDbLine
 10
20.22377510310919
 20
-149.6176793133436
 30
0.0
 11
20.22377510310919
 21
-149.9158419647723
 31
0.0
  0
LINE
  5
17A
330
E7
100
AcDbEntity
  8
Слой 1
 62
   250
420
  3947579
370
    25
100
AcDbLine
 10
20.58633040828732
 20
-149.9158419647723
 30
0.0
 11
20.58633040828732
 21
-149.6176793133436
 31
0.0
  0
LINE
  5
17B
330
E7
100
AcDbEntity
  8
Слой 1
 62
   250
420
  3947579
370
    25
100
AcDbLine
 10
19.23703885454953
 20
-149.9158419647723
 30
0.0
 11
19.04206330569669
 21
-158.0664246766178
 31
0.0
  0
LINE
  5
17C
330
E7
100
AcDbEntity
  8
Слой 1
 62
   250
420
  3947579
370
    25
100
AcDbLine
 10
34.06241272218009
 20
-154.2856520251544
 30
0.0
 11
38.33633750871589
 21
-154.2856520251544
 31
0.0
  0
LINE
  5
17D
330
E7
100
AcDbEntity
  8
Слой 1
 62
   250
420
  3947579
370
    25
100
AcDbLine
 10
50.66494579846045
 20
-154.2856520251544
 30
0.0
 11
54.93885665020771
 21
-154.2856520251544
 31
0.0
  0
LINE
  5
17E
330
E7
100
AcDbEntity
  8
Слой 1
 62
   250
420
  3947579
370
    25
100
AcDbLine
 10
50.13755589012441
 20
-153.4979881530195
 30
0.0
 11
38.89796519031686
 21
-153.4979881530195
 31
0.0
  0
LINE
  5
17F
330
E7
100
AcDbEntity
  8
Слой 1
 62
   250
420
  3947579
370
    25
100
AcDbLine
 10
19.46990309103389
 20
-124.8339766663165
 30
0.0
 11
19.963055226105
 21
-124.3408245312457
 31
0.0
  0
LINE
  5
180
330
E7
100
AcDbEntity
  8
Слой 1
 62
   250
420
  3947579
370
    25
100
AcDbLine
 10
19.46990309103389
 20
-124.2412883430341
 30
0.0
 11
19.963055226105
 21
-123.7481362079636
 31
0.0
  0
LINE
  5
181
330
E7
100
AcDbEntity
  8
Слой 1
 62
   250
420
  3947579
370
    25
100
AcDbLine
 10
54.8735582352617
 20
-151.0322692820264
 30
0.0
 11
34.13090220349849
 21
-151.0322692820264
 31
0.0
  0
LINE
  5
182
330
E7
100
AcDbEntity
  8
Слой 1
 62
   250
420
  3947579
370
    25
100
AcDbLine
 10
19.23703885454953
 20
-149.9158419647723
 30
0.0
 11
69.76378460463291
 21
-149.9158419647723
 31
0.0
  0
LINE
  5
183
330
E7
100
AcDbEntity
  8
Слой 1
 62
   250
420
  3947579
370
    25
100
AcDbLine
 10
27.72003592587823
 20
-142.4191352287976
 30
0.0
 11
27.75062278477785
 21
-142.4191352287976
 31
0.0
  0
LINE
  5
184
330
E7
100
AcDbEntity
  8
Слой 1
 62
   250
420
  3947579
370
    25
100
AcDbLine
 10
31.63093162445445
 20
-146.5939697403265
 30
0.0
 11
31.69623003940047
 21
-146.6624592216456
 31
0.0
  0
LINE
  5
185
330
E7
100
AcDbEntity
  8
Слой 1
 62
   250
420
  3947579
370
    25
100
AcDbLine
 10
24.82600348676901
 20
-125.3271148666003
 30
0.0
 11
24.82600348676901
 21
-123.9125248979162
 31
0.0
  0
LINE
  5
186
330
E7
100
AcDbEntity
  8
Слой 1
 62
   250
420
  3947579
370
    25
100
AcDbLine
 10
19.23703885454953
 20
-149.6176793133436
 30
0.0
 11
69.76378460463291
 21
-149.6176793133436
 31
0.0
  0
LINE
  5
187
330
E7
100
AcDbEntity
  8
Слой 1
 62
   250
420
  3947579
370
    25
100
AcDbLine
 10
27.65473751093157
 20
-147.6793364158998
 30
0.0
 11
31.76427360751353
 21
-147.6793364158998
 31
0.0
  0
LINE
  5
188
330
E7
100
AcDbEntity
  8
Слой 1
 62
   250
420
  3947579
370
    25
100
AcDbLine
 10
37.35004717335997
 20
-147.6793364158998
 30
0.0
 11
41.45958326994255
 21
-147.6793364158998
 31
0.0
  0
LINE
  5
189
330
E7
100
AcDbEntity
  8
Слой 1
 62
   250
420
  3947579
370
    25
100
AcDbLine
 10
27.65473751093157
 20
-147.6793364158998
 30
0.0
 11
27.65473751093157
 21
-140.7753180032082
 31
0.0
  0
LINE
  5
18A
330
E7
100
AcDbEntity
  8
Слой 1
 62
   250
420
  3947579
370
    25
100
AcDbLine
 10
28.34331110806055
 20
-146.5939697403265
 30
0.0
 11
28.34331110806055
 21
-143.3095402903057
 31
0.0
  0
LINE
  5
18B
330
E7
100
AcDbEntity
  8
Слой 1
 62
   250
420
  3947579
370
    25
100
AcDbLine
 10
28.64147375949156
 20
-143.6040520273707
 30
0.0
 11
28.64147375949156
 21
-146.5939697403265
 31
0.0
  0
LINE
  5
18C
330
E7
100
AcDbEntity
  8
Слой 1
 62
   250
420
  3947579
370
    25
100
AcDbLine
 10
27.72003592587823
 20
-146.6624592216456
 30
0.0
 11
27.65473751093157
 21
-147.6793364158998
 31
0.0
  0
LINE
  5
18D
330
E7
100
AcDbEntity
  8
Слой 1
 62
   250
420
  3947579
370
    25
100
AcDbLine
 10
41.36003314694307
 20
-146.5939697403265
 30
0.0
 11
37.48337522163307
 21
-146.5939697403265
 31
0.0
  0
LINE
  5
18E
330
E7
100
AcDbEntity
  8
Слой 1
 62
   250
420
  3947579
370
    25
100
AcDbLine
 10
31.63093162445445
 20
-146.5939697403265
 30
0.0
 11
27.75062278477785
 21
-146.5939697403265
 31
0.0
  0
LINE
  5
18F
330
E7
100
AcDbEntity
  8
Слой 1
 62
   250
420
  3947579
370
    25
100
AcDbLine
 10
31.76427360751353
 20
-147.6793364158998
 30
0.0
 11
31.69623003940047
 21
-146.6624592216456
 31
0.0
  0
LINE
  5
190
330
E7
100
AcDbEntity
  8
Слой 1
 62
   250
420
  3947579
370
    25
100
AcDbLine
 10
30.5793568089417
 20
-146.5939697403265
 30
0.0
 11
30.5793568089417
 21
-143.6040520273707
 31
0.0
  0
LINE
  5
191
330
E7
100
AcDbEntity
  8
Слой 1
 62
   250
420
  3947579
370
    25
100
AcDbLine
 10
30.87386854600612
 20
-143.3095402903057
 30
0.0
 11
30.87386854600612
 21
-146.5939697403265
 31
0.0
  0
LINE
  5
192
330
E7
100
AcDbEntity
  8
Слой 1
 62
   250
420
  3947579
370
    25
100
AcDbLine
 10
31.76427360751353
 20
-140.7753180032082
 30
0.0
 11
31.76427360751353
 21
-147.6793364158998
 31
0.0
  0
LINE
  5
193
330
E7
100
AcDbEntity
  8
Слой 1
 62
   250
420
  3947579
370
    25
100
AcDbLine
 10
40.27785753774184
 20
-143.6040520273707
 30
0.0
 11
38.33633750871589
 21
-143.6040520273707
 31
0.0
  0
LINE
  5
194
330
E7
100
AcDbEntity
  8
Слой 1
 62
   250
420
  3947579
370
    25
100
AcDbLine
 10
30.5793568089417
 20
-143.6040520273707
 30
0.0
 11
28.64147375949156
 21
-143.6040520273707
 31
0.0
  0
LINE
  5
195
330
E7
100
AcDbEntity
  8
Слой 1
 62
   250
420
  3947579
370
    25
100
AcDbLine
 10
28.34331110806055
 20
-143.3095402903057
 30
0.0
 11
30.87386854600612
 21
-143.3095402903057
 31
0.0
  0
LINE
  5
196
330
E7
100
AcDbEntity
  8
Слой 1
 62
   250
420
  3947579
370
    25
100
AcDbLine
 10
38.04181183686261
 20
-143.3095402903057
 30
0.0
 11
40.57282912280014
 21
-143.3095402903057
 31
0.0
  0
LINE
  5
197
330
E7
100
AcDbEntity
  8
Слой 1
 62
   250
420
  3947579
370
    25
100
AcDbLine
 10
27.75062278477785
 20
-142.4191352287976
 30
0.0
 11
31.63093162445445
 21
-142.4191352287976
 31
0.0
  0
LINE
  5
198
330
E7
100
AcDbEntity
  8
Слой 1
 62
   250
420
  3947579
370
    25
100
AcDbLine
 10
37.48337522163307
 20
-142.4191352287976
 30
0.0
 11
41.36003314694307
 21
-142.4191352287976
 31
0.0
  0
LINE
  5
199
330
E7
100
AcDbEntity
  8
Слой 1
 62
   250
420
  3947579
370
    25
100
AcDbLine
 10
27.72003592587823
 20
-142.4191352287976
 30
0.0
 11
31.6651833325076
 21
-142.4191352287976
 31
0.0
  0
LINE
  5
19A
330
E7
100
AcDbEntity
  8
Слой 1
 62
   250
420
  3947579
370
    25
100
AcDbLine
 10
37.44912351358056
 20
-142.4191352287976
 30
0.0
 11
41.36003314694307
 21
-142.4191352287976
 31
0.0
  0
LINE
  5
19B
330
E7
100
AcDbEntity
  8
Слой 1
 62
   250
420
  3947579
370
    25
100
AcDbLine
 10
37.48337522163307
 20
-142.4191352287976
 30
0.0
 11
37.44912351358056
 21
-142.4191352287976
 31
0.0
  0
LINE
  5
19C
330
E7
100
AcDbEntity
  8
Слой 1
 62
   250
420
  3947579
370
    25
100
AcDbLine
 10
41.39428485499622
 20
-146.6624592216456
 30
0.0
 11
41.36003314694307
 21
-146.5939697403265
 31
0.0
  0
LINE
  5
19D
330
E7
100
AcDbEntity
  8
Слой 1
 62
   250
420
  3947579
370
    25
100
AcDbLine
 10
34.58980263051645
 20
-157.6723628165542
 30
0.0
 11
34.49026644230551
 21
-155.6349435788916
 31
0.0
  0
LINE
  5
19E
330
E7
100
AcDbEntity
  8
Слой 1
 62
   250
420
  3947579
370
    25
100
AcDbLine
 10
34.13090220349849
 20
-151.0322692820264
 30
0.0
 11
33.99711430723375
 21
-158.0664246766178
 31
0.0
  0
LINE
  5
19F
330
E7
100
AcDbEntity
  8
Слой 1
 62
   250
420
  3947579
370
    25
100
AcDbLine
 10
41.45958326994255
 20
-140.7753180032082
 30
0.0
 11
37.35004717335997
 21
-140.7753180032082
 31
0.0
  0
LINE
  5
1A0
330
E7
100
AcDbEntity
  8
Слой 1
 62
   250
420
  3947579
370
    25
100
AcDbLine
 10
31.76427360751353
 20
-140.7753180032082
 30
0.0
 11
27.65473751093157
 21
-140.7753180032082
 31
0.0
  0
LINE
  5
1A1
330
E7
100
AcDbEntity
  8
Слой 1
 62
   250
420
  3947579
370
    25
100
AcDbLine
 10
34.49026644230551
 20
-155.6349435788916
 30
0.0
 11
34.55556485725087
 21
-154.4189800734269
 31
0.0
  0
LINE
  5
1A2
330
E7
100
AcDbEntity
  8
Слой 1
 62
   250
420
  3947579
370
    25
100
AcDbLine
 10
37.35004717335997
 20
-147.6793364158998
 30
0.0
 11
37.35004717335997
 21
-140.7753180032082
 31
0.0
  0
LINE
  5
1A3
330
E7
100
AcDbEntity
  8
Слой 1
 62
   250
420
  3947579
370
    25
100
AcDbLine
 10
38.04181183686261
 20
-146.5939697403265
 30
0.0
 11
38.04181183686261
 21
-143.3095402903057
 31
0.0
  0
LINE
  5
1A4
330
E7
100
AcDbEntity
  8
Слой 1
 62
   250
420
  3947579
370
    25
100
AcDbLine
 10
38.33633750871589
 20
-143.6040520273707
 30
0.0
 11
38.33633750871589
 21
-146.5939697403265
 31
0.0
  0
LINE
  5
1A5
330
E7
100
AcDbEntity
  8
Слой 1
 62
   250
420
  3947579
370
    25
100
AcDbLine
 10
36.62722186817817
 20
-157.8024997984546
 30
0.0
 11
36.59662107449033
 21
-158.0664246766178
 31
0.0
  0
LINE
  5
1A6
330
E7
100
AcDbEntity
  8
Слой 1
 62
   250
420
  3947579
370
    25
100
AcDbLine
 10
37.41853665467901
 20
-146.6624592216456
 30
0.0
 11
37.35004717335997
 21
-147.6793364158998
 31
0.0
  0
LINE
  5
1A7
330
E7
100
AcDbEntity
  8
Слой 1
 62
   250
420
  3947579
370
    25
100
AcDbLine
 10
50.66494579846045
 20
-154.2856520251544
 30
0.0
 11
50.66494579846045
 21
-154.2856520251544
 31
0.0
  0
LINE
  5
1A8
330
E7
100
AcDbEntity
  8
Слой 1
 62
   250
420
  3947579
370
    25
100
AcDbLine
 10
50.66494579846045
 20
-154.2856520251544
 30
0.0
 11
50.2366322303434
 21
-153.5628267199729
 31
0.0
  0
LINE
  5
1A9
330
E7
100
AcDbEntity
  8
Слой 1
 62
   250
420
  3947579
370
    25
100
AcDbLine
 10
41.45958326994255
 20
-147.6793364158998
 30
0.0
 11
41.39428485499622
 21
-146.6624592216456
 31
0.0
  0
LINE
  5
1AA
330
E7
100
AcDbEntity
  8
Слой 1
 62
   250
420
  3947579
370
    25
100
AcDbLine
 10
40.27785753774184
 20
-146.5939697403265
 30
0.0
 11
40.27785753774184
 21
-143.6040520273707
 31
0.0
  0
LINE
  5
1AB
330
E7
100
AcDbEntity
  8
Слой 1
 62
   250
420
  3947579
370
    25
100
AcDbLine
 10
40.57282912280014
 20
-143.3095402903057
 30
0.0
 11
40.57282912280014
 21
-146.5939697403265
 31
0.0
  0
LINE
  5
1AC
330
E7
100
AcDbEntity
  8
Слой 1
 62
   250
420
  3947579
370
    25
100
AcDbLine
 10
41.45958326994255
 20
-140.7753180032082
 30
0.0
 11
41.45958326994255
 21
-147.6793364158998
 31
0.0
  0
LINE
  5
1AD
330
E7
100
AcDbEntity
  8
Слой 1
 62
   250
420
  3947579
370
    25
100
AcDbLine
 10
27.75062278477785
 20
-146.5939697403265
 30
0.0
 11
27.72003592587823
 21
-146.6624592216456
 31
0.0
  0
LINE
  5
1AE
330
E7
100
AcDbEntity
  8
Слой 1
 62
   250
420
  3947579
370
    25
100
AcDbLine
 10
31.63093162445445
 20
-142.4191352287976
 30
0.0
 11
31.6651833325076
 21
-142.4191352287976
 31
0.0
  0
LINE
  5
1AF
330
E7
100
AcDbEntity
  8
Слой 1
 62
   250
420
  3947579
370
    25
100
AcDbLine
 10
51.02794701684487
 20
-125.3271148666003
 30
0.0
 11
24.82600348676901
 21
-125.3271148666003
 31
0.0
  0
LINE
  5
1B0
330
E7
100
AcDbEntity
  8
Слой 1
 62
   250
420
  3947579
370
    25
100
AcDbLine
 10
46.84992143894421
 20
-124.7344265433173
 30
0.0
 11
29.00083799829665
 21
-124.7344265433173
 31
0.0
  0
LINE
  5
1B1
330
E7
100
AcDbEntity
  8
Слой 1
 62
   250
420
  3947579
370
    25
100
AcDbLine
 10
24.82600348676901
 20
-124.3408245312457
 30
0.0
 11
19.963055226105
 21
-124.3408245312457
 31
0.0
  0
LINE
  5
1B2
330
E7
100
AcDbEntity
  8
Слой 1
 62
   250
420
  3947579
370
    25
100
AcDbLine
 10
69.04140521265583
 20
-124.3408245312457
 30
0.0
 11
51.02794701684487
 21
-124.3408245312457
 31
0.0
  0
LINE
  5
1B3
330
E7
100
AcDbEntity
  8
Слой 1
 62
   250
420
  3947579
370
    25
100
AcDbLine
 10
52.40783936426986
 20
-158.0664246766178
 30
0.0
 11
52.40783936426986
 21
-157.8024997984546
 31
0.0
  0
LINE
  5
1B4
330
E7
100
AcDbEntity
  8
Слой 1
 62
   250
420
  3947579
370
    25
100
AcDbLine
 10
51.02794701684487
 20
-123.9125248979162
 30
0.0
 11
51.02794701684487
 21
-125.3271148666003
 31
0.0
  0
LINE
  5
1B5
330
E7
100
AcDbEntity
  8
Слой 1
 62
   250
420
  3947579
370
    25
100
AcDbLine
 10
38.76417729405213
 20
-153.5628267199729
 30
0.0
 11
38.33633750871589
 21
-154.2856520251544
 31
0.0
  0
LINE
  5
1B6
330
E7
100
AcDbEntity
  8
Слой 1
 62
   250
420
  3947579
370
    25
100
AcDbLine
 10
37.41853665467901
 20
-146.6624592216456
 30
0.0
 11
37.48337522163307
 21
-146.5939697403265
 31
0.0
  0
LINE
  5
1B7
330
E7
100
AcDbEntity
  8
Слой 1
 62
   250
420
  3947579
370
    25
100
AcDbLine
 10
41.36003314694307
 20
-142.4191352287976
 30
0.0
 11
41.36003314694307
 21
-142.4191352287976
 31
0.0
  0
LINE
  5
1B8
330
E7
100
AcDbEntity
  8
Слой 1
 62
   250
420
  3947579
370
    25
100
AcDbLine
 10
29.00083799829665
 20
-123.7823879160165
 30
0.0
 11
46.84992143894421
 21
-123.7823879160165
 31
0.0
  0
LINE
  5
1B9
330
E7
100
AcDbEntity
  8
Слой 1
 62
   250
420
  3947579
370
    25
100
AcDbLine
 10
69.04140521265583
 20
-123.7481362079636
 30
0.0
 11
19.963055226105
 21
-123.7481362079636
 31
0.0
  0
LINE
  5
1BA
330
E7
100
AcDbEntity
  8
Слой 1
 62
   250
420
  3947579
370
    25
100
AcDbLine
 10
54.44571844992418
 20
-154.4189800734269
 30
0.0
 11
54.5105570168776
 21
-155.6349435788916
 31
0.0
  0
LINE
  5
1BB
330
E7
100
AcDbEntity
  8
Слой 1
 62
   250
420
  3947579
370
    25
100
AcDbLine
 10
53.13066466945262
 20
-158.0664246766178
 30
0.0
 11
53.13066466945262
 21
-157.8024997984546
 31
0.0
  0
LINE
  5
1BC
330
E7
100
AcDbEntity
  8
Слой 1
 62
   250
420
  3947579
370
    25
100
AcDbLine
 10
55.00369521716145
 20
-158.0664246766178
 30
0.0
 11
54.8735582352617
 21
-151.0322692820264
 31
0.0
  0
LINE
  5
1BD
330
E7
100
AcDbEntity
  8
Слой 1
 62
   250
420
  3947579
370
    25
100
AcDbLine
 10
54.5105570168776
 20
-155.6349435788916
 30
0.0
 11
54.44571844992418
 21
-157.6723628165542
 31
0.0
  0
LINE
  5
1BE
330
E7
100
AcDbEntity
  8
Слой 1
 62
   250
420
  3947579
370
    25
100
AcDbLine
 10
68.94232887243749
 20
-112.967459869961
 30
0.0
 11
20.09319220800443
 21
-112.967459869961
 31
0.0
  0
LINE
  5
1BF
330
E7
100
AcDbEntity
  8
Слой 1
 62
   250
420
  3947579
370
    25
100
AcDbLine
 10
68.94232887243749
 20
-112.4743216696778
 30
0.0
 11
20.09319220800443
 21
-112.4743216696778
 31
0.0
  0
LINE
  5
1C0
330
E7
100
AcDbEntity
  8
Слой 1
 62
   250
420
  3947579
370
    25
100
AcDbLine
 10
69.04140521265583
 20
-123.7481362079636
 30
0.0
 11
69.53455734772726
 21
-124.2106875493456
 31
0.0
  0
LINE
  5
1C1
330
E7
100
AcDbEntity
  8
Слой 1
 62
   250
420
  3947579
370
    25
100
AcDbLine
 10
69.04140521265583
 20
-124.3408245312457
 30
0.0
 11
69.53455734772726
 21
-124.8339766663165
 31
0.0
  0
LINE
  5
1C2
330
E7
100
AcDbEntity
  8
Слой 1
 62
   250
420
  3947579
370
    25
100
AcDbLine
 10
69.99345777474521
 20
-158.0664246766178
 30
0.0
 11
69.76378460463291
 21
-149.9158419647723
 31
0.0
  0
LINE
  5
1C3
330
E7
100
AcDbEntity
  8
Слой 1
 62
   250
420
  3947579
370
    25
100
AcDbLine
 10
68.41447911610756
 20
-149.6176793133436
 30
0.0
 11
68.41447911610756
 21
-149.9158419647723
 31
0.0
  0
LINE
  5
1C4
330
E7
100
AcDbEntity
  8
Слой 1
 62
   250
420
  3947579
370
    25
100
AcDbLine
 10
68.81173204254515
 20
-149.9158419647723
 30
0.0
 11
68.81173204254515
 21
-149.6176793133436
 31
0.0
  0
LINE
  5
1C5
330
E7
100
AcDbEntity
  8
Слой 1
 62
   250
420
  3947579
370
    25
100
AcDbLine
 10
69.76378460463291
 20
-149.6176793133436
 30
0.0
 11
69.30488417761624
 21
-101.8580200868411
 31
0.0
  0
LINE
  5
1C6
330
E7
100
AcDbEntity
  8
Слой 1
 62
   250
420
  3947579
370
    25
100
AcDbLine
 10
47.31201293233391
 20
-157.8024997984546
 30
0.0
 11
46.78462302399755
 21
-158.0011262616715
 31
0.0
  0
LINE
  5
1C7
330
E7
100
AcDbEntity
  8
Слой 1
 62
   250
420
  3947579
370
    25
100
AcDbLine
 10
20.15847668816254
 20
-103.2726100555249
 30
0.0
 11
19.69959019593216
 21
-103.2726100555249
 31
0.0
  0
LINE
  5
1C8
330
E7
100
AcDbEntity
  8
Слой 1
 62
   250
420
  3947579
370
    25
100
AcDbLine
 10
68.842778749438
 20
-103.2726100555249
 30
0.0
 11
20.15847668816254
 21
-103.2726100555249
 31
0.0
  0
LINE
  5
1C9
330
E7
100
AcDbEntity
  8
Слой 1
 62
   250
420
  3947579
370
    25
100
AcDbLine
 10
69.33593088450911
 20
-103.2726100555249
 30
0.0
 11
68.842778749438
 21
-103.2726100555249
 31
0.0
  0
LINE
  5
1CA
330
E7
100
AcDbEntity
  8
Слой 1
 62
   250
420
  3947579
370
    25
100
AcDbLine
 10
20.19272839621569
 20
-101.36486795177
 30
0.0
 11
68.81173204254515
 21
-101.36486795177
 31
0.0
  0
LINE
  5
1CB
330
E7
100
AcDbEntity
  8
Слой 1
 62
   250
420
  3947579
370
    25
100
AcDbLine
 10
68.94232887243749
 20
-112.4743216696778
 30
0.0
 11
69.4012292994548
 21
-112.967459869961
 31
0.0
  0
LINE
  5
1CC
330
E7
100
AcDbEntity
  8
Слой 1
 62
   250
420
  3947579
370
    25
100
AcDbLine
 10
68.94232887243749
 20
-112.967459869961
 30
0.0
 11
69.4012292994548
 21
-113.4605980702442
 31
0.0
  0
LINE
  5
1CD
330
E7
100
AcDbEntity
  8
Слой 1
 62
   250
420
  3947579
370
    25
100
AcDbLine
 10
68.81173204254515
 20
-101.36486795177
 30
0.0
 11
69.30488417761624
 21
-101.8580200868411
 31
0.0
  0
LINE
  5
1CE
330
E7
100
AcDbEntity
  8
Слой 1
 62
   250
420
  3947579
370
    25
100
AcDbLine
 10
190.3105416678238
 20
-204.9021730926214
 30
0.0
 11
190.3447864084843
 21
-205.3304796933455
 31
0.0
  0
LINE
  5
1CF
330
E7
100
AcDbEntity
  8
Слой 1
 62
   250
420
  3947579
370
    25
100
AcDbLine
 10
190.2109985122189
 20
-205.2309365377387
 30
0.0
 11
190.180404685924
 21
-204.837334525668
 31
0.0
  0
LINE
  5
1D0
330
E7
100
AcDbEntity
  8
Слой 1
 62
   250
420
  3947579
370
    25
100
AcDbLine
 10
188.1087476749958
 20
-216.7376362146904
 30
0.0
 11
188.0744959669442
 21
-216.9020249046443
 31
0.0
  0
SPLINE
  5
1D1
330
E7
100
AcDbEntity
  8
Слой 1
 62
   250
420
  3947579
370
    25
100
AcDbSpline
210
0.0
220
0.0
230
1.0
 70
     8
 71
     3
 72
     8
 73
     4
 74
     0
 42
0.0000000001
 43
0.0000000001
 40
0.0
 40
0.0
 40
0.0
 40
0.0
 40
1.0
 40
1.0
 40
1.0
 40
1.0
 10
180.1188957713455
 20
-204.5428158212093
 30
0.0
 10
177.8655012598364
 20
-204.5702116137379
 30
0.0
 10
176.0504533635554
 20
-206.3989574062822
 30
0.0
 10
176.0404063816564
 20
-208.6487010034263
 30
0.0
  0
SPLINE
  5
1D2
330
E7
100
AcDbEntity
  8
Слой 1
 62
   250
420
  3947579
370
    25
100
AcDbSpline
210
0.0
220
0.0
230
1.0
 70
     8
 71
     3
 72
    23
 73
    19
 74
     0
 42
0.0000000001
 43
0.0000000001
 40
0.0
 40
0.0
 40
0.0
 40
0.0
 40
1.0
 40
1.0
 40
1.0
 40
2.0
 40
2.0
 40
2.0
 40
3.0
 40
3.0
 40
3.0
 40
4.0
 40
4.0
 40
4.0
 40
5.0
 40
5.0
 40
5.0
 40
6.0
 40
6.0
 40
6.0
 40
6.0
 10
176.9650561838243
 20
-208.6487010034263
 30
0.0
 10
176.9650561838243
 20
-208.6487010034263
 30
0.0
 10
176.9271535614052
 20
-208.6487010034263
 30
0.0
 10
176.9271535614052
 20
-208.6487010034263
 30
0.0
 10
176.9271535614052
 20
-206.8884516595946
 30
0.0
 10
178.3554483937456
 20
-205.4606097078503
 30
0.0
 10
180.1188957713455
 20
-205.4606097078503
 30
0.0
 10
181.8827960295434
 20
-205.4606097078503
 30
0.0
 10
183.3106310138922
 20
-206.8852536258264
 30
0.0
 10
183.3106310138922
 20
-208.6487010034263
 30
0.0
 10
183.3106310138922
 20
-210.4126082290172
 30
0.0
 10
181.8827960295434
 20
-211.8372451795996
 30
0.0
 10
180.1188957713455
 20
-211.8372451795996
 30
0.0
 10
178.358639460119
 20
-211.8372451795996
 30
0.0
 10
176.9308044757702
 20
-210.4126082290172
 30
0.0
 10
176.9308044757702
 20
-208.6487010034263
 30
0.0
 10
176.9271535614052
 20
-208.6487010034263
 30
0.0
 10
176.9271535614052
 20
-208.6487010034263
 30
0.0
 10
176.9271535614052
 20
-208.6487010034263
 30
0.0
  0
SPLINE
  5
1D3
330
E7
100
AcDbEntity
  8
Слой 1
 62
   250
420
  3947579
370
    25
100
AcDbSpline
210
0.0
220
0.0
230
1.0
 70
     8
 71
     3
 72
    23
 73
    19
 74
     0
 42
0.0000000001
 43
0.0000000001
 40
0.0
 40
0.0
 40
0.0
 40
0.0
 40
1.0
 40
1.0
 40
1.0
 40
2.0
 40
2.0
 40
2.0
 40
3.0
 40
3.0
 40
3.0
 40
4.0
 40
4.0
 40
4.0
 40
5.0
 40
5.0
 40
5.0
 40
6.0
 40
6.0
 40
6.0
 40
6.0
 10
176.9993009244835
 20
-208.6487010034263
 30
0.0
 10
176.9993009244835
 20
-208.6487010034263
 30
0.0
 10
176.9613983020644
 20
-208.6487010034263
 30
0.0
 10
176.9613983020644
 20
-208.6487010034263
 30
0.0
 10
176.9613983020644
 20
-206.9058004702229
 30
0.0
 10
178.3755353901493
 20
-205.4912035341458
 30
0.0
 10
180.1188957713455
 20
-205.4912035341458
 30
0.0
 10
181.8654472189139
 20
-205.4948614159038
 30
0.0
 10
183.276386273233
 20
-206.9058004702229
 30
0.0
 10
183.276386273233
 20
-208.6523519177907
 30
0.0
 10
183.276386273233
 20
-210.3952594183876
 30
0.0
 10
181.8654472189139
 20
-211.8061984727074
 30
0.0
 10
180.1188957713455
 20
-211.8061984727074
 30
0.0
 10
178.3755353901493
 20
-211.8061984727074
 30
0.0
 10
176.9650561838243
 20
-210.3952594183876
 30
0.0
 10
176.9650561838243
 20
-208.6487010034263
 30
0.0
 10
176.9613983020644
 20
-208.6487010034263
 30
0.0
 10
176.9613983020644
 20
-208.6487010034263
 30
0.0
 10
176.9613983020644
 20
-208.6487010034263
 30
0.0
  0
SPLINE
  5
1D4
330
E7
100
AcDbEntity
  8
Слой 1
 62
   250
420
  3947579
370
    25
100
AcDbSpline
210
0.0
220
0.0
230
1.0
 70
     8
 71
     3
 72
    11
 73
     7
 74
     0
 42
0.0000000001
 43
0.0000000001
 40
0.0
 40
0.0
 40
0.0
 40
0.0
 40
1.0
 40
1.0
 40
1.0
 40
2.0
 40
2.0
 40
2.0
 40
2.0
 10
189.9374865001484
 20
-202.4638500141581
 30
0.0
 10
189.7489070188279
 20
-201.6419414013621
 30
0.0
 10
189.0091927510098
 20
-201.0565618742046
 30
0.0
 10
188.1562304639286
 20
-201.0565618742046
 30
0.0
 10
188.1256366376337
 20
-201.0565618742046
 30
0.0
 10
188.1119387413691
 20
-201.0565618742046
 30
0.0
 10
188.1087476749958
 20
-201.0565618742046
 30
0.0
  0
SPLINE
  5
1D5
330
E7
100
AcDbEntity
  8
Слой 1
 62
   250
420
  3947579
370
    25
100
AcDbSpline
210
0.0
220
0.0
230
1.0
 70
     8
 71
     3
 72
    11
 73
     7
 74
     0
 42
0.0000000001
 43
0.0000000001
 40
0.0
 40
0.0
 40
0.0
 40
0.0
 40
1.0
 40
1.0
 40
1.0
 40
2.0
 40
2.0
 40
2.0
 40
2.0
 10
189.8721950525963
 20
-202.4743498766544
 30
0.0
 10
189.6904575520142
 20
-201.6661391601223
 30
0.0
 10
188.9785989247149
 20
-201.0908066148644
 30
0.0
 10
188.1562304639286
 20
-201.0908066148644
 30
0.0
 10
188.129294519393
 20
-201.0908066148644
 30
0.0
 10
188.1119387413691
 20
-201.0908066148644
 30
0.0
 10
188.1087476749958
 20
-201.0908066148644
 30
0.0
  0
SPLINE
  5
1D6
330
E7
100
AcDbEntity
  8
Слой 1
 62
   250
420
  3947579
370
    25
100
AcDbSpline
210
0.0
220
0.0
230
1.0
 70
     8
 71
     3
 72
    23
 73
    19
 74
     0
 42
0.0000000001
 43
0.0000000001
 40
0.0
 40
0.0
 40
0.0
 40
0.0
 40
1.0
 40
1.0
 40
1.0
 40
2.0
 40
2.0
 40
2.0
 40
3.0
 40
3.0
 40
3.0
 40
4.0
 40
4.0
 40
4.0
 40
5.0
 40
5.0
 40
5.0
 40
6.0
 40
6.0
 40
6.0
 40
6.0
 10
179.0673070210462
 20
-208.6487010034263
 30
0.0
 10
179.0673070210462
 20
-208.6487010034263
 30
0.0
 10
179.0641159546728
 20
-208.6487010034263
 30
0.0
 10
179.0641159546728
 20
-208.6487010034263
 30
0.0
 10
179.0641159546728
 20
-208.0665125426415
 30
0.0
 10
179.5367073105595
 20
-207.5939211867523
 30
0.0
 10
180.1188957713455
 20
-207.5939211867523
 30
0.0
 10
180.7047281791023
 20
-207.5975721011185
 30
0.0
 10
181.1736755880195
 20
-208.0665125426415
 30
0.0
 10
181.1736755880195
 20
-208.6523519177907
 30
0.0
 10
181.1736755880195
 20
-209.2345334111824
 30
0.0
 10
180.7047281791023
 20
-209.7034808200984
 30
0.0
 10
180.1188957713455
 20
-209.7034808200984
 30
0.0
 10
179.5367073105595
 20
-209.7034808200984
 30
0.0
 10
179.0673070210462
 20
-209.2345334111824
 30
0.0
 10
179.0673070210462
 20
-208.6487010034263
 30
0.0
 10
179.0641159546728
 20
-208.6487010034263
 30
0.0
 10
179.0641159546728
 20
-208.6487010034263
 30
0.0
 10
179.0641159546728
 20
-208.6487010034263
 30
0.0
  0
SPLINE
  5
1D7
330
E7
100
AcDbEntity
  8
Слой 1
 62
   250
420
  3947579
370
    25
100
AcDbSpline
210
0.0
220
0.0
230
1.0
 70
     8
 71
     3
 72
    11
 73
     7
 74
     0
 42
0.0000000001
 43
0.0000000001
 40
0.0
 40
0.0
 40
0.0
 40
0.0
 40
1.0
 40
1.0
 40
1.0
 40
2.0
 40
2.0
 40
2.0
 40
2.0
 10
163.0917139761004
 20
-188.2348084167812
 30
0.0
 10
163.0816669942027
 20
-187.9777324867481
 30
0.0
 10
162.8725406684863
 20
-187.7759079897636
 30
0.0
 10
162.6159245864467
 20
-187.7759079897636
 30
0.0
 10
162.6090756383154
 20
-187.7759079897636
 30
0.0
 10
162.6022266901821
 20
-187.7759079897636
 30
0.0
 10
162.6022266901821
 20
-187.7759079897636
 30
0.0
  0
SPLINE
  5
1D8
330
E7
100
AcDbEntity
  8
Слой 1
 62
   250
420
  3947579
370
    25
100
AcDbSpline
210
0.0
220
0.0
230
1.0
 70
     8
 71
     3
 72
    11
 73
     7
 74
     0
 42
0.0000000001
 43
0.0000000001
 40
0.0
 40
0.0
 40
0.0
 40
0.0
 40
1.0
 40
1.0
 40
1.0
 40
2.0
 40
2.0
 40
2.0
 40
2.0
 10
163.0611201498068
 20
-188.2348084167812
 30
0.0
 10
163.0506202873092
 20
-187.998279331144
 30
0.0
 10
162.8556447384554
 20
-187.8101527304235
 30
0.0
 10
162.6159245864467
 20
-187.8101527304235
 30
0.0
 10
162.6090756383154
 20
-187.8101527304235
 30
0.0
 10
162.6022266901821
 20
-187.8101527304235
 30
0.0
 10
162.6022266901821
 20
-187.8101527304235
 30
0.0
  0
LINE
  5
1D9
330
E7
100
AcDbEntity
  8
Слой 1
 62
   250
420
  3947579
370
    25
100
AcDbLine
 10
190.180404685924
 20
-204.837334525668
 30
0.0
 11
190.180404685924
 21
-204.837334525668
 31
0.0
  0
LINE
  5
1DA
330
E7
100
AcDbEntity
  8
Слой 1
 62
   250
420
  3947579
370
    25
100
AcDbLine
 10
188.1087476749958
 20
-205.2309365377387
 30
0.0
 11
188.0744959669442
 21
-205.2309365377387
 31
0.0
  0
LINE
  5
1DB
330
E7
100
AcDbEntity
  8
Слой 1
 62
   250
420
  3947579
370
    25
100
AcDbLine
 10
188.0744959669442
 20
-205.2309365377387
 30
0.0
 11
188.0744959669442
 21
-205.2309365377387
 31
0.0
  0
LINE
  5
1DC
330
E7
100
AcDbEntity
  8
Слой 1
 62
   250
420
  3947579
370
    25
100
AcDbLine
 10
188.0744959669442
 20
-205.2309365377387
 30
0.0
 11
188.0744959669442
 21
-205.2309365377387
 31
0.0
  0
LINE
  5
1DD
330
E7
100
AcDbEntity
  8
Слой 1
 62
   250
420
  3947579
370
    25
100
AcDbLine
 10
188.0744959669442
 20
-205.2309365377387
 30
0.0
 11
188.0744959669442
 21
-205.2309365377387
 31
0.0
  0
LINE
  5
1DE
330
E7
100
AcDbEntity
  8
Слой 1
 62
   250
420
  3947579
370
    25
100
AcDbLine
 10
188.0744959669442
 20
-205.2309365377387
 30
0.0
 11
188.0744959669442
 21
-205.2309365377387
 31
0.0
  0
LINE
  5
1DF
330
E7
100
AcDbEntity
  8
Слой 1
 62
   250
420
  3947579
370
    25
100
AcDbLine
 10
188.0744959669442
 20
-205.2309365377387
 30
0.0
 11
188.0744959669442
 21
-205.2309365377387
 31
0.0
  0
SPLINE
  5
1E0
330
E7
100
AcDbEntity
  8
Слой 1
 62
   250
420
  3947579
370
    25
100
AcDbSpline
210
0.0
220
0.0
230
1.0
 70
     8
 71
     3
 72
    23
 73
    19
 74
     0
 42
0.0000000001
 43
0.0000000001
 40
0.0
 40
0.0
 40
0.0
 40
0.0
 40
1.0
 40
1.0
 40
1.0
 40
2.0
 40
2.0
 40
2.0
 40
3.0
 40
3.0
 40
3.0
 40
4.0
 40
4.0
 40
4.0
 40
5.0
 40
5.0
 40
5.0
 40
6.0
 40
6.0
 40
6.0
 40
6.0
 10
178.2453984082501
 20
-216.1111560313468
 30
0.0
 10
178.2453984082501
 20
-216.1111560313468
 30
0.0
 10
178.2422073418768
 20
-216.1111560313468
 30
0.0
 10
178.2422073418768
 20
-216.1111560313468
 30
0.0
 10
178.2422073418768
 20
-214.8198471290375
 30
0.0
 10
179.2869401766512
 20
-213.7755741422548
 30
0.0
 10
180.5777892309695
 20
-213.7755741422548
 30
0.0
 10
181.8690981332789
 20
-213.7787652086281
 30
0.0
 10
182.9133780874553
 20
-214.8235119781898
 30
0.0
 10
182.9133780874553
 20
-216.1143610325081
 30
0.0
 10
182.9133780874553
 20
-217.4020050856652
 30
0.0
 10
181.8690981332789
 20
-218.4467518552263
 30
0.0
 10
180.5777892309695
 20
-218.4467518552263
 30
0.0
 10
179.2901382104195
 20
-218.4467518552263
 30
0.0
 10
178.2453984082501
 20
-217.4020050856652
 30
0.0
 10
178.2453984082501
 20
-216.1111560313468
 30
0.0
 10
178.2422073418768
 20
-216.1111560313468
 30
0.0
 10
178.2422073418768
 20
-216.1111560313468
 30
0.0
 10
178.2422073418768
 20
-216.1111560313468
 30
0.0
  0
SPLINE
  5
1E1
330
E7
100
AcDbEntity
  8
Слой 1
 62
   250
420
  3947579
370
    25
100
AcDbSpline
210
0.0
220
0.0
230
1.0
 70
     8
 71
     3
 72
    20
 73
    16
 74
     0
 42
0.0000000001
 43
0.0000000001
 40
0.0
 40
0.0
 40
0.0
 40
0.0
 40
1.0
 40
1.0
 40
1.0
 40
2.0
 40
2.0
 40
2.0
 40
3.0
 40
3.0
 40
3.0
 40
4.0
 40
4.0
 40
4.0
 40
5.0
 40
5.0
 40
5.0
 40
5.0
 10
178.7079497496334
 20
-216.1759945983003
 30
0.0
 10
178.7079497496334
 20
-216.1759945983003
 30
0.0
 10
178.6737050089736
 20
-216.1759945983003
 30
0.0
 10
178.6737050089736
 20
-216.1759945983003
 30
0.0
 10
178.6737050089736
 20
-215.1212147816282
 30
0.0
 10
179.5266603286618
 20
-214.2687123425393
 30
0.0
 10
180.5814471127275
 20
-214.2687123425393
 30
0.0
 10
181.6357670814092
 20
-214.2719173436986
 30
0.0
 10
182.4887293684917
 20
-215.1248656959938
 30
0.0
 10
182.4887293684917
 20
-216.1796594474538
 30
0.0
 10
182.4887293684917
 20
-217.2307744149749
 30
0.0
 10
181.6357670814092
 20
-218.0837367020555
 30
0.0
 10
180.5814471127275
 20
-218.0837367020555
 30
0.0
 10
179.5266603286618
 20
-218.0837367020555
 30
0.0
 10
178.6737050089736
 20
-217.2307744149749
 30
0.0
 10
178.6737050089736
 20
-216.1759945983003
 30
0.0
  0
SPLINE
  5
1E2
330
E7
100
AcDbEntity
  8
Слой 1
 62
   250
420
  3947579
370
    25
100
AcDbSpline
210
0.0
220
0.0
230
1.0
 70
     8
 71
     3
 72
    11
 73
     7
 74
     0
 42
0.0000000001
 43
0.0000000001
 40
0.0
 40
0.0
 40
0.0
 40
0.0
 40
1.0
 40
1.0
 40
1.0
 40
2.0
 40
2.0
 40
2.0
 40
2.0
 10
188.1087476749958
 20
-220.9773092931715
 30
0.0
 10
188.1087476749958
 20
-220.9773092931715
 30
0.0
 10
188.1256366376337
 20
-220.9773092931715
 30
0.0
 10
188.1562304639286
 20
-220.9773092931715
 30
0.0
 10
189.0228906472737
 20
-220.9773092931715
 30
0.0
 10
189.7694538632245
 20
-220.3745739879915
 30
0.0
 10
189.9443354482797
 20
-219.5357694451658
 30
0.0
  0
SPLINE
  5
1E3
330
E7
100
AcDbEntity
  8
Слой 1
 62
   250
420
  3947579
370
    25
100
AcDbSpline
210
0.0
220
0.0
230
1.0
 70
     8
 71
     3
 72
    11
 73
     7
 74
     0
 42
0.0000000001
 43
0.0000000001
 40
0.0
 40
0.0
 40
0.0
 40
0.0
 40
1.0
 40
1.0
 40
1.0
 40
2.0
 40
2.0
 40
2.0
 40
2.0
 10
188.1087476749958
 20
-220.9430575851186
 30
0.0
 10
188.1119387413691
 20
-220.9430575851186
 30
0.0
 10
188.129294519393
 20
-220.9430575851186
 30
0.0
 10
188.1562304639286
 20
-220.9430575851186
 30
0.0
 10
189.0023438028772
 20
-220.9430575851186
 30
0.0
 10
189.7283601744327
 20
-220.3371312135646
 30
0.0
 10
189.885892948859
 20
-219.4978807575353
 30
0.0
  0
SPLINE
  5
1E4
330
E7
100
AcDbEntity
  8
Слой 1
 62
   250
420
  3947579
370
    25
100
AcDbSpline
210
0.0
220
0.0
230
1.0
 70
     8
 71
     3
 72
    20
 73
    16
 74
     0
 42
0.0000000001
 43
0.0000000001
 40
0.0
 40
0.0
 40
0.0
 40
0.0
 40
1.0
 40
1.0
 40
1.0
 40
2.0
 40
2.0
 40
2.0
 40
3.0
 40
3.0
 40
3.0
 40
4.0
 40
4.0
 40
4.0
 40
5.0
 40
5.0
 40
5.0
 40
5.0
 10
178.9029252984866
 20
-216.1759945983003
 30
0.0
 10
178.9029252984866
 20
-216.1759945983003
 30
0.0
 10
178.8723314721917
 20
-216.1759945983003
 30
0.0
 10
178.8723314721917
 20
-216.1759945983003
 30
0.0
 10
178.8723314721917
 20
-215.230811886525
 30
0.0
 10
179.6362504661663
 20
-214.4636878913912
 30
0.0
 10
180.5814471127275
 20
-214.4636878913912
 30
0.0
 10
181.5266367918977
 20
-214.467352740544
 30
0.0
 10
182.2900959378787
 20
-215.230811886525
 30
0.0
 10
182.2900959378787
 20
-216.1796594474538
 30
0.0
 10
182.2900959378787
 20
-217.1248421592284
 30
0.0
 10
181.5266367918977
 20
-217.8883013052101
 30
0.0
 10
180.5814471127275
 20
-217.8883013052101
 30
0.0
 10
179.6362504661663
 20
-217.8883013052101
 30
0.0
 10
178.8723314721917
 20
-217.1248421592284
 30
0.0
 10
178.8723314721917
 20
-216.1759945983003
 30
0.0
  0
SPLINE
  5
1E5
330
E7
100
AcDbEntity
  8
Слой 1
 62
   250
420
  3947579
370
    25
100
AcDbSpline
210
0.0
220
0.0
230
1.0
 70
     8
 71
     3
 72
     8
 73
     4
 74
     0
 42
0.0000000001
 43
0.0000000001
 40
0.0
 40
0.0
 40
0.0
 40
0.0
 40
1.0
 40
1.0
 40
1.0
 40
1.0
 10
180.379162767752
 20
-215.5632262460092
 30
0.0
 10
180.1873852526652
 20
-215.6317157273276
 30
0.0
 10
180.0403523407346
 20
-215.7787416718627
 30
0.0
 10
179.9682119450499
 20
-215.9636702388195
 30
0.0
  0
SPLINE
  5
1E6
330
E7
100
AcDbEntity
  8
Слой 1
 62
   250
420
  3947579
370
    25
100
AcDbSpline
210
0.0
220
0.0
230
1.0
 70
     8
 71
     3
 72
     8
 73
     4
 74
     0
 42
0.0000000001
 43
0.0000000001
 40
0.0
 40
0.0
 40
0.0
 40
0.0
 40
1.0
 40
1.0
 40
1.0
 40
1.0
 10
179.947665100654
 20
-216.3988257876742
 30
0.0
 10
180.0061076000747
 20
-216.604308166418
 30
0.0
 10
180.1567914263704
 20
-216.7686829215827
 30
0.0
 10
180.3586159233555
 20
-216.8508702991669
 30
0.0
  0
SPLINE
  5
1E7
330
E7
100
AcDbEntity
  8
Слой 1
 62
   250
420
  3947579
370
    25
100
AcDbSpline
210
0.0
220
0.0
230
1.0
 70
     8
 71
     3
 72
     8
 73
     4
 74
     0
 42
0.0000000001
 43
0.0000000001
 40
0.0
 40
0.0
 40
0.0
 40
0.0
 40
1.0
 40
1.0
 40
1.0
 40
1.0
 10
181.2832587581278
 20
-215.9431303618166
 30
0.0
 10
181.2010713805467
 20
-215.748154812964
 30
0.0
 10
181.0334916242202
 20
-215.604319934801
 30
0.0
 10
180.8243652985045
 20
-215.5458774353803
 30
0.0
  0
SPLINE
  5
1E8
330
E7
100
AcDbEntity
  8
Слой 1
 62
   250
420
  3947579
370
    25
100
AcDbSpline
210
0.0
220
0.0
230
1.0
 70
     8
 71
     3
 72
     8
 73
     4
 74
     0
 42
0.0000000001
 43
0.0000000001
 40
0.0
 40
0.0
 40
0.0
 40
0.0
 40
1.0
 40
1.0
 40
1.0
 40
1.0
 10
180.8449121429004
 20
-216.8677731965896
 30
0.0
 10
181.0640854505151
 20
-216.8029346296349
 30
0.0
 10
181.2353161212053
 20
-216.6317039589459
 30
0.0
 10
181.3038125699173
 20
-216.4193795994631
 30
0.0
  0
LINE
  5
1E9
330
E7
100
AcDbEntity
  8
Слой 1
 62
   250
420
  3947579
370
    25
100
AcDbLine
 10
190.180404685924
 20
-217.131698074756
 30
0.0
 11
190.180404685924
 21
-217.131698074756
 31
0.0
  0
LINE
  5
1EA
330
E7
100
AcDbEntity
  8
Слой 1
 62
   250
420
  3947579
370
    25
100
AcDbLine
 10
188.0744959669442
 20
-216.7376362146904
 30
0.0
 11
188.0744959669442
 21
-216.7376362146904
 31
0.0
  0
LINE
  5
1EB
330
E7
100
AcDbEntity
  8
Слой 1
 62
   250
420
  3947579
370
    25
100
AcDbLine
 10
188.0744959669442
 20
-216.7376362146904
 30
0.0
 11
188.0744959669442
 21
-216.7376362146904
 31
0.0
  0
LINE
  5
1EC
330
E7
100
AcDbEntity
  8
Слой 1
 62
   250
420
  3947579
370
    25
100
AcDbLine
 10
188.0744959669442
 20
-216.7376362146904
 30
0.0
 11
188.0744959669442
 21
-216.7376362146904
 31
0.0
  0
LINE
  5
1ED
330
E7
100
AcDbEntity
  8
Слой 1
 62
   250
420
  3947579
370
    25
100
AcDbLine
 10
188.0744959669442
 20
-216.7376362146904
 30
0.0
 11
188.0744959669442
 21
-216.7376362146904
 31
0.0
  0
LINE
  5
1EE
330
E7
100
AcDbEntity
  8
Слой 1
 62
   250
420
  3947579
370
    25
100
AcDbLine
 10
188.0744959669442
 20
-216.7376362146904
 30
0.0
 11
188.0744959669442
 21
-216.7376362146904
 31
0.0
  0
LINE
  5
1EF
330
E7
100
AcDbEntity
  8
Слой 1
 62
   250
420
  3947579
370
    25
100
AcDbLine
 10
188.0744959669442
 20
-216.7376362146904
 30
0.0
 11
188.1087476749958
 21
-216.7376362146904
 31
0.0
  0
SPLINE
  5
1F0
330
E7
100
AcDbEntity
  8
Слой 1
 62
   250
420
  3947579
370
    25
100
AcDbSpline
210
0.0
220
0.0
230
1.0
 70
     8
 71
     3
 72
    11
 73
     7
 74
     0
 42
0.0000000001
 43
0.0000000001
 40
0.0
 40
0.0
 40
0.0
 40
0.0
 40
1.0
 40
1.0
 40
1.0
 40
2.0
 40
2.0
 40
2.0
 40
2.0
 10
176.0404063816564
 20
-226.5014353584376
 30
0.0
 10
176.0404063816564
 20
-226.45349968891
 30
0.0
 10
176.0404063816564
 20
-226.4635327360197
 30
0.0
 10
176.0404063816564
 20
-226.5320361521267
 30
0.0
 10
176.0404063816564
 20
-228.7991285599004
 30
0.0
 10
177.8586453443102
 20
-230.6452231630749
 30
0.0
 10
180.1188957713455
 20
-230.6726189556008
 30
0.0
  0
SPLINE
  5
1F1
330
E7
100
AcDbEntity
  8
Слой 1
 62
   250
420
  3947579
370
    25
100
AcDbSpline
210
0.0
220
0.0
230
1.0
 70
     8
 71
     3
 72
    23
 73
    19
 74
     0
 42
0.0000000001
 43
0.0000000001
 40
0.0
 40
0.0
 40
0.0
 40
0.0
 40
1.0
 40
1.0
 40
1.0
 40
2.0
 40
2.0
 40
2.0
 40
3.0
 40
3.0
 40
3.0
 40
4.0
 40
4.0
 40
4.0
 40
5.0
 40
5.0
 40
5.0
 40
6.0
 40
6.0
 40
6.0
 40
6.0
 10
178.2453984082501
 20
-225.8096706949362
 30
0.0
 10
178.2453984082501
 20
-225.8096706949362
 30
0.0
 10
178.2422073418768
 20
-225.8060197805712
 30
0.0
 10
178.2422073418768
 20
-225.8060197805712
 30
0.0
 10
178.2422073418768
 20
-224.5151567914676
 30
0.0
 10
179.2869401766512
 20
-223.4704239566918
 30
0.0
 10
180.5777892309695
 20
-223.4704239566918
 30
0.0
 10
181.8690981332789
 20
-223.4740748710569
 30
0.0
 10
182.9133780874553
 20
-224.5183617926262
 30
0.0
 10
182.9133780874553
 20
-225.8096706949362
 30
0.0
 10
182.9133780874553
 20
-227.0973147480933
 30
0.0
 10
181.8690981332789
 20
-228.1416016696627
 30
0.0
 10
180.5777892309695
 20
-228.1416016696627
 30
0.0
 10
179.2901382104195
 20
-228.1416016696627
 30
0.0
 10
178.2453984082501
 20
-227.0973147480933
 30
0.0
 10
178.2453984082501
 20
-225.8060197805712
 30
0.0
 10
178.2422073418768
 20
-225.8060197805712
 30
0.0
 10
178.2422073418768
 20
-225.8060197805712
 30
0.0
 10
178.2422073418768
 20
-225.8060197805712
 30
0.0
  0
SPLINE
  5
1F2
330
E7
100
AcDbEntity
  8
Слой 1
 62
   250
420
  3947579
370
    25
100
AcDbSpline
210
0.0
220
0.0
230
1.0
 70
     8
 71
     3
 72
    20
 73
    16
 74
     0
 42
0.0000000001
 43
0.0000000001
 40
0.0
 40
0.0
 40
0.0
 40
0.0
 40
1.0
 40
1.0
 40
1.0
 40
2.0
 40
2.0
 40
2.0
 40
3.0
 40
3.0
 40
3.0
 40
4.0
 40
4.0
 40
4.0
 40
5.0
 40
5.0
 40
5.0
 40
5.0
 10
178.7079497496334
 20
-225.8745092618909
 30
0.0
 10
178.7079497496334
 20
-225.8745092618909
 30
0.0
 10
178.6737050089736
 20
-225.8745092618909
 30
0.0
 10
178.6737050089736
 20
-225.8745092618909
 30
0.0
 10
178.6737050089736
 20
-224.8197294452182
 30
0.0
 10
179.5266603286618
 20
-223.9672270061286
 30
0.0
 10
180.5814471127275
 20
-223.9672270061286
 30
0.0
 10
181.6357670814092
 20
-223.9672270061286
 30
0.0
 10
182.4887293684917
 20
-224.8197294452182
 30
0.0
 10
182.4887293684917
 20
-225.8745092618909
 30
0.0
 10
182.4887293684917
 20
-226.9292890785643
 30
0.0
 10
181.6357670814092
 20
-227.7822374308582
 30
0.0
 10
180.5814471127275
 20
-227.7822374308582
 30
0.0
 10
179.5266603286618
 20
-227.7822374308582
 30
0.0
 10
178.6737050089736
 20
-226.9292890785643
 30
0.0
 10
178.6737050089736
 20
-225.8745092618909
 30
0.0
  0
SPLINE
  5
1F3
330
E7
100
AcDbEntity
  8
Слой 1
 62
   250
420
  3947579
370
    25
100
AcDbSpline
210
0.0
220
0.0
230
1.0
 70
     8
 71
     3
 72
    20
 73
    16
 74
     0
 42
0.0000000001
 43
0.0000000001
 40
0.0
 40
0.0
 40
0.0
 40
0.0
 40
1.0
 40
1.0
 40
1.0
 40
2.0
 40
2.0
 40
2.0
 40
3.0
 40
3.0
 40
3.0
 40
4.0
 40
4.0
 40
4.0
 40
5.0
 40
5.0
 40
5.0
 40
5.0
 10
178.9029252984866
 20
-225.8745092618909
 30
0.0
 10
178.9029252984866
 20
-225.8745092618909
 30
0.0
 10
178.8723314721917
 20
-225.8745092618909
 30
0.0
 10
178.8723314721917
 20
-225.8745092618909
 30
0.0
 10
178.8723314721917
 20
-224.9293126153271
 30
0.0
 10
179.6362504661663
 20
-224.1658534693461
 30
0.0
 10
180.5814471127275
 20
-224.1658534693461
 30
0.0
 10
181.5266367918977
 20
-224.1658534693461
 30
0.0
 10
182.2900959378787
 20
-224.9293126153271
 30
0.0
 10
182.2900959378787
 20
-225.8745092618909
 30
0.0
 10
182.2900959378787
 20
-226.8196919736662
 30
0.0
 10
181.5266367918977
 20
-227.5836109676382
 30
0.0
 10
180.5814471127275
 20
-227.5836109676382
 30
0.0
 10
179.6362504661663
 20
-227.5836109676382
 30
0.0
 10
178.8723314721917
 20
-226.8196919736662
 30
0.0
 10
178.8723314721917
 20
-225.8745092618909
 30
0.0
  0
SPLINE
  5
1F4
330
E7
100
AcDbEntity
  8
Слой 1
 62
   250
420
  3947579
370
    25
100
AcDbSpline
210
0.0
220
0.0
230
1.0
 70
     8
 71
     3
 72
     8
 73
     4
 74
     0
 42
0.0000000001
 43
0.0000000001
 40
0.0
 40
0.0
 40
0.0
 40
0.0
 40
1.0
 40
1.0
 40
1.0
 40
1.0
 10
180.851761091033
 20
-226.5904786515468
 30
0.0
 10
181.0640854505151
 20
-226.5219891702284
 30
0.0
 10
181.232118087439
 20
-226.3576004802758
 30
0.0
 10
181.3001546881587
 20
-226.1452761207931
 30
0.0
  0
SPLINE
  5
1F5
330
E7
100
AcDbEntity
  8
Слой 1
 62
   250
420
  3947579
370
    25
100
AcDbSpline
210
0.0
220
0.0
230
1.0
 70
     8
 71
     3
 72
     8
 73
     4
 74
     0
 42
0.0000000001
 43
0.0000000001
 40
0.0
 40
0.0
 40
0.0
 40
0.0
 40
1.0
 40
1.0
 40
1.0
 40
1.0
 10
180.379162767752
 20
-225.26172697481
 30
0.0
 10
180.1910361670302
 20
-225.3334214572896
 30
0.0
 10
180.0435503745015
 20
-225.4772563354539
 30
0.0
 10
179.9718628594155
 20
-225.6621849024088
 30
0.0
  0
SPLINE
  5
1F6
330
E7
100
AcDbEntity
  8
Слой 1
 62
   250
420
  3947579
370
    25
100
AcDbSpline
210
0.0
220
0.0
230
1.0
 70
     8
 71
     3
 72
     8
 73
     4
 74
     0
 42
0.0000000001
 43
0.0000000001
 40
0.0
 40
0.0
 40
0.0
 40
0.0
 40
1.0
 40
1.0
 40
1.0
 40
1.0
 10
181.2800676917551
 20
-225.6416310906193
 30
0.0
 10
181.1942224324135
 20
-225.4466555417661
 30
0.0
 10
181.0298407098552
 20
-225.3028206636024
 30
0.0
 10
180.8243652985045
 20
-225.2443781641804
 30
0.0
  0
SPLINE
  5
1F7
330
E7
100
AcDbEntity
  8
Слой 1
 62
   250
420
  3947579
370
    25
100
AcDbSpline
210
0.0
220
0.0
230
1.0
 70
     8
 71
     3
 72
     8
 73
     4
 74
     0
 42
0.0000000001
 43
0.0000000001
 40
0.0
 40
0.0
 40
0.0
 40
0.0
 40
1.0
 40
1.0
 40
1.0
 40
1.0
 10
179.9508561670273
 20
-226.1279273101642
 30
0.0
 10
180.009305633841
 20
-226.3233627070103
 30
0.0
 10
180.1567914263704
 20
-226.4877374621749
 30
0.0
 10
180.3449180270916
 20
-226.5699248397566
 30
0.0
  0
LINE
  5
1F8
330
E7
100
AcDbEntity
  8
Слой 1
 62
   250
420
  3947579
370
    25
100
AcDbLine
 10
189.9169396557525
 20
-219.5289274644275
 30
0.0
 11
190.40963194283
 21
-216.703384506637
 31
0.0
  0
LINE
  5
1F9
330
E7
100
AcDbEntity
  8
Слой 1
 62
   250
420
  3947579
370
    25
100
AcDbLine
 10
190.40963194283
 20
-216.703384506637
 30
0.0
 11
190.7041436798964
 21
-213.8440636235738
 31
0.0
  0
LINE
  5
1FA
330
E7
100
AcDbEntity
  8
Слой 1
 62
   250
420
  3947579
370
    25
100
AcDbLine
 10
190.7041436798964
 20
-213.8440636235738
 30
0.0
 11
190.8036868355013
 21
-210.984282892519
 31
0.0
  0
LINE
  5
1FB
330
E7
100
AcDbEntity
  8
Слой 1
 62
   250
420
  3947579
370
    25
100
AcDbLine
 10
190.8036868355013
 20
-210.984282892519
 30
0.0
 11
190.7041436798964
 21
-208.1249620094546
 31
0.0
  0
LINE
  5
1FC
330
E7
100
AcDbEntity
  8
Слой 1
 62
   250
420
  3947579
370
    25
100
AcDbLine
 10
190.7041436798964
 20
-208.1249620094546
 30
0.0
 11
190.40963194283
 21
-205.2651812783985
 31
0.0
  0
LINE
  5
1FD
330
E7
100
AcDbEntity
  8
Слой 1
 62
   250
420
  3947579
370
    25
100
AcDbLine
 10
190.40963194283
 20
-205.2651812783985
 30
0.0
 11
189.9169396557525
 21
-202.4706989622913
 31
0.0
  0
LINE
  5
1FE
330
E7
100
AcDbEntity
  8
Слой 1
 62
   250
420
  3947579
370
    25
100
AcDbLine
 10
189.8822350671004
 20
-202.4706989622913
 30
0.0
 11
190.3105416678238
 21
-204.9021730926214
 31
0.0
  0
LINE
  5
1FF
330
E7
100
AcDbEntity
  8
Слой 1
 62
   250
420
  3947579
370
    25
100
AcDbLine
 10
190.3105416678238
 20
-217.0663996598083
 30
0.0
 11
189.8822350671004
 21
-219.4978807575353
 31
0.0
  0
LINE
  5
200
330
E7
100
AcDbEntity
  8
Слой 1
 62
   250
420
  3947579
370
    25
100
AcDbLine
 10
190.3447864084843
 20
-216.6385459396842
 30
0.0
 11
190.5740066979966
 21
-214.7650555439824
 31
0.0
  0
LINE
  5
201
330
E7
100
AcDbEntity
  8
Слой 1
 62
   250
420
  3947579
370
    25
100
AcDbLine
 10
190.5740066979966
 20
-214.7650555439824
 30
0.0
 11
190.7041436798964
 21
-212.8577732882189
 31
0.0
  0
LINE
  5
202
330
E7
100
AcDbEntity
  8
Слой 1
 62
   250
420
  3947579
370
    25
100
AcDbLine
 10
190.7041436798964
 20
-212.8577732882189
 30
0.0
 11
190.7383884205543
 21
-210.984282892519
 31
0.0
  0
LINE
  5
203
330
E7
100
AcDbEntity
  8
Слой 1
 62
   250
420
  3947579
370
    25
100
AcDbLine
 10
190.7383884205543
 20
-210.984282892519
 30
0.0
 11
190.7041436798964
 21
-209.1112523448089
 31
0.0
  0
LINE
  5
204
330
E7
100
AcDbEntity
  8
Слой 1
 62
   250
420
  3947579
370
    25
100
AcDbLine
 10
190.7041436798964
 20
-209.1112523448089
 30
0.0
 11
190.5740066979966
 21
-207.203510241053
 31
0.0
  0
LINE
  5
205
330
E7
100
AcDbEntity
  8
Слой 1
 62
   250
420
  3947579
370
    25
100
AcDbLine
 10
190.5740066979966
 20
-207.203510241053
 30
0.0
 11
190.3447864084843
 21
-205.3304796933455
 31
0.0
  0
LINE
  5
206
330
E7
100
AcDbEntity
  8
Слой 1
 62
   250
420
  3947579
370
    25
100
AcDbLine
 10
190.3447864084843
 20
-216.8677731965896
 30
0.0
 11
190.3105416678238
 21
-217.0663996598083
 31
0.0
  0
LINE
  5
207
330
E7
100
AcDbEntity
  8
Слой 1
 62
   250
420
  3947579
370
    25
100
AcDbLine
 10
190.3447864084843
 20
-216.6385459396842
 30
0.0
 11
190.3447864084843
 21
-216.8677731965896
 31
0.0
  0
LINE
  5
208
330
E7
100
AcDbEntity
  8
Слой 1
 62
   250
420
  3947579
370
    25
100
AcDbLine
 10
190.2109985122189
 20
-216.7376362146904
 30
0.0
 11
190.180404685924
 21
-217.131698074756
 31
0.0
  0
LINE
  5
209
330
E7
100
AcDbEntity
  8
Слой 1
 62
   250
420
  3947579
370
    25
100
AcDbLine
 10
188.1087476749958
 20
-205.2309365377387
 30
0.0
 11
188.0744959669442
 21
-205.0665548151811
 31
0.0
  0
SPLINE
  5
20A
330
E7
100
AcDbEntity
  8
Слой 1
 62
   250
420
  3947579
370
    25
100
AcDbSpline
210
0.0
220
0.0
230
1.0
 70
     8
 71
     3
 72
    14
 73
    10
 74
     0
 42
0.0000000001
 43
0.0000000001
 40
0.0
 40
0.0
 40
0.0
 40
0.0
 40
1.0
 40
1.0
 40
1.0
 40
2.0
 40
2.0
 40
2.0
 40
3.0
 40
3.0
 40
3.0
 40
3.0
 10
162.5985688084235
 20
-234.2547651438455
 30
0.0
 10
162.6022266901821
 20
-234.2547651438455
 30
0.0
 10
162.6090756383154
 20
-234.2547651438455
 30
0.0
 10
162.6159245864467
 20
-234.2547651438455
 30
0.0
 10
162.8793896166176
 20
-234.2579562102208
 30
0.0
 10
163.0917139761004
 20
-234.0424407843646
 30
0.0
 10
163.0917139761004
 20
-233.7821668205658
 30
0.0
 10
163.0917139761004
 20
-233.7616130087756
 30
0.0
 10
163.0917139761004
 20
-233.7442641981467
 30
0.0
 10
163.088515942334
 20
-233.7305663018828
 30
0.0
  0
SPLINE
  5
20B
330
E7
100
AcDbEntity
  8
Слой 1
 62
   250
420
  3947579
370
    25
100
AcDbSpline
210
0.0
220
0.0
230
1.0
 70
     8
 71
     3
 72
    14
 73
    10
 74
     0
 42
0.0000000001
 43
0.0000000001
 40
0.0
 40
0.0
 40
0.0
 40
0.0
 40
1.0
 40
1.0
 40
1.0
 40
2.0
 40
2.0
 40
2.0
 40
3.0
 40
3.0
 40
3.0
 40
3.0
 10
162.5985688084235
 20
-234.2205134357946
 30
0.0
 10
162.6022266901821
 20
-234.2205134357946
 30
0.0
 10
162.6090756383154
 20
-234.2205134357946
 30
0.0
 10
162.6159245864467
 20
-234.2205134357946
 30
0.0
 10
162.8624936865886
 20
-234.2237184369539
 30
0.0
 10
163.0611201498068
 20
-234.0250919737351
 30
0.0
 10
163.0611201498068
 20
-233.7821668205658
 30
0.0
 10
163.0611201498068
 20
-233.7616130087756
 30
0.0
 10
163.0611201498068
 20
-233.7442641981467
 30
0.0
 10
163.0574692354412
 20
-233.7305663018828
 30
0.0
  0
LINE
  5
20C
330
E7
100
AcDbEntity
  8
Слой 1
 62
   250
420
  3947579
370
    25
100
AcDbLine
 10
131.0752294712643
 20
-236.3917205697201
 30
0.0
 11
130.8766030080462
 21
-236.3917205697201
 31
0.0
  0
LINE
  5
20D
330
E7
100
AcDbEntity
  8
Слой 1
 62
   250
420
  3947579
370
    25
100
AcDbLine
 10
131.0752294712643
 20
-236.3917205697201
 30
0.0
 11
131.3692952951244
 21
-236.3917205697201
 31
0.0
  0
LINE
  5
20E
330
E7
100
AcDbEntity
  8
Слой 1
 62
   250
420
  3947579
370
    25
100
AcDbLine
 10
109.9691123731257
 20
-211.8714829528658
 30
0.0
 11
110.1029002693904
 21
-211.7071081976999
 31
0.0
  0
LINE
  5
20F
330
E7
100
AcDbEntity
  8
Слой 1
 62
   250
420
  3947579
370
    25
100
AcDbLine
 10
110.1029002693904
 20
-211.7071081976999
 30
0.0
 11
110.2330372512902
 21
-211.5427195077467
 31
0.0
  0
LINE
  5
210
330
E7
100
AcDbEntity
  8
Слой 1
 62
   250
420
  3947579
370
    25
100
AcDbLine
 10
110.2330372512902
 20
-211.5427195077467
 30
0.0
 11
110.3321275262964
 21
-211.378344752582
 31
0.0
  0
LINE
  5
211
330
E7
100
AcDbEntity
  8
Слой 1
 62
   250
420
  3947579
370
    25
100
AcDbLine
 10
110.3321275262964
 20
-211.378344752582
 30
0.0
 11
110.431663714509
 21
-211.1797182893645
 31
0.0
  0
LINE
  5
212
330
E7
100
AcDbEntity
  8
Слой 1
 62
   250
420
  3947579
370
    25
100
AcDbLine
 10
110.431663714509
 20
-211.1797182893645
 30
0.0
 11
110.5307539895152
 21
-210.984282892519
 31
0.0
  0
LINE
  5
213
330
E7
100
AcDbEntity
  8
Слой 1
 62
   250
420
  3947579
370
    25
100
AcDbLine
 10
110.5307539895152
 20
-210.984282892519
 30
0.0
 11
110.5955925564686
 21
-210.7856564293002
 31
0.0
  0
LINE
  5
214
330
E7
100
AcDbEntity
  8
Слой 1
 62
   250
420
  3947579
370
    25
100
AcDbLine
 10
110.5955925564686
 20
-210.7856564293002
 30
0.0
 11
110.6266392633621
 21
-210.5906808804465
 31
0.0
  0
LINE
  5
215
330
E7
100
AcDbEntity
  8
Слой 1
 62
   250
420
  3947579
370
    25
100
AcDbLine
 10
110.6266392633621
 20
-210.5906808804465
 30
0.0
 11
110.6608909714143
 21
-210.3578166439628
 31
0.0
  0
LINE
  5
216
330
E7
100
AcDbEntity
  8
Слой 1
 62
   250
420
  3947579
370
    25
100
AcDbLine
 10
110.6608909714143
 20
-210.3578166439628
 30
0.0
 11
110.6608909714143
 21
-210.1623812471173
 31
0.0
  0
LINE
  5
217
330
E7
100
AcDbEntity
  8
Слой 1
 62
   250
420
  3947579
370
    25
100
AcDbLine
 10
110.6608909714143
 20
-210.1623812471173
 30
0.0
 11
110.6608909714143
 21
-209.9637547838985
 31
0.0
  0
LINE
  5
218
330
E7
100
AcDbEntity
  8
Слой 1
 62
   250
420
  3947579
370
    25
100
AcDbLine
 10
110.6608909714143
 20
-209.9637547838985
 30
0.0
 11
110.6266392633621
 21
-209.7345275269906
 31
0.0
  0
LINE
  5
219
330
E7
100
AcDbEntity
  8
Слой 1
 62
   250
420
  3947579
370
    25
100
AcDbLine
 10
110.6266392633621
 20
-209.7345275269906
 30
0.0
 11
110.5955925564686
 21
-209.53909909754
 31
0.0
  0
LINE
  5
21A
330
E7
100
AcDbEntity
  8
Слой 1
 62
   250
420
  3947579
370
    25
100
AcDbLine
 10
110.5955925564686
 20
-209.53909909754
 30
0.0
 11
110.5307539895152
 21
-209.3404726343213
 31
0.0
  0
LINE
  5
21B
330
E7
100
AcDbEntity
  8
Слой 1
 62
   250
420
  3947579
370
    25
100
AcDbLine
 10
110.5307539895152
 20
-209.3404726343213
 30
0.0
 11
110.431663714509
 21
-209.1418461711025
 31
0.0
  0
LINE
  5
21C
330
E7
100
AcDbEntity
  8
Слой 1
 62
   250
420
  3947579
370
    25
100
AcDbLine
 10
110.431663714509
 20
-209.1418461711025
 30
0.0
 11
110.3321275262964
 21
-208.94687062225
 31
0.0
  0
LINE
  5
21D
330
E7
100
AcDbEntity
  8
Слой 1
 62
   250
420
  3947579
370
    25
100
AcDbLine
 10
110.3321275262964
 20
-208.94687062225
 30
0.0
 11
110.2330372512902
 21
-208.7824888996904
 31
0.0
  0
LINE
  5
21E
330
E7
100
AcDbEntity
  8
Слой 1
 62
   250
420
  3947579
370
    25
100
AcDbLine
 10
110.2330372512902
 20
-208.7824888996904
 30
0.0
 11
110.1029002693904
 21
-208.6181071771321
 31
0.0
  0
LINE
  5
21F
330
E7
100
AcDbEntity
  8
Слой 1
 62
   250
420
  3947579
370
    25
100
AcDbLine
 10
110.1029002693904
 20
-208.6181071771321
 30
0.0
 11
109.9691123731257
 21
-208.4537254545738
 31
0.0
  0
LINE
  5
220
330
E7
100
AcDbEntity
  8
Слой 1
 62
   250
420
  3947579
370
    25
100
AcDbLine
 10
109.9691123731257
 20
-208.4537254545738
 30
0.0
 11
109.8047376179597
 21
-208.2893437320135
 31
0.0
  0
LINE
  5
221
330
E7
100
AcDbEntity
  8
Слой 1
 62
   250
420
  3947579
370
    25
100
AcDbLine
 10
109.8047376179597
 20
-208.2893437320135
 30
0.0
 11
109.6403489280078
 21
-208.1555558357495
 31
0.0
  0
LINE
  5
222
330
E7
100
AcDbEntity
  8
Слой 1
 62
   250
420
  3947579
370
    25
100
AcDbLine
 10
109.6403489280078
 20
-208.1555558357495
 30
0.0
 11
109.4453733791546
 21
-208.0596635945089
 31
0.0
  0
LINE
  5
223
330
E7
100
AcDbEntity
  8
Слой 1
 62
   250
420
  3947579
370
    25
100
AcDbLine
 10
109.4453733791546
 20
-208.0596635945089
 30
0.0
 11
109.2805387759964
 21
-207.9605802868963
 31
0.0
  0
LINE
  5
224
330
E7
100
AcDbEntity
  8
Слой 1
 62
   250
420
  3947579
370
    25
100
AcDbLine
 10
109.2805387759964
 20
-207.9605802868963
 30
0.0
 11
109.0819123127776
 21
-207.8952818719506
 31
0.0
  0
LINE
  5
225
330
E7
100
AcDbEntity
  8
Слой 1
 62
   250
420
  3947579
370
    25
100
AcDbLine
 10
109.0819123127776
 20
-207.8952818719506
 30
0.0
 11
108.8869367639251
 21
-207.8267923906322
 31
0.0
  0
LINE
  5
226
330
E7
100
AcDbEntity
  8
Слой 1
 62
   250
420
  3947579
370
    25
100
AcDbLine
 10
108.8869367639251
 20
-207.8267923906322
 30
0.0
 11
108.6540585926522
 21
-207.7619538236775
 31
0.0
  0
LINE
  5
227
330
E7
100
AcDbEntity
  8
Слой 1
 62
   250
420
  3947579
370
    25
100
AcDbLine
 10
108.6540585926522
 20
-207.7619538236775
 30
0.0
 11
108.4590830437997
 21
-207.730900149391
 31
0.0
  0
LINE
  5
228
330
E7
100
AcDbEntity
  8
Слой 1
 62
   250
420
  3947579
370
    25
100
AcDbLine
 10
108.4590830437997
 20
-207.730900149391
 30
0.0
 11
108.2294098736893
 21
-207.730900149391
 31
0.0
  0
LINE
  5
229
330
E7
100
AcDbEntity
  8
Слой 1
 62
   250
420
  3947579
370
    25
100
AcDbLine
 10
108.2294098736893
 20
-207.730900149391
 30
0.0
 11
108.0307834104705
 21
-207.730900149391
 31
0.0
  0
LINE
  5
22A
330
E7
100
AcDbEntity
  8
Слой 1
 62
   250
420
  3947579
370
    25
100
AcDbLine
 10
108.0307834104705
 20
-207.730900149391
 30
0.0
 11
107.8321569472517
 21
-207.7619538236775
 31
0.0
  0
LINE
  5
22B
330
E7
100
AcDbEntity
  8
Слой 1
 62
   250
420
  3947579
370
    25
100
AcDbLine
 10
107.8321569472517
 20
-207.7619538236775
 30
0.0
 11
107.6029296903451
 21
-207.8267923906322
 31
0.0
  0
LINE
  5
22C
330
E7
100
AcDbEntity
  8
Слой 1
 62
   250
420
  3947579
370
    25
100
AcDbLine
 10
107.6029296903451
 20
-207.8267923906322
 30
0.0
 11
107.4075082282876
 21
-207.8952818719506
 31
0.0
  0
LINE
  5
22D
330
E7
100
AcDbEntity
  8
Слой 1
 62
   250
420
  3947579
370
    25
100
AcDbLine
 10
107.4075082282876
 20
-207.8952818719506
 30
0.0
 11
107.2088678302822
 21
-207.9605802868963
 31
0.0
  0
LINE
  5
22E
330
E7
100
AcDbEntity
  8
Слой 1
 62
   250
420
  3947579
370
    25
100
AcDbLine
 10
107.2088678302822
 20
-207.9605802868963
 30
0.0
 11
107.0444930751156
 21
-208.0596635945089
 31
0.0
  0
LINE
  5
22F
330
E7
100
AcDbEntity
  8
Слой 1
 62
   250
420
  3947579
370
    25
100
AcDbLine
 10
107.0444930751156
 20
-208.0596635945089
 30
0.0
 11
106.8458666118981
 21
-208.1555558357495
 31
0.0
  0
LINE
  5
230
330
E7
100
AcDbEntity
  8
Слой 1
 62
   250
420
  3947579
370
    25
100
AcDbLine
 10
106.8458666118981
 20
-208.1555558357495
 30
0.0
 11
106.6814779219449
 21
-208.2893437320135
 31
0.0
  0
LINE
  5
231
330
E7
100
AcDbEntity
  8
Слой 1
 62
   250
420
  3947579
370
    25
100
AcDbLine
 10
106.6814779219449
 20
-208.2893437320135
 30
0.0
 11
106.5171031667802
 21
-208.4537254545738
 31
0.0
  0
LINE
  5
232
330
E7
100
AcDbEntity
  8
Слой 1
 62
   250
420
  3947579
370
    25
100
AcDbLine
 10
106.5171031667802
 20
-208.4537254545738
 30
0.0
 11
106.3869661848798
 21
-208.6181071771321
 31
0.0
  0
LINE
  5
233
330
E7
100
AcDbEntity
  8
Слой 1
 62
   250
420
  3947579
370
    25
100
AcDbLine
 10
106.3869661848798
 20
-208.6181071771321
 30
0.0
 11
106.2568292029807
 21
-208.7824888996904
 31
0.0
  0
LINE
  5
234
330
E7
100
AcDbEntity
  8
Слой 1
 62
   250
420
  3947579
370
    25
100
AcDbLine
 10
106.2568292029807
 20
-208.7824888996904
 30
0.0
 11
106.1235011547082
 21
-208.94687062225
 31
0.0
  0
LINE
  5
235
330
E7
100
AcDbEntity
  8
Слой 1
 62
   250
420
  3947579
370
    25
100
AcDbLine
 10
106.1235011547082
 20
-208.94687062225
 30
0.0
 11
106.0582027397632
 21
-209.1418461711025
 31
0.0
  0
LINE
  5
236
330
E7
100
AcDbEntity
  8
Слой 1
 62
   250
420
  3947579
370
    25
100
AcDbLine
 10
106.0582027397632
 20
-209.1418461711025
 30
0.0
 11
105.9586665515513
 21
-209.3404726343213
 31
0.0
  0
LINE
  5
237
330
E7
100
AcDbEntity
  8
Слой 1
 62
   250
420
  3947579
370
    25
100
AcDbLine
 10
105.9586665515513
 20
-209.3404726343213
 30
0.0
 11
105.8938279845972
 21
-209.53909909754
 31
0.0
  0
LINE
  5
238
330
E7
100
AcDbEntity
  8
Слой 1
 62
   250
420
  3947579
370
    25
100
AcDbLine
 10
105.8938279845972
 20
-209.53909909754
 30
0.0
 11
105.8595762765438
 21
-209.7345275269906
 31
0.0
  0
LINE
  5
239
330
E7
100
AcDbEntity
  8
Слой 1
 62
   250
420
  3947579
370
    25
100
AcDbLine
 10
105.8595762765438
 20
-209.7345275269906
 30
0.0
 11
105.8285295696509
 21
-209.9637547838985
 31
0.0
  0
LINE
  5
23A
330
E7
100
AcDbEntity
  8
Слой 1
 62
   250
420
  3947579
370
    25
100
AcDbLine
 10
105.8285295696509
 20
-209.9637547838985
 30
0.0
 11
105.8285295696509
 21
-210.1623812471173
 31
0.0
  0
LINE
  5
23B
330
E7
100
AcDbEntity
  8
Слой 1
 62
   250
420
  3947579
370
    25
100
AcDbLine
 10
105.8285295696509
 20
-210.1623812471173
 30
0.0
 11
105.8285295696509
 21
-210.3578166439628
 31
0.0
  0
LINE
  5
23C
330
E7
100
AcDbEntity
  8
Слой 1
 62
   250
420
  3947579
370
    25
100
AcDbLine
 10
105.8285295696509
 20
-210.3578166439628
 30
0.0
 11
105.8595762765438
 21
-210.5906808804465
 31
0.0
  0
LINE
  5
23D
330
E7
100
AcDbEntity
  8
Слой 1
 62
   250
420
  3947579
370
    25
100
AcDbLine
 10
105.8595762765438
 20
-210.5906808804465
 30
0.0
 11
105.8938279845972
 21
-210.7856564293002
 31
0.0
  0
LINE
  5
23E
330
E7
100
AcDbEntity
  8
Слой 1
 62
   250
420
  3947579
370
    25
100
AcDbLine
 10
105.8938279845972
 20
-210.7856564293002
 30
0.0
 11
105.9586665515513
 21
-210.984282892519
 31
0.0
  0
LINE
  5
23F
330
E7
100
AcDbEntity
  8
Слой 1
 62
   250
420
  3947579
370
    25
100
AcDbLine
 10
105.9586665515513
 20
-210.984282892519
 30
0.0
 11
106.0582027397632
 21
-211.1797182893645
 31
0.0
  0
LINE
  5
240
330
E7
100
AcDbEntity
  8
Слой 1
 62
   250
420
  3947579
370
    25
100
AcDbLine
 10
106.0582027397632
 20
-211.1797182893645
 30
0.0
 11
106.1572930147694
 21
-211.378344752582
 31
0.0
  0
LINE
  5
241
330
E7
100
AcDbEntity
  8
Слой 1
 62
   250
420
  3947579
370
    25
100
AcDbLine
 10
106.1572930147694
 20
-211.378344752582
 30
0.0
 11
106.2568292029807
 21
-211.5427195077467
 31
0.0
  0
LINE
  5
242
330
E7
100
AcDbEntity
  8
Слой 1
 62
   250
420
  3947579
370
    25
100
AcDbLine
 10
106.2568292029807
 20
-211.5427195077467
 30
0.0
 11
106.3869661848798
 21
-211.7071081976999
 31
0.0
  0
LINE
  5
243
330
E7
100
AcDbEntity
  8
Слой 1
 62
   250
420
  3947579
370
    25
100
AcDbLine
 10
106.3869661848798
 20
-211.7071081976999
 30
0.0
 11
106.5171031667802
 21
-211.8714829528658
 31
0.0
  0
SPLINE
  5
244
330
E7
100
AcDbEntity
  8
Слой 1
 62
   250
420
  3947579
370
    25
100
AcDbSpline
210
0.0
220
0.0
230
1.0
 70
     8
 71
     3
 72
    23
 73
    19
 74
     0
 42
0.0000000001
 43
0.0000000001
 40
0.0
 40
0.0
 40
0.0
 40
0.0
 40
1.0
 40
1.0
 40
1.0
 40
2.0
 40
2.0
 40
2.0
 40
3.0
 40
3.0
 40
3.0
 40
4.0
 40
4.0
 40
4.0
 40
5.0
 40
5.0
 40
5.0
 40
6.0
 40
6.0
 40
6.0
 40
6.0
 10
106.188339721661
 20
-210.0290531988448
 30
0.0
 10
106.188339721661
 20
-210.0290531988448
 30
0.0
 10
106.184688807296
 20
-210.0290531988448
 30
0.0
 10
106.184688807296
 20
-210.0290531988448
 30
0.0
 10
106.184688807296
 20
-208.9569176041489
 30
0.0
 10
107.0545400570139
 20
-208.0870663544311
 30
0.0
 10
108.1266686843168
 20
-208.0870663544311
 30
0.0
 10
109.2020023127797
 20
-208.090717268796
 30
0.0
 10
110.0682026481326
 20
-208.9569176041489
 30
0.0
 10
110.0682026481326
 20
-210.0322442652169
 30
0.0
 10
110.0682026481326
 20
-211.1043728925192
 30
0.0
 10
109.2020023127797
 20
-211.9705732278721
 30
0.0
 10
108.1266686843168
 20
-211.9705732278721
 30
0.0
 10
107.0545400570139
 20
-211.9705732278721
 30
0.0
 10
106.188339721661
 20
-211.1043728925192
 30
0.0
 10
106.188339721661
 20
-210.0290531988448
 30
0.0
 10
106.184688807296
 20
-210.0290531988448
 30
0.0
 10
106.184688807296
 20
-210.0290531988448
 30
0.0
 10
106.184688807296
 20
-210.0290531988448
 30
0.0
  0
SPLINE
  5
245
330
E7
100
AcDbEntity
  8
Слой 1
 62
   250
420
  3947579
370
    25
100
AcDbSpline
210
0.0
220
0.0
230
1.0
 70
     8
 71
     3
 72
    20
 73
    16
 74
     0
 42
0.0000000001
 43
0.0000000001
 40
0.0
 40
0.0
 40
0.0
 40
0.0
 40
1.0
 40
1.0
 40
1.0
 40
2.0
 40
2.0
 40
2.0
 40
3.0
 40
3.0
 40
3.0
 40
4.0
 40
4.0
 40
4.0
 40
5.0
 40
5.0
 40
5.0
 40
5.0
 10
106.4522645998268
 20
-210.0290531988448
 30
0.0
 10
106.4522645998268
 20
-210.0290531988448
 30
0.0
 10
106.4212178929326
 20
-210.0290531988448
 30
0.0
 10
106.4212178929326
 20
-210.0290531988448
 30
0.0
 10
106.4212178929326
 20
-209.0838565522823
 30
0.0
 10
107.1846770389149
 20
-208.3167395245427
 30
0.0
 10
108.1303195986818
 20
-208.3167395245427
 30
0.0
 10
109.0755162452449
 20
-208.3199375583084
 30
0.0
 10
109.8389753912253
 20
-209.0838565522823
 30
0.0
 10
109.8389753912253
 20
-210.0322442652169
 30
0.0
 10
109.8389753912253
 20
-210.97744091178
 30
0.0
 10
109.0755162452449
 20
-211.7413599057527
 30
0.0
 10
108.1303195986818
 20
-211.7413599057527
 30
0.0
 10
107.1846770389149
 20
-211.7413599057527
 30
0.0
 10
106.4212178929326
 20
-210.97744091178
 30
0.0
 10
106.4212178929326
 20
-210.0290531988448
 30
0.0
  0
LINE
  5
246
330
E7
100
AcDbEntity
  8
Слой 1
 62
   250
420
  3947579
370
    25
100
AcDbLine
 10
107.9006464285708
 20
-209.53909909754
 30
0.0
 11
107.8663947205173
 21
-209.5701458044336
 31
0.0
  0
LINE
  5
247
330
E7
100
AcDbEntity
  8
Слой 1
 62
   250
420
  3947579
370
    25
100
AcDbLine
 10
107.8663947205173
 20
-209.5701458044336
 30
0.0
 11
107.8015561535639
 21
-209.6043975124864
 31
0.0
  0
LINE
  5
248
330
E7
100
AcDbEntity
  8
Слой 1
 62
   250
420
  3947579
370
    25
100
AcDbLine
 10
107.8015561535639
 20
-209.6043975124864
 30
0.0
 11
107.7673183802983
 21
-209.63499133878
 31
0.0
  0
LINE
  5
249
330
E7
100
AcDbEntity
  8
Слой 1
 62
   250
420
  3947579
370
    25
100
AcDbLine
 10
107.7673183802983
 20
-209.63499133878
 30
0.0
 11
107.7362577386176
 21
-209.6692360794398
 31
0.0
  0
LINE
  5
24A
330
E7
100
AcDbEntity
  8
Слой 1
 62
   250
420
  3947579
370
    25
100
AcDbLine
 10
107.7362577386176
 20
-209.6692360794398
 30
0.0
 11
107.702019965352
 21
-209.7034808200984
 31
0.0
  0
LINE
  5
24B
330
E7
100
AcDbEntity
  8
Слой 1
 62
   250
420
  3947579
370
    25
100
AcDbLine
 10
107.702019965352
 20
-209.7034808200984
 30
0.0
 11
107.702019965352
 21
-209.7345275269906
 31
0.0
  0
LINE
  5
24C
330
E7
100
AcDbEntity
  8
Слой 1
 62
   250
420
  3947579
370
    25
100
AcDbLine
 10
107.702019965352
 20
-209.7345275269906
 30
0.0
 11
107.6677682572985
 21
-209.7687792350453
 31
0.0
  0
LINE
  5
24D
330
E7
100
AcDbEntity
  8
Слой 1
 62
   250
420
  3947579
370
    25
100
AcDbLine
 10
108.393784628854
 20
-210.4911446922345
 30
0.0
 11
108.4243854225418
 21
-210.4568929841817
 31
0.0
  0
LINE
  5
24E
330
E7
100
AcDbEntity
  8
Слой 1
 62
   250
420
  3947579
370
    25
100
AcDbLine
 10
108.4243854225418
 20
-210.4568929841817
 30
0.0
 11
108.4590830437997
 21
-210.4263061252811
 31
0.0
  0
LINE
  5
24F
330
E7
100
AcDbEntity
  8
Слой 1
 62
   250
420
  3947579
370
    25
100
AcDbLine
 10
108.4590830437997
 20
-210.4263061252811
 30
0.0
 11
108.4896838374882
 21
-210.4263061252811
 31
0.0
  0
LINE
  5
250
330
E7
100
AcDbEntity
  8
Слой 1
 62
   250
420
  3947579
370
    25
100
AcDbLine
 10
108.4896838374882
 20
-210.4263061252811
 30
0.0
 11
108.5239216107531
 21
-210.3920544172283
 31
0.0
  0
LINE
  5
251
330
E7
100
AcDbEntity
  8
Слой 1
 62
   250
420
  3947579
370
    25
100
AcDbLine
 10
108.5239216107531
 20
-210.3920544172283
 30
0.0
 11
108.5581733188072
 21
-210.3267560022813
 31
0.0
  0
LINE
  5
252
330
E7
100
AcDbEntity
  8
Слой 1
 62
   250
420
  3947579
370
    25
100
AcDbLine
 10
108.5581733188072
 20
-210.3267560022813
 30
0.0
 11
108.5892200257001
 21
-210.2925182290158
 31
0.0
  0
LINE
  5
253
330
E7
100
AcDbEntity
  8
Слой 1
 62
   250
420
  3947579
370
    25
100
AcDbLine
 10
108.5892200257001
 20
-210.2925182290158
 30
0.0
 11
108.6234717337529
 21
-210.2619174353279
 31
0.0
  0
LINE
  5
254
330
E7
100
AcDbEntity
  8
Слой 1
 62
   250
420
  3947579
370
    25
100
AcDbLine
 10
108.6234717337529
 20
-209.7687792350453
 30
0.0
 11
108.5892200257001
 21
-209.7345275269906
 31
0.0
  0
LINE
  5
255
330
E7
100
AcDbEntity
  8
Слой 1
 62
   250
420
  3947579
370
    25
100
AcDbLine
 10
108.5892200257001
 20
-209.7345275269906
 30
0.0
 11
108.5581733188072
 21
-209.7034808200984
 31
0.0
  0
LINE
  5
256
330
E7
100
AcDbEntity
  8
Слой 1
 62
   250
420
  3947579
370
    25
100
AcDbLine
 10
108.5581733188072
 20
-209.7034808200984
 30
0.0
 11
108.5239216107531
 21
-209.6692360794398
 31
0.0
  0
LINE
  5
257
330
E7
100
AcDbEntity
  8
Слой 1
 62
   250
420
  3947579
370
    25
100
AcDbLine
 10
108.5239216107531
 20
-209.6692360794398
 30
0.0
 11
108.4896838374882
 21
-209.63499133878
 31
0.0
  0
LINE
  5
258
330
E7
100
AcDbEntity
  8
Слой 1
 62
   250
420
  3947579
370
    25
100
AcDbLine
 10
108.4896838374882
 20
-209.63499133878
 30
0.0
 11
108.4590830437997
 21
-209.6043975124864
 31
0.0
  0
LINE
  5
259
330
E7
100
AcDbEntity
  8
Слой 1
 62
   250
420
  3947579
370
    25
100
AcDbLine
 10
108.4590830437997
 20
-209.6043975124864
 30
0.0
 11
108.4243854225418
 21
-209.5701458044336
 31
0.0
  0
LINE
  5
25A
330
E7
100
AcDbEntity
  8
Слой 1
 62
   250
420
  3947579
370
    25
100
AcDbLine
 10
108.4243854225418
 20
-209.5701458044336
 30
0.0
 11
108.393784628854
 21
-209.53909909754
 31
0.0
  0
LINE
  5
25B
330
E7
100
AcDbEntity
  8
Слой 1
 62
   250
420
  3947579
370
    25
100
AcDbLine
 10
107.6677682572985
 20
-210.2619174353279
 30
0.0
 11
107.702019965352
 21
-210.2925182290158
 31
0.0
  0
LINE
  5
25C
330
E7
100
AcDbEntity
  8
Слой 1
 62
   250
420
  3947579
370
    25
100
AcDbLine
 10
107.702019965352
 20
-210.2925182290158
 30
0.0
 11
107.702019965352
 21
-210.3267560022813
 31
0.0
  0
LINE
  5
25D
330
E7
100
AcDbEntity
  8
Слой 1
 62
   250
420
  3947579
370
    25
100
AcDbLine
 10
107.702019965352
 20
-210.3267560022813
 30
0.0
 11
107.7362577386176
 21
-210.3920544172283
 31
0.0
  0
LINE
  5
25E
330
E7
100
AcDbEntity
  8
Слой 1
 62
   250
420
  3947579
370
    25
100
AcDbLine
 10
107.7362577386176
 20
-210.3920544172283
 30
0.0
 11
107.7673183802983
 21
-210.4263061252811
 31
0.0
  0
LINE
  5
25F
330
E7
100
AcDbEntity
  8
Слой 1
 62
   250
420
  3947579
370
    25
100
AcDbLine
 10
107.7673183802983
 20
-210.4263061252811
 30
0.0
 11
107.8015561535639
 21
-210.4263061252811
 31
0.0
  0
LINE
  5
260
330
E7
100
AcDbEntity
  8
Слой 1
 62
   250
420
  3947579
370
    25
100
AcDbLine
 10
107.8015561535639
 20
-210.4263061252811
 30
0.0
 11
107.8663947205173
 21
-210.4568929841817
 31
0.0
  0
LINE
  5
261
330
E7
100
AcDbEntity
  8
Слой 1
 62
   250
420
  3947579
370
    25
100
AcDbLine
 10
107.8663947205173
 20
-210.4568929841817
 30
0.0
 11
107.9006464285708
 21
-210.4911446922345
 31
0.0
  0
SPLINE
  5
262
330
E7
100
AcDbEntity
  8
Слой 1
 62
   250
420
  3947579
370
    25
100
AcDbSpline
210
0.0
220
0.0
230
1.0
 70
     8
 71
     3
 72
     8
 73
     4
 74
     0
 42
0.0000000001
 43
0.0000000001
 40
0.0
 40
0.0
 40
0.0
 40
0.0
 40
1.0
 40
1.0
 40
1.0
 40
1.0
 10
126.5748365157801
 20
-187.7759079897636
 30
0.0
 10
126.3351163637688
 20
-187.7928039197939
 30
0.0
 10
126.146982795654
 20
-187.9914303830133
 30
0.0
 10
126.1401408149163
 20
-188.2380064505469
 30
0.0
  0
SPLINE
  5
263
330
E7
100
AcDbEntity
  8
Слой 1
 62
   250
420
  3947579
370
    25
100
AcDbSpline
210
0.0
220
0.0
230
1.0
 70
     8
 71
     3
 72
     8
 73
     4
 74
     0
 42
0.0000000001
 43
0.0000000001
 40
0.0
 40
0.0
 40
0.0
 40
0.0
 40
1.0
 40
1.0
 40
1.0
 40
1.0
 10
126.5748365157801
 20
-187.8101527304235
 30
0.0
 10
126.3351163637688
 20
-187.8238506266874
 30
0.0
 10
126.146982795654
 20
-188.0087861610352
 30
0.0
 10
126.1401408149163
 20
-188.2380064505469
 30
0.0
  0
LINE
  5
264
330
E7
100
AcDbEntity
  8
Слой 1
 62
   250
420
  3947579
370
    25
100
AcDbLine
 10
131.0752294712643
 20
-185.5736541489434
 30
0.0
 11
130.8766030080462
 21
-185.5736541489434
 31
0.0
  0
LINE
  5
265
330
E7
100
AcDbEntity
  8
Слой 1
 62
   250
420
  3947579
370
    25
100
AcDbLine
 10
131.0752294712643
 20
-185.5736541489434
 30
0.0
 11
131.3692952951244
 21
-185.5736541489434
 31
0.0
  0
LINE
  5
266
330
E7
100
AcDbEntity
  8
Слой 1
 62
   250
420
  3947579
370
    25
100
AcDbLine
 10
106.5171031667802
 20
-213.2513753002921
 30
0.0
 11
106.3869661848798
 21
-213.415763990244
 31
0.0
  0
LINE
  5
267
330
E7
100
AcDbEntity
  8
Слой 1
 62
   250
420
  3947579
370
    25
100
AcDbLine
 10
106.3869661848798
 20
-213.415763990244
 30
0.0
 11
106.2568292029807
 21
-213.5801387454093
 31
0.0
  0
LINE
  5
268
330
E7
100
AcDbEntity
  8
Слой 1
 62
   250
420
  3947579
370
    25
100
AcDbLine
 10
106.2568292029807
 20
-213.5801387454093
 30
0.0
 11
106.1572930147694
 21
-213.7445274353619
 31
0.0
  0
LINE
  5
269
330
E7
100
AcDbEntity
  8
Слой 1
 62
   250
420
  3947579
370
    25
100
AcDbLine
 10
106.1572930147694
 20
-213.7445274353619
 30
0.0
 11
106.0582027397632
 21
-213.9431538985807
 31
0.0
  0
LINE
  5
26A
330
E7
100
AcDbEntity
  8
Слой 1
 62
   250
420
  3947579
370
    25
100
AcDbLine
 10
106.0582027397632
 20
-213.9431538985807
 30
0.0
 11
105.9586665515513
 21
-214.1385892954261
 31
0.0
  0
LINE
  5
26B
330
E7
100
AcDbEntity
  8
Слой 1
 62
   250
420
  3947579
370
    25
100
AcDbLine
 10
105.9586665515513
 20
-214.1385892954261
 30
0.0
 11
105.8938279845972
 21
-214.3372157586443
 31
0.0
  0
LINE
  5
26C
330
E7
100
AcDbEntity
  8
Слой 1
 62
   250
420
  3947579
370
    25
100
AcDbLine
 10
105.8938279845972
 20
-214.3372157586443
 30
0.0
 11
105.8595762765438
 21
-214.5321913074981
 31
0.0
  0
LINE
  5
26D
330
E7
100
AcDbEntity
  8
Слой 1
 62
   250
420
  3947579
370
    25
100
AcDbLine
 10
105.8595762765438
 20
-214.5321913074981
 30
0.0
 11
105.8285295696509
 21
-214.7650555439824
 31
0.0
  0
LINE
  5
26E
330
E7
100
AcDbEntity
  8
Слой 1
 62
   250
420
  3947579
370
    25
100
AcDbLine
 10
105.8285295696509
 20
-214.7650555439824
 30
0.0
 11
105.8285295696509
 21
-214.9604909408278
 31
0.0
  0
LINE
  5
26F
330
E7
100
AcDbEntity
  8
Слой 1
 62
   250
420
  3947579
370
    25
100
AcDbLine
 10
105.8285295696509
 20
-214.9604909408278
 30
0.0
 11
105.8285295696509
 21
-215.1897181977339
 31
0.0
  0
LINE
  5
270
330
E7
100
AcDbEntity
  8
Слой 1
 62
   250
420
  3947579
370
    25
100
AcDbLine
 10
105.8285295696509
 20
-215.1897181977339
 30
0.0
 11
105.8595762765438
 21
-215.3883446609527
 31
0.0
  0
LINE
  5
271
330
E7
100
AcDbEntity
  8
Слой 1
 62
   250
420
  3947579
370
    25
100
AcDbLine
 10
105.8595762765438
 20
-215.3883446609527
 30
0.0
 11
105.8938279845972
 21
-215.5869711241714
 31
0.0
  0
LINE
  5
272
330
E7
100
AcDbEntity
  8
Слой 1
 62
   250
420
  3947579
370
    25
100
AcDbLine
 10
105.8938279845972
 20
-215.5869711241714
 30
0.0
 11
105.9586665515513
 21
-215.8166442942825
 31
0.0
  0
LINE
  5
273
330
E7
100
AcDbEntity
  8
Слой 1
 62
   250
420
  3947579
370
    25
100
AcDbLine
 10
105.9586665515513
 20
-215.8166442942825
 30
0.0
 11
106.0582027397632
 21
-216.0116198431363
 31
0.0
  0
LINE
  5
274
330
E7
100
AcDbEntity
  8
Слой 1
 62
   250
420
  3947579
370
    25
100
AcDbLine
 10
106.0582027397632
 20
-216.0116198431363
 30
0.0
 11
106.1235011547082
 21
-216.1759945983003
 31
0.0
  0
LINE
  5
275
330
E7
100
AcDbEntity
  8
Слой 1
 62
   250
420
  3947579
370
    25
100
AcDbLine
 10
106.1235011547082
 20
-216.1759945983003
 30
0.0
 11
106.2568292029807
 21
-216.3746210615191
 31
0.0
  0
LINE
  5
276
330
E7
100
AcDbEntity
  8
Слой 1
 62
   250
420
  3947579
370
    25
100
AcDbLine
 10
106.2568292029807
 20
-216.3746210615191
 30
0.0
 11
106.3869661848798
 21
-216.5390097514716
 31
0.0
  0
LINE
  5
277
330
E7
100
AcDbEntity
  8
Слой 1
 62
   250
420
  3947579
370
    25
100
AcDbLine
 10
106.3869661848798
 20
-216.5390097514716
 30
0.0
 11
106.5171031667802
 21
-216.703384506637
 31
0.0
  0
LINE
  5
278
330
E7
100
AcDbEntity
  8
Слой 1
 62
   250
420
  3947579
370
    25
100
AcDbLine
 10
106.5171031667802
 20
-216.703384506637
 30
0.0
 11
106.6814779219449
 21
-216.8335214885373
 31
0.0
  0
LINE
  5
279
330
E7
100
AcDbEntity
  8
Слой 1
 62
   250
420
  3947579
370
    25
100
AcDbLine
 10
106.6814779219449
 20
-216.8335214885373
 30
0.0
 11
106.8458666118981
 21
-216.9673093848015
 31
0.0
  0
LINE
  5
27A
330
E7
100
AcDbEntity
  8
Слой 1
 62
   250
420
  3947579
370
    25
100
AcDbLine
 10
106.8458666118981
 20
-216.9673093848015
 30
0.0
 11
107.0444930751156
 21
-217.0663996598083
 31
0.0
  0
LINE
  5
27B
330
E7
100
AcDbEntity
  8
Слой 1
 62
   250
420
  3947579
370
    25
100
AcDbLine
 10
107.0444930751156
 20
-217.0663996598083
 30
0.0
 11
107.2088678302822
 21
-217.162284933654
 31
0.0
  0
LINE
  5
27C
330
E7
100
AcDbEntity
  8
Слой 1
 62
   250
420
  3947579
370
    25
100
AcDbLine
 10
107.2088678302822
 20
-217.162284933654
 30
0.0
 11
107.4075082282876
 21
-217.2618350566544
 31
0.0
  0
LINE
  5
27D
330
E7
100
AcDbEntity
  8
Слой 1
 62
   250
420
  3947579
370
    25
100
AcDbLine
 10
107.4075082282876
 20
-217.2618350566544
 30
0.0
 11
107.6029296903451
 21
-217.3266736236072
 31
0.0
  0
LINE
  5
27E
330
E7
100
AcDbEntity
  8
Слой 1
 62
   250
420
  3947579
370
    25
100
AcDbLine
 10
107.6029296903451
 20
-217.3266736236072
 30
0.0
 11
107.8321569472517
 21
-217.3609113968728
 31
0.0
  0
LINE
  5
27F
330
E7
100
AcDbEntity
  8
Слой 1
 62
   250
420
  3947579
370
    25
100
AcDbLine
 10
107.8321569472517
 20
-217.3609113968728
 30
0.0
 11
108.0307834104705
 21
-217.3951631049269
 31
0.0
  0
LINE
  5
280
330
E7
100
AcDbEntity
  8
Слой 1
 62
   250
420
  3947579
370
    25
100
AcDbLine
 10
108.0307834104705
 20
-217.3951631049269
 30
0.0
 11
108.2294098736893
 21
-217.3951631049269
 31
0.0
  0
LINE
  5
281
330
E7
100
AcDbEntity
  8
Слой 1
 62
   250
420
  3947579
370
    25
100
AcDbLine
 10
108.2294098736893
 20
-217.3951631049269
 30
0.0
 11
108.4590830437997
 21
-217.3951631049269
 31
0.0
  0
LINE
  5
282
330
E7
100
AcDbEntity
  8
Слой 1
 62
   250
420
  3947579
370
    25
100
AcDbLine
 10
108.4590830437997
 20
-217.3951631049269
 30
0.0
 11
108.6540585926522
 21
-217.3609113968728
 31
0.0
  0
LINE
  5
283
330
E7
100
AcDbEntity
  8
Слой 1
 62
   250
420
  3947579
370
    25
100
AcDbLine
 10
108.6540585926522
 20
-217.3609113968728
 30
0.0
 11
108.8869367639251
 21
-217.3266736236072
 31
0.0
  0
LINE
  5
284
330
E7
100
AcDbEntity
  8
Слой 1
 62
   250
420
  3947579
370
    25
100
AcDbLine
 10
108.8869367639251
 20
-217.3266736236072
 30
0.0
 11
109.0819123127776
 21
-217.2618350566544
 31
0.0
  0
LINE
  5
285
330
E7
100
AcDbEntity
  8
Слой 1
 62
   250
420
  3947579
370
    25
100
AcDbLine
 10
109.0819123127776
 20
-217.2618350566544
 30
0.0
 11
109.2805387759964
 21
-217.162284933654
 31
0.0
  0
LINE
  5
286
330
E7
100
AcDbEntity
  8
Слой 1
 62
   250
420
  3947579
370
    25
100
AcDbLine
 10
109.2805387759964
 20
-217.162284933654
 30
0.0
 11
109.4453733791546
 21
-217.0663996598083
 31
0.0
  0
LINE
  5
287
330
E7
100
AcDbEntity
  8
Слой 1
 62
   250
420
  3947579
370
    25
100
AcDbLine
 10
109.4453733791546
 20
-217.0663996598083
 30
0.0
 11
109.6403489280078
 21
-216.9673093848015
 31
0.0
  0
LINE
  5
288
330
E7
100
AcDbEntity
  8
Слой 1
 62
   250
420
  3947579
370
    25
100
AcDbLine
 10
109.6403489280078
 20
-216.9673093848015
 30
0.0
 11
109.8047376179597
 21
-216.8335214885373
 31
0.0
  0
LINE
  5
289
330
E7
100
AcDbEntity
  8
Слой 1
 62
   250
420
  3947579
370
    25
100
AcDbLine
 10
109.8047376179597
 20
-216.8335214885373
 30
0.0
 11
109.9691123731257
 21
-216.703384506637
 31
0.0
  0
LINE
  5
28A
330
E7
100
AcDbEntity
  8
Слой 1
 62
   250
420
  3947579
370
    25
100
AcDbLine
 10
109.9691123731257
 20
-216.703384506637
 30
0.0
 11
110.1029002693904
 21
-216.5390097514716
 31
0.0
  0
LINE
  5
28B
330
E7
100
AcDbEntity
  8
Слой 1
 62
   250
420
  3947579
370
    25
100
AcDbLine
 10
110.1029002693904
 20
-216.5390097514716
 30
0.0
 11
110.2330372512902
 21
-216.3746210615191
 31
0.0
  0
LINE
  5
28C
330
E7
100
AcDbEntity
  8
Слой 1
 62
   250
420
  3947579
370
    25
100
AcDbLine
 10
110.2330372512902
 20
-216.3746210615191
 30
0.0
 11
110.3321275262964
 21
-216.1759945983003
 31
0.0
  0
LINE
  5
28D
330
E7
100
AcDbEntity
  8
Слой 1
 62
   250
420
  3947579
370
    25
100
AcDbLine
 10
110.3321275262964
 20
-216.1759945983003
 30
0.0
 11
110.431663714509
 21
-216.0116198431363
 31
0.0
  0
LINE
  5
28E
330
E7
100
AcDbEntity
  8
Слой 1
 62
   250
420
  3947579
370
    25
100
AcDbLine
 10
110.431663714509
 20
-216.0116198431363
 30
0.0
 11
110.5307539895152
 21
-215.8166442942825
 31
0.0
  0
LINE
  5
28F
330
E7
100
AcDbEntity
  8
Слой 1
 62
   250
420
  3947579
370
    25
100
AcDbLine
 10
110.5307539895152
 20
-215.8166442942825
 30
0.0
 11
110.5955925564686
 21
-215.5869711241714
 31
0.0
  0
LINE
  5
290
330
E7
100
AcDbEntity
  8
Слой 1
 62
   250
420
  3947579
370
    25
100
AcDbLine
 10
110.5955925564686
 20
-215.5869711241714
 30
0.0
 11
110.6266392633621
 21
-215.3883446609527
 31
0.0
  0
LINE
  5
291
330
E7
100
AcDbEntity
  8
Слой 1
 62
   250
420
  3947579
370
    25
100
AcDbLine
 10
110.6266392633621
 20
-215.3883446609527
 30
0.0
 11
110.6608909714143
 21
-215.1897181977339
 31
0.0
  0
LINE
  5
292
330
E7
100
AcDbEntity
  8
Слой 1
 62
   250
420
  3947579
370
    25
100
AcDbLine
 10
110.6608909714143
 20
-215.1897181977339
 30
0.0
 11
110.6608909714143
 21
-214.9604909408278
 31
0.0
  0
LINE
  5
293
330
E7
100
AcDbEntity
  8
Слой 1
 62
   250
420
  3947579
370
    25
100
AcDbLine
 10
110.6608909714143
 20
-214.9604909408278
 30
0.0
 11
110.6608909714143
 21
-214.7650555439824
 31
0.0
  0
LINE
  5
294
330
E7
100
AcDbEntity
  8
Слой 1
 62
   250
420
  3947579
370
    25
100
AcDbLine
 10
110.6608909714143
 20
-214.7650555439824
 30
0.0
 11
110.6266392633621
 21
-214.5321913074981
 31
0.0
  0
LINE
  5
295
330
E7
100
AcDbEntity
  8
Слой 1
 62
   250
420
  3947579
370
    25
100
AcDbLine
 10
110.6266392633621
 20
-214.5321913074981
 30
0.0
 11
110.5955925564686
 21
-214.3372157586443
 31
0.0
  0
LINE
  5
296
330
E7
100
AcDbEntity
  8
Слой 1
 62
   250
420
  3947579
370
    25
100
AcDbLine
 10
110.5955925564686
 20
-214.3372157586443
 30
0.0
 11
110.5307539895152
 21
-214.1385892954261
 31
0.0
  0
LINE
  5
297
330
E7
100
AcDbEntity
  8
Слой 1
 62
   250
420
  3947579
370
    25
100
AcDbLine
 10
110.5307539895152
 20
-214.1385892954261
 30
0.0
 11
110.431663714509
 21
-213.9431538985807
 31
0.0
  0
LINE
  5
298
330
E7
100
AcDbEntity
  8
Слой 1
 62
   250
420
  3947579
370
    25
100
AcDbLine
 10
110.431663714509
 20
-213.9431538985807
 30
0.0
 11
110.3321275262964
 21
-213.7445274353619
 31
0.0
  0
LINE
  5
299
330
E7
100
AcDbEntity
  8
Слой 1
 62
   250
420
  3947579
370
    25
100
AcDbLine
 10
110.3321275262964
 20
-213.7445274353619
 30
0.0
 11
110.2330372512902
 21
-213.5801387454093
 31
0.0
  0
LINE
  5
29A
330
E7
100
AcDbEntity
  8
Слой 1
 62
   250
420
  3947579
370
    25
100
AcDbLine
 10
110.2330372512902
 20
-213.5801387454093
 30
0.0
 11
110.1029002693904
 21
-213.415763990244
 31
0.0
  0
LINE
  5
29B
330
E7
100
AcDbEntity
  8
Слой 1
 62
   250
420
  3947579
370
    25
100
AcDbLine
 10
110.1029002693904
 20
-213.415763990244
 30
0.0
 11
109.9691123731257
 21
-213.2513753002921
 31
0.0
  0
SPLINE
  5
29C
330
E7
100
AcDbEntity
  8
Слой 1
 62
   250
420
  3947579
370
    25
100
AcDbSpline
210
0.0
220
0.0
230
1.0
 70
     8
 71
     3
 72
    23
 73
    19
 74
     0
 42
0.0000000001
 43
0.0000000001
 40
0.0
 40
0.0
 40
0.0
 40
0.0
 40
1.0
 40
1.0
 40
1.0
 40
2.0
 40
2.0
 40
2.0
 40
3.0
 40
3.0
 40
3.0
 40
4.0
 40
4.0
 40
4.0
 40
5.0
 40
5.0
 40
5.0
 40
6.0
 40
6.0
 40
6.0
 40
6.0
 10
106.188339721661
 20
-214.9604909408278
 30
0.0
 10
106.188339721661
 20
-214.9604909408278
 30
0.0
 10
106.184688807296
 20
-214.9604909408278
 30
0.0
 10
106.184688807296
 20
-214.9604909408278
 30
0.0
 10
106.184688807296
 20
-213.8883623135262
 30
0.0
 10
107.0545400570139
 20
-213.0185110638064
 30
0.0
 10
108.1266686843168
 20
-213.0185110638064
 30
0.0
 10
109.2020023127797
 20
-213.0221619781727
 30
0.0
 10
110.0682026481326
 20
-213.8883623135262
 30
0.0
 10
110.0682026481326
 20
-214.9636820072006
 30
0.0
 10
110.0682026481326
 20
-216.0358245692914
 30
0.0
 10
109.2020023127797
 20
-216.9020249046443
 30
0.0
 10
108.1266686843168
 20
-216.9020249046443
 30
0.0
 10
107.0545400570139
 20
-216.9020249046443
 30
0.0
 10
106.188339721661
 20
-216.0358245692914
 30
0.0
 10
106.188339721661
 20
-214.9604909408278
 30
0.0
 10
106.184688807296
 20
-214.9604909408278
 30
0.0
 10
106.184688807296
 20
-214.9604909408278
 30
0.0
 10
106.184688807296
 20
-214.9604909408278
 30
0.0
  0
SPLINE
  5
29D
330
E7
100
AcDbEntity
  8
Слой 1
 62
   250
420
  3947579
370
    25
100
AcDbSpline
210
0.0
220
0.0
230
1.0
 70
     8
 71
     3
 72
    20
 73
    16
 74
     0
 42
0.0000000001
 43
0.0000000001
 40
0.0
 40
0.0
 40
0.0
 40
0.0
 40
1.0
 40
1.0
 40
1.0
 40
2.0
 40
2.0
 40
2.0
 40
3.0
 40
3.0
 40
3.0
 40
4.0
 40
4.0
 40
4.0
 40
5.0
 40
5.0
 40
5.0
 40
5.0
 10
106.4522645998268
 20
-214.9604909408278
 30
0.0
 10
106.4522645998268
 20
-214.9604909408278
 30
0.0
 10
106.4212178929326
 20
-214.9604909408278
 30
0.0
 10
106.4212178929326
 20
-214.9604909408278
 30
0.0
 10
106.4212178929326
 20
-214.0152942942647
 30
0.0
 10
107.1846770389149
 20
-213.2513753002921
 30
0.0
 10
108.1303195986818
 20
-213.2513753002921
 30
0.0
 10
109.0755162452449
 20
-213.2513753002921
 30
0.0
 10
109.8389753912253
 20
-214.0152942942647
 30
0.0
 10
109.8389753912253
 20
-214.9604909408278
 30
0.0
 10
109.8389753912253
 20
-215.9056875873904
 30
0.0
 10
109.0755162452449
 20
-216.6691467333707
 30
0.0
 10
108.1303195986818
 20
-216.6691467333707
 30
0.0
 10
107.1846770389149
 20
-216.6691467333707
 30
0.0
 10
106.4212178929326
 20
-215.9056875873904
 30
0.0
 10
106.4212178929326
 20
-214.9604909408278
 30
0.0
  0
SPLINE
  5
29E
330
E7
100
AcDbEntity
  8
Слой 1
 62
   250
420
  3947579
370
    25
100
AcDbSpline
210
0.0
220
0.0
230
1.0
 70
     8
 71
     3
 72
    11
 73
     7
 74
     0
 42
0.0000000001
 43
0.0000000001
 40
0.0
 40
0.0
 40
0.0
 40
0.0
 40
1.0
 40
1.0
 40
1.0
 40
2.0
 40
2.0
 40
2.0
 40
2.0
 10
106.5408480449418
 20
-213.2755800264466
 30
0.0
 10
106.715729629999
 20
-213.0975073750186
 30
0.0
 10
106.8148199050052
 20
-212.8609782893801
 30
0.0
 10
106.8148199050052
 20
-212.6112111554712
 30
0.0
 10
106.8148199050052
 20
-212.3372392954084
 30
0.0
 10
106.6951758182088
 20
-212.0801563979816
 30
0.0
 10
106.4897073742523
 20
-211.902083746553
 30
0.0
  0
SPLINE
  5
29F
330
E7
100
AcDbEntity
  8
Слой 1
 62
   250
420
  3947579
370
    25
100
AcDbSpline
210
0.0
220
0.0
230
1.0
 70
     8
 71
     3
 72
    11
 73
     7
 74
     0
 42
0.0000000001
 43
0.0000000001
 40
0.0
 40
0.0
 40
0.0
 40
0.0
 40
1.0
 40
1.0
 40
1.0
 40
2.0
 40
2.0
 40
2.0
 40
2.0
 10
110.0275548725464
 20
-211.9331304534478
 30
0.0
 10
109.8426263055909
 20
-212.1112170396624
 30
0.0
 10
109.7362342018541
 20
-212.354128258045
 30
0.0
 10
109.7362342018541
 20
-212.6112111554712
 30
0.0
 10
109.7362342018541
 20
-212.8440753919568
 30
0.0
 10
109.82208642859
 20
-213.0700976477022
 30
0.0
 10
109.9796192030163
 20
-213.2413283183931
 30
0.0
  0
LINE
  5
2A0
330
E7
100
AcDbEntity
  8
Слой 1
 62
   250
420
  3947579
370
    25
100
AcDbLine
 10
107.6677682572985
 20
-215.2239559710001
 30
0.0
 11
107.702019965352
 21
-215.2582076790529
 31
0.0
  0
LINE
  5
2A1
330
E7
100
AcDbEntity
  8
Слой 1
 62
   250
420
  3947579
370
    25
100
AcDbLine
 10
107.702019965352
 20
-215.2582076790529
 30
0.0
 11
107.702019965352
 21
-215.2892543859451
 31
0.0
  0
LINE
  5
2A2
330
E7
100
AcDbEntity
  8
Слой 1
 62
   250
420
  3947579
370
    25
100
AcDbLine
 10
107.702019965352
 20
-215.2892543859451
 30
0.0
 11
107.7362577386176
 21
-215.3235060939993
 31
0.0
  0
LINE
  5
2A3
330
E7
100
AcDbEntity
  8
Слой 1
 62
   250
420
  3947579
370
    25
100
AcDbLine
 10
107.7362577386176
 20
-215.3235060939993
 30
0.0
 11
107.7673183802983
 21
-215.3540929528979
 31
0.0
  0
LINE
  5
2A4
330
E7
100
AcDbEntity
  8
Слой 1
 62
   250
420
  3947579
370
    25
100
AcDbLine
 10
107.7673183802983
 20
-215.3540929528979
 30
0.0
 11
107.8015561535639
 21
-215.3883446609527
 31
0.0
  0
LINE
  5
2A5
330
E7
100
AcDbEntity
  8
Слой 1
 62
   250
420
  3947579
370
    25
100
AcDbLine
 10
107.8015561535639
 20
-215.3883446609527
 30
0.0
 11
107.8663947205173
 21
-215.4225824342189
 31
0.0
  0
LINE
  5
2A6
330
E7
100
AcDbEntity
  8
Слой 1
 62
   250
420
  3947579
370
    25
100
AcDbLine
 10
107.8663947205173
 20
-215.4225824342189
 30
0.0
 11
107.9006464285708
 21
-215.4536291411111
 31
0.0
  0
LINE
  5
2A7
330
E7
100
AcDbEntity
  8
Слой 1
 62
   250
420
  3947579
370
    25
100
AcDbLine
 10
108.6234717337529
 20
-214.7308177707169
 30
0.0
 11
108.5892200257001
 21
-214.6965660626647
 31
0.0
  0
LINE
  5
2A8
330
E7
100
AcDbEntity
  8
Слой 1
 62
   250
420
  3947579
370
    25
100
AcDbLine
 10
108.5892200257001
 20
-214.6965660626647
 30
0.0
 11
108.5581733188072
 21
-214.63172749571
 31
0.0
  0
LINE
  5
2A9
330
E7
100
AcDbEntity
  8
Слой 1
 62
   250
420
  3947579
370
    25
100
AcDbLine
 10
108.5581733188072
 20
-214.63172749571
 30
0.0
 11
108.5239216107531
 21
-214.6006807888165
 31
0.0
  0
LINE
  5
2AA
330
E7
100
AcDbEntity
  8
Слой 1
 62
   250
420
  3947579
370
    25
100
AcDbLine
 10
108.5239216107531
 20
-214.6006807888165
 30
0.0
 11
108.4896838374882
 21
-214.5664290807624
 31
0.0
  0
LINE
  5
2AB
330
E7
100
AcDbEntity
  8
Слой 1
 62
   250
420
  3947579
370
    25
100
AcDbLine
 10
108.4896838374882
 20
-214.5664290807624
 30
0.0
 11
108.4590830437997
 21
-214.5321913074981
 31
0.0
  0
LINE
  5
2AC
330
E7
100
AcDbEntity
  8
Слой 1
 62
   250
420
  3947579
370
    25
100
AcDbLine
 10
108.4590830437997
 20
-214.5321913074981
 30
0.0
 11
108.4243854225418
 21
-214.5015905138103
 31
0.0
  0
LINE
  5
2AD
330
E7
100
AcDbEntity
  8
Слой 1
 62
   250
420
  3947579
370
    25
100
AcDbLine
 10
108.4243854225418
 20
-214.5015905138103
 30
0.0
 11
108.393784628854
 21
-214.5015905138103
 31
0.0
  0
LINE
  5
2AE
330
E7
100
AcDbEntity
  8
Слой 1
 62
   250
420
  3947579
370
    25
100
AcDbLine
 10
107.9006464285708
 20
-214.5015905138103
 30
0.0
 11
107.8663947205173
 21
-214.5015905138103
 31
0.0
  0
LINE
  5
2AF
330
E7
100
AcDbEntity
  8
Слой 1
 62
   250
420
  3947579
370
    25
100
AcDbLine
 10
107.8663947205173
 20
-214.5015905138103
 30
0.0
 11
107.8015561535639
 21
-214.5321913074981
 31
0.0
  0
LINE
  5
2B0
330
E7
100
AcDbEntity
  8
Слой 1
 62
   250
420
  3947579
370
    25
100
AcDbLine
 10
107.8015561535639
 20
-214.5321913074981
 30
0.0
 11
107.7673183802983
 21
-214.5664290807624
 31
0.0
  0
LINE
  5
2B1
330
E7
100
AcDbEntity
  8
Слой 1
 62
   250
420
  3947579
370
    25
100
AcDbLine
 10
107.7673183802983
 20
-214.5664290807624
 30
0.0
 11
107.7362577386176
 21
-214.6006807888165
 31
0.0
  0
LINE
  5
2B2
330
E7
100
AcDbEntity
  8
Слой 1
 62
   250
420
  3947579
370
    25
100
AcDbLine
 10
107.7362577386176
 20
-214.6006807888165
 30
0.0
 11
107.702019965352
 21
-214.63172749571
 31
0.0
  0
LINE
  5
2B3
330
E7
100
AcDbEntity
  8
Слой 1
 62
   250
420
  3947579
370
    25
100
AcDbLine
 10
107.702019965352
 20
-214.63172749571
 30
0.0
 11
107.702019965352
 21
-214.6965660626647
 31
0.0
  0
LINE
  5
2B4
330
E7
100
AcDbEntity
  8
Слой 1
 62
   250
420
  3947579
370
    25
100
AcDbLine
 10
107.702019965352
 20
-214.6965660626647
 30
0.0
 11
107.6677682572985
 21
-214.7308177707169
 31
0.0
  0
LINE
  5
2B5
330
E7
100
AcDbEntity
  8
Слой 1
 62
   250
420
  3947579
370
    25
100
AcDbLine
 10
108.393784628854
 20
-215.4536291411111
 30
0.0
 11
108.4243854225418
 21
-215.4225824342189
 31
0.0
  0
LINE
  5
2B6
330
E7
100
AcDbEntity
  8
Слой 1
 62
   250
420
  3947579
370
    25
100
AcDbLine
 10
108.4243854225418
 20
-215.4225824342189
 30
0.0
 11
108.4590830437997
 21
-215.3883446609527
 31
0.0
  0
LINE
  5
2B7
330
E7
100
AcDbEntity
  8
Слой 1
 62
   250
420
  3947579
370
    25
100
AcDbLine
 10
108.4590830437997
 20
-215.3883446609527
 30
0.0
 11
108.4896838374882
 21
-215.3540929528979
 31
0.0
  0
LINE
  5
2B8
330
E7
100
AcDbEntity
  8
Слой 1
 62
   250
420
  3947579
370
    25
100
AcDbLine
 10
108.4896838374882
 20
-215.3540929528979
 30
0.0
 11
108.5239216107531
 21
-215.3235060939993
 31
0.0
  0
LINE
  5
2B9
330
E7
100
AcDbEntity
  8
Слой 1
 62
   250
420
  3947579
370
    25
100
AcDbLine
 10
108.5239216107531
 20
-215.3235060939993
 30
0.0
 11
108.5581733188072
 21
-215.2892543859451
 31
0.0
  0
LINE
  5
2BA
330
E7
100
AcDbEntity
  8
Слой 1
 62
   250
420
  3947579
370
    25
100
AcDbLine
 10
108.5581733188072
 20
-215.2892543859451
 30
0.0
 11
108.5892200257001
 21
-215.2582076790529
 31
0.0
  0
LINE
  5
2BB
330
E7
100
AcDbEntity
  8
Слой 1
 62
   250
420
  3947579
370
    25
100
AcDbLine
 10
108.5892200257001
 20
-215.2582076790529
 30
0.0
 11
108.6234717337529
 21
-215.2239559710001
 31
0.0
  0
SPLINE
  5
2BC
330
E7
100
AcDbEntity
  8
Слой 1
 62
   250
420
  3947579
370
    25
100
AcDbSpline
210
0.0
220
0.0
230
1.0
 70
     8
 71
     3
 72
    11
 73
     7
 74
     0
 42
0.0000000001
 43
0.0000000001
 40
0.0
 40
0.0
 40
0.0
 40
0.0
 40
1.0
 40
1.0
 40
1.0
 40
2.0
 40
2.0
 40
2.0
 40
2.0
 10
54.37721503381788
 20
-154.4052821771629
 30
0.0
 10
54.38042003497817
 20
-154.3984262616373
 30
0.0
 10
54.38042003497817
 20
-154.3915842808983
 30
0.0
 10
54.38042003497817
 20
-154.3847283653734
 30
0.0
 10
54.38042003497817
 20
-154.3436346765816
 30
0.0
 10
54.35302424245094
 20
-154.3025409877904
 30
0.0
 10
54.31237646686511
 20
-154.2888430915271
 30
0.0
  0
SPLINE
  5
2BD
330
E7
100
AcDbEntity
  8
Слой 1
 62
   250
420
  3947579
370
    25
100
AcDbSpline
210
0.0
220
0.0
230
1.0
 70
     8
 71
     3
 72
    11
 73
     7
 74
     0
 42
0.0000000001
 43
0.0000000001
 40
0.0
 40
0.0
 40
0.0
 40
0.0
 40
1.0
 40
1.0
 40
1.0
 40
2.0
 40
2.0
 40
2.0
 40
2.0
 10
34.59665854604204
 20
-157.6723628165542
 30
0.0
 10
34.61035644230566
 20
-157.7102654389721
 30
0.0
 10
34.6546411974705
 20
-157.7376612314999
 30
0.0
 10
34.70624171615161
 20
-157.7376612314999
 30
0.0
 10
34.70943278252529
 20
-157.7376612314999
 30
0.0
 10
34.71308369689059
 20
-157.7376612314999
 30
0.0
 10
34.71628869805088
 20
-157.7376612314999
 30
0.0
  0
SPLINE
  5
2BE
330
E7
100
AcDbEntity
  8
Слой 1
 62
   250
420
  3947579
370
    25
100
AcDbSpline
210
0.0
220
0.0
230
1.0
 70
     8
 71
     3
 72
    11
 73
     7
 74
     0
 42
0.0000000001
 43
0.0000000001
 40
0.0
 40
0.0
 40
0.0
 40
0.0
 40
1.0
 40
1.0
 40
1.0
 40
2.0
 40
2.0
 40
2.0
 40
2.0
 10
38.89431427595155
 20
-153.5116860492815
 30
0.0
 10
38.8806163796889
 20
-153.5048301337559
 30
0.0
 10
38.866918483424
 20
-153.5011792193916
 30
0.0
 10
38.85002952078735
 20
-153.5011792193916
 30
0.0
 10
38.8089218972086
 20
-153.5011792193916
 30
0.0
 10
38.77103320957804
 20
-153.5217330311805
 30
0.0
 10
38.75047939778755
 20
-153.5559847392333
 30
0.0
  0
SPLINE
  5
2BF
330
E7
100
AcDbEntity
  8
Слой 1
 62
   250
420
  3947579
370
    25
100
AcDbSpline
210
0.0
220
0.0
230
1.0
 70
     8
 71
     3
 72
    14
 73
    10
 74
     0
 42
0.0000000001
 43
0.0000000001
 40
0.0
 40
0.0
 40
0.0
 40
0.0
 40
1.0
 40
1.0
 40
1.0
 40
2.0
 40
2.0
 40
2.0
 40
3.0
 40
3.0
 40
3.0
 40
3.0
 10
34.68889290552365
 20
-154.2856520251544
 30
0.0
 10
34.68203698999709
 20
-154.2856520251544
 30
0.0
 10
34.67884592362502
 20
-154.2856520251544
 30
0.0
 10
34.67199000809846
 20
-154.2856520251544
 30
0.0
 10
34.60715144114505
 20
-154.2856520251544
 30
0.0
 10
34.55556485725087
 20
-154.3299367803177
 30
0.0
 10
34.55556485725087
 20
-154.3847283653734
 30
0.0
 10
34.55556485725087
 20
-154.395235195264
 30
0.0
 10
34.55875592362423
 20
-154.4052821771629
 30
0.0
 10
34.56240683798954
 20
-154.4157890070535
 30
0.0
  0
SPLINE
  5
2C0
330
E7
100
AcDbEntity
  8
Слой 1
 62
   250
420
  3947579
370
    25
100
AcDbSpline
210
0.0
220
0.0
230
1.0
 70
     8
 71
     3
 72
     8
 73
     4
 74
     0
 42
0.0000000001
 43
0.0000000001
 40
0.0
 40
0.0
 40
0.0
 40
0.0
 40
1.0
 40
1.0
 40
1.0
 40
1.0
 10
50.19918945591721
 20
-153.5801755305999
 30
0.0
 10
50.18914247401859
 20
-153.5491288237083
 30
0.0
 10
50.16495168265261
 20
-153.5217330311805
 30
0.0
 10
50.13389104097185
 20
-153.5116860492815
 30
0.0
  0
SPLINE
  5
2C1
330
E7
100
AcDbEntity
  8
Слой 1
 62
   250
420
  3947579
370
    25
100
AcDbSpline
210
0.0
220
0.0
230
1.0
 70
     8
 71
     3
 72
     8
 73
     4
 74
     0
 42
0.0000000001
 43
0.0000000001
 40
0.0
 40
0.0
 40
0.0
 40
0.0
 40
1.0
 40
1.0
 40
1.0
 40
1.0
 10
54.27448777923423
 20
-157.7376612314999
 30
0.0
 10
54.3260743631284
 20
-157.7340103171343
 30
0.0
 10
54.36672213871552
 20
-157.7034095234458
 30
0.0
 10
54.37721503381788
 20
-157.6623158346559
 30
0.0
  0
LWPOLYLINE
  5
2C2
330
E7
100
AcDbEntity
  8
Слой 1
 62
   250
420
  3947579
370
    25
100
AcDbPolyline
 90
        8
 70
     0
 43
0.0
 10
190.2109985122189
 20
-205.2309365377387
 10
190.2109985122189
 20
-205.2309365377387
 10
190.2457031008704
 20
-205.2309365377387
 10
190.2762969271646
 20
-205.2309365377387
 10
190.2762969271646
 20
-205.2651812783985
 10
190.3105416678238
 20
-205.2651812783985
 10
190.3447864084843
 20
-205.296227985292
 10
190.3447864084843
 20
-205.3304796933455
  0
LWPOLYLINE
  5
2C3
330
E7
100
AcDbEntity
  8
Слой 1
 62
   250
420
  3947579
370
    25
100
AcDbPolyline
 90
        7
 70
     0
 43
0.0
 10
190.3105416678238
 20
-204.9021730926214
 10
190.3105416678238
 20
-204.8715792663266
 10
190.2762969271646
 20
-204.8715792663266
 10
190.2762969271646
 20
-204.837334525668
 10
190.2457031008704
 20
-204.837334525668
 10
190.2109985122189
 20
-204.837334525668
 10
190.180404685924
 20
-204.837334525668
  0
LWPOLYLINE
  5
2C4
330
E7
100
AcDbEntity
  8
Слой 1
 62
   250
420
  3947579
370
    25
100
AcDbPolyline
 90
        7
 70
     0
 43
0.0
 10
190.3447864084843
 20
-216.6385459396842
 10
190.3447864084843
 20
-216.6385459396842
 10
190.3447864084843
 20
-216.6691467333707
 10
190.3105416678238
 20
-216.703384506637
 10
190.2762969271646
 20
-216.7376362146904
 10
190.2457031008704
 20
-216.7376362146904
 10
190.2109985122189
 20
-216.7376362146904
  0
LWPOLYLINE
  5
2C5
330
E7
100
AcDbEntity
  8
Слой 1
 62
   250
420
  3947579
370
    25
100
AcDbPolyline
 90
        7
 70
     0
 43
0.0
 10
190.180404685924
 20
-217.131698074756
 10
190.180404685924
 20
-217.131698074756
 10
190.2109985122189
 20
-217.131698074756
 10
190.2457031008704
 20
-217.131698074756
 10
190.2762969271646
 20
-217.131698074756
 10
190.3105416678238
 20
-217.0974463667012
 10
190.3105416678238
 20
-217.0663996598083
  0
LWPOLYLINE
  5
2C6
330
E7
100
AcDbEntity
  8
Слой 1
 62
   250
420
  3947579
370
    25
100
AcDbPolyline
 90
       17
 70
     0
 43
0.0
 10
123.478986547079
 20
-235.8026831608027
 10
123.478986547079
 20
-235.8026831608027
 10
123.5136841683369
 20
-235.8026831608027
 10
123.5479358763903
 20
-235.8026831608027
 10
123.5785227352903
 20
-235.8026831608027
 10
123.6438211502373
 20
-235.8026831608027
 10
123.7429114252435
 20
-235.8026831608027
 10
123.7771491985091
 20
-235.8026831608027
 10
123.9072861804088
 20
-235.8026831608027
 10
123.9725845953545
 20
-235.8026831608027
 10
124.1365134373148
 20
-235.8026831608027
 10
124.2360496255267
 20
-235.8026831608027
 10
124.3698375217914
 20
-235.8026831608027
 10
124.4999745036905
 20
-235.8026831608027
 10
124.6301114855909
 20
-235.8026831608027
 10
124.7940403275506
 20
-235.8026831608027
 10
124.927828223816
 20
-235.8026831608027
  0
LWPOLYLINE
  5
2C7
330
E7
100
AcDbEntity
  8
Слой 1
 62
   250
420
  3947579
370
    25
100
AcDbPolyline
 90
       16
 70
     0
 43
0.0
 10
164.2423860340136
 20
-235.8026831608027
 10
164.3761739302796
 20
-235.8026831608027
 10
164.5058510641858
 20
-235.8026831608027
 10
164.6364478940778
 20
-235.8026831608027
 10
164.8008226492432
 20
-235.8026831608027
 10
164.8999129242507
 20
-235.8026831608027
 10
165.0332409725225
 20
-235.8026831608027
 10
165.0985393874682
 20
-235.8026831608027
 10
165.2629211100278
 20
-235.8026831608027
 10
165.29396781692
 20
-235.8026831608027
 10
165.4273028325867
 20
-235.8026831608027
 10
165.5231881064324
 20
-235.8026831608027
 10
165.5574398144858
 20
-235.8026831608027
 10
165.6227312620385
 20
-235.8026831608027
 10
165.6569760026977
 20
-235.8026831608027
 10
165.6875698289919
 20
-235.8026831608027
  0
LWPOLYLINE
  5
2C8
330
E7
100
AcDbEntity
  8
Слой 1
 62
   250
420
  3947579
370
    25
100
AcDbPolyline
 90
       16
 70
     0
 43
0.0
 10
164.2423807871409
 20
-186.2005825001034
 10
164.39282197059
 20
-186.2005825001034
 10
164.574603738817
 20
-186.2005825001034
 10
164.7250449222668
 20
-186.2005825001034
 10
164.9038998688423
 20
-186.2005825001034
 10
165.0259272891645
 20
-186.2005825001034
 10
165.20478223574
 20
-186.2005825001034
 10
165.2954690712856
 20
-186.2005825001034
 10
165.477250839512
 20
-186.2005825001034
 10
165.5370051874161
 20
-186.2005825001034
 10
165.6874463708652
 20
-186.2005825001034
 10
165.7781332064109
 20
-186.2005825001034
 10
165.8658868437867
 20
-186.2005825001034
 10
165.9285743898594
 20
-186.2005825001034
 10
165.9883287377642
 20
-186.2005825001034
 10
166.0163280272365
 20
-186.2005825001034
  0
LWPOLYLINE
  5
2C9
330
E7
100
AcDbEntity
  8
Слой 1
 62
   250
420
  3947579
370
    25
100
AcDbPolyline
 90
        3
 70
     0
 43
0.0
 10
174.8280937905561
 20
-186.5599444842983
 10
174.8280937905561
 20
-186.5599444842983
 10
174.7933892019053
 20
-186.5599444842983
  0
LWPOLYLINE
  5
2CA
330
E7
100
AcDbEntity
  8
Слой 1
 62
   250
420
  3947579
370
    25
100
AcDbPolyline
 90
       16
 70
     0
 43
0.0
 10
124.927828223816
 20
-186.2005872128856
 10
124.7940403275506
 20
-186.2005872128856
 10
124.6301114855909
 20
-186.2005872128856
 10
124.5337663637524
 20
-186.2005872128856
 10
124.3698375217914
 20
-186.2005872128856
 10
124.2703013335795
 20
-186.2005872128856
 10
124.1365134373148
 20
-186.2005872128856
 10
124.0410740766735
 20
-186.2005872128856
 10
123.9072861804088
 20
-186.1663424722264
 10
123.8766993215089
 20
-186.1663424722264
 10
123.7429114252435
 20
-186.1663424722264
 10
123.6438211502373
 20
-186.1663424722264
 10
123.5785227352903
 20
-186.1663424722264
 10
123.5479358763903
 20
-186.1663424722264
 10
123.5136841683369
 20
-186.1663424722264
 10
123.478986547079
 20
-186.1663424722264
  0
LINE
  5
2CB
330
E7
100
AcDbEntity
  8
Слой 1
 62
   250
420
  3947579
370
    25
100
AcDbLine
 10
68.94232887243749
 20
-112.7724843211082
 30
0.0
 11
68.94232887243749
 21
-112.7724843211082
 31
0.0
  0
LWPOLYLINE
  5
2CC
330
E7
100
AcDbEntity
  8
Слой 1
 62
   250
420
  3947579
370
    25
100
AcDbPolyline
 90
       17
 70
     0
 43
0.0
 10
51.02794701684487
 20
-123.9125248979162
 10
51.02794701684487
 20
-123.9125248979162
 10
50.95945753552551
 20
-123.8819241042277
 10
50.86357226167987
 20
-123.8819241042277
 10
50.73023027861952
 20
-123.8476863309628
 10
50.53480881656038
 20
-123.8476863309628
 10
50.33618235334287
 20
-123.8476863309628
 10
50.07225747517839
 20
-123.8166396240696
 10
49.80879244500652
 20
-123.8166396240696
 10
49.51426677315452
 20
-123.8166396240696
 10
49.18550332803502
 20
-123.7823879160165
 10
48.89099159097092
 20
-123.7823879160165
 10
48.46313787084614
 20
-123.7823879160165
 10
48.09967680446976
 20
-123.7823879160165
 10
47.67182308434466
 20
-123.7823879160165
 10
47.27822107227368
 20
-123.7823879160165
 10
46.84992143894421
 20
-123.7823879160165
  0
LWPOLYLINE
  5
2CD
330
E7
100
AcDbEntity
  8
Слой 1
 62
   250
420
  3947579
370
    25
100
AcDbPolyline
 90
       17
 70
     0
 43
0.0
 10
29.00083799829665
 20
-123.7823879160165
 10
28.60677613823274
 20
-123.7823879160165
 10
28.17892241810765
 20
-123.7823879160165
 10
27.81911226609722
 20
-123.7823879160165
 10
27.3912724807597
 20
-123.7823879160165
 10
27.09674680890706
 20
-123.7823879160165
 10
26.66844717557758
 20
-123.7823879160165
 10
26.33968373046001
 20
-123.8166396240696
 10
26.04196699223466
 20
-123.8166396240696
 10
25.78169302843484
 20
-123.8166396240696
 10
25.51822799826393
 20
-123.8476863309628
 10
25.31914168705254
 20
-123.8476863309628
 10
25.15476693188722
 20
-123.8476863309628
 10
24.99083808992661
 20
-123.8819241042277
 10
24.89130190171566
 20
-123.8819241042277
 10
24.86070110802718
 20
-123.9125248979162
 10
24.82600348676901
 20
-123.9125248979162
  0
LWPOLYLINE
  5
2CE
330
E7
100
AcDbEntity
  8
Слой 1
 62
   250
420
  3947579
370
    25
100
AcDbPolyline
 90
       17
 70
     0
 43
0.0
 10
46.84992143894421
 20
-124.7344265433173
 10
47.2471743653805
 20
-124.7344265433173
 10
47.67182308434466
 20
-124.7344265433173
 10
48.03483823751666
 20
-124.7344265433173
 10
48.46313787084614
 20
-124.7344265433173
 10
48.75720369470554
 20
-124.7686782513708
 10
49.18550332803502
 20
-124.7686782513708
 10
49.51426677315452
 20
-124.7686782513708
 10
49.80879244500652
 20
-124.7686782513708
 10
50.07225747517839
 20
-124.8029299594236
 10
50.33618235334287
 20
-124.8029299594236
 10
50.53480881656038
 20
-124.8029299594236
 10
50.73023027861952
 20
-124.8339766663165
 10
50.86357226167987
 20
-124.8339766663165
 10
50.95945753552551
 20
-124.8682144395817
 10
51.02794701684487
 20
-124.8682144395817
 10
51.02794701684487
 20
-124.8988152332699
  0
LWPOLYLINE
  5
2CF
330
E7
100
AcDbEntity
  8
Слой 1
 62
   250
420
  3947579
370
    25
100
AcDbPolyline
 90
       18
 70
     0
 43
0.0
 10
24.82600348676901
 20
-124.8988152332699
 10
24.82600348676901
 20
-124.8682144395817
 10
24.86070110802718
 20
-124.8682144395817
 10
24.89130190171566
 20
-124.8682144395817
 10
24.99083808992661
 20
-124.8339766663165
 10
25.15476693188722
 20
-124.8339766663165
 10
25.31914168705254
 20
-124.8029299594236
 10
25.51822799826393
 20
-124.8029299594236
 10
25.78169302843484
 20
-124.8029299594236
 10
26.04196699223466
 20
-124.7686782513708
 10
26.33968373046001
 20
-124.7686782513708
 10
26.66844717557758
 20
-124.7686782513708
 10
26.99721062069547
 20
-124.7686782513708
 10
27.3912724807597
 20
-124.7344265433173
 10
27.75062278477785
 20
-124.7344265433173
 10
28.17892241810765
 20
-124.7344265433173
 10
28.57252443018088
 20
-124.7344265433173
 10
29.00083799829665
 20
-124.7344265433173
  0
ENDBLK
  5
EA
330
E7
100
AcDbEntity
  8
0
100
AcDbBlockEnd
  0
BLOCK
  5
2D3
330
2D1
100
AcDbEntity
  8
0
100
AcDbBlockBegin
  2
Block_3
 70
     0
 10
0.0
 20
0.0
 30
0.0
  3
Block_3
  1

  0
INSERT
  5
2D6
330
2D1
100
AcDbEntity
  8
Слой 2
100
AcDbBlockReference
  2
Block_4
 10
0.0
 20
0.0
 30
0.0
  0
ENDBLK
  5
2D4
330
2D1
100
AcDbEntity
  8
0
100
AcDbBlockEnd
  0
BLOCK
  5
2D7
330
2D5
100
AcDbEntity
  8
0
100
AcDbBlockBegin
  2
Block_4
 70
     0
 10
0.0
 20
0.0
 30
0.0
  3
Block_4
  1

  0
INSERT
  5
2DA
330
2D5
100
AcDbEntity
  8
Слой 2
100
AcDbBlockReference
  2
Block_5
 10
0.0
 20
0.0
 30
0.0
  0
ENDBLK
  5
2D8
330
2D5
100
AcDbEntity
  8
0
100
AcDbBlockEnd
  0
BLOCK
  5
2DB
330
2D9
100
AcDbEntity
  8
0
100
AcDbBlockBegin
  2
Block_5
 70
     0
 10
0.0
 20
0.0
 30
0.0
  3
Block_5
  1

  0
SPLINE
  5
2DD
330
2D9
100
AcDbEntity
  8
Слой 2
100
AcDbSpline
210
0.0
220
0.0
230
1.0
 70
     9
 71
     3
 72
    26
 73
    22
 74
     0
 42
0.0000000001
 43
0.0000000001
 40
0.0
 40
0.0
 40
0.0
 40
0.0
 40
1.0
 40
1.0
 40
1.0
 40
2.0
 40
2.0
 40
2.0
 40
3.0
 40
3.0
 40
3.0
 40
4.0
 40
4.0
 40
4.0
 40
5.0
 40
5.0
 40
5.0
 40
6.0
 40
6.0
 40
6.0
 40
7.0
 40
7.0
 40
7.0
 40
7.0
 10
180.2682137402014
 20
-71.66176649527891
 30
0.0
 10
180.091531519365
 20
-71.46628581436755
 30
0.0
 10
179.7654326127627
 20
-71.35376693246856
 30
0.0
 10
179.3750926876373
 20
-71.35376693246856
 30
0.0
 10
179.1923902988023
 20
-71.35376693246856
 30
0.0
 10
179.0029297858902
 20
-71.38021683187223
 30
0.0
 10
178.8270243609253
 20
-71.43004828699033
 30
0.0
 10
178.5718857571296
 20
-71.50174654587428
 30
0.0
 10
177.9664510553526
 20
-71.73579514177564
 30
0.0
 10
177.8509026695561
 20
-72.35179426739698
 30
0.0
 10
177.7852634184661
 20
-72.70282832145531
 30
0.0
 10
177.9943768669108
 20
-72.97459035688844
 30
0.0
 10
178.4254208956721
 20
-73.09841161870956
 30
0.0
 10
178.5681182971566
 20
-73.13915456213847
 30
0.0
 10
178.7349352104307
 20
-73.1618370015682
 30
0.0
 10
178.910840635395
 20
-73.1618370015682
 30
0.0
 10
179.4747555978735
 20
-73.1618370015682
 30
0.0
 10
180.1285070028196
 20
-72.93233266151192
 30
0.0
 10
180.3527679707487
 20
-72.36313548711216
 30
0.0
 10
180.4901054807223
 20
-72.01283938913127
 30
0.0
 10
180.382946490332
 20
-71.78861726099684
 30
0.0
 10
180.2682137402014
 20
-71.66176649527891
 30
0.0
  0
HATCH
  5
2DE
330
2D9
100
AcDbEntity
  8
Слой 2
 62
   254
420
 13421772
440
 33554687
100
AcDbHatch
 10
0.0
 20
0.0
 30
0.0
210
0.0
220
0.0
230
1.0
  2
SOLID
 70
     1
 71
     1
 91
        1
 92
        1
 93
        2
 72
     4
 94
        3
 73
     0
 74
     0
 95
       26
 96
       22
 40
0.0
 40
0.0
 40
0.0
 40
0.0
 40
1.0
 40
1.0
 40
1.0
 40
2.0
 40
2.0
 40
2.0
 40
3.0
 40
3.0
 40
3.0
 40
4.0
 40
4.0
 40
4.0
 40
5.0
 40
5.0
 40
5.0
 40
6.0
 40
6.0
 40
6.0
 40
7.0
 40
7.0
 40
7.0
 40
7.0
 10
180.2682137402014
 20
-71.66176649527891
 10
180.091531519365
 20
-71.46628581436755
 10
179.7654326127627
 20
-71.35376693246856
 10
179.3750926876373
 20
-71.35376693246856
 10
179.1923902988023
 20
-71.35376693246856
 10
179.0029297858902
 20
-71.38021683187223
 10
178.8270243609253
 20
-71.43004828699033
 10
178.5718857571296
 20
-71.50174654587428
 10
177.9664510553526
 20
-71.73579514177564
 10
177.8509026695561
 20
-72.35179426739698
 10
177.7852634184661
 20
-72.70282832145531
 10
177.9943768669108
 20
-72.97459035688844
 10
178.4254208956721
 20
-73.09841161870956
 10
178.5681182971566
 20
-73.13915456213847
 10
178.7349352104307
 20
-73.1618370015682
 10
178.910840635395
 20
-73.1618370015682
 10
179.4747555978735
 20
-73.1618370015682
 10
180.1285070028196
 20
-72.93233266151192
 10
180.3527679707487
 20
-72.36313548711216
 10
180.4901054807223
 20
-72.01283938913127
 10
180.382946490332
 20
-71.78861726099684
 10
180.2682137402014
 20
-71.66176649527891
 97
        0
 72
     1
 10
180.2682137402014
 20
-71.66176649527891
 11
180.2682137402014
 21
-71.66176649527891
 97
        0
 75
     2
 76
     1
 98
        1
 10
0.0
 20
0.0
450
        0
451
        0
460
0.0
461
0.0
452
        0
462
0.0
453
        0
470

  0
SPLINE
  5
2DF
330
2D9
100
AcDbEntity
  8
Слой 2
100
AcDbSpline
210
0.0
220
0.0
230
1.0
 70
     9
 71
     3
 72
    98
 73
    94
 74
     0
 42
0.0000000001
 43
0.0000000001
 40
0.0
 40
0.0
 40
0.0
 40
0.0
 40
1.0
 40
1.0
 40
1.0
 40
2.0
 40
2.0
 40
2.0
 40
3.0
 40
3.0
 40
3.0
 40
4.0
 40
4.0
 40
4.0
 40
5.0
 40
5.0
 40
5.0
 40
6.0
 40
6.0
 40
6.0
 40
7.0
 40
7.0
 40
7.0
 40
8.0
 40
8.0
 40
8.0
 40
9.0
 40
9.0
 40
9.0
 40
10.0
 40
10.0
 40
10.0
 40
11.0
 40
11.0
 40
11.0
 40
12.0
 40
12.0
 40
12.0
 40
13.0
 40
13.0
 40
13.0
 40
14.0
 40
14.0
 40
14.0
 40
15.0
 40
15.0
 40
15.0
 40
16.0
 40
16.0
 40
16.0
 40
17.0
 40
17.0
 40
17.0
 40
18.0
 40
18.0
 40
18.0
 40
19.0
 40
19.0
 40
19.0
 40
20.0
 40
20.0
 40
20.0
 40
21.0
 40
21.0
 40
21.0
 40
22.0
 40
22.0
 40
22.0
 40
23.0
 40
23.0
 40
23.0
 40
24.0
 40
24.0
 40
24.0
 40
25.0
 40
25.0
 40
25.0
 40
26.0
 40
26.0
 40
26.0
 40
27.0
 40
27.0
 40
27.0
 40
28.0
 40
28.0
 40
28.0
 40
29.0
 40
29.0
 40
29.0
 40
30.0
 40
30.0
 40
30.0
 40
31.0
 40
31.0
 40
31.0
 40
31.0
 10
173.0090563266681
 20
-73.19706469431401
 30
0.0
 10
172.9071407084062
 20
-73.13290135537761
 30
0.0
 10
172.7274678234677
 20
-73.07402022836339
 30
0.0
 10
172.4904285634629
 20
-73.02648032106532
 30
0.0
 10
172.4904285634629
 20
-73.02648032106532
 30
0.0
 10
172.4783493876699
 20
-73.02418877324561
 30
0.0
 10
172.4783493876699
 20
-73.02418877324561
 30
0.0
 10
172.4383055605257
 20
-73.01587705742694
 30
0.0
 10
172.3952710692781
 20
-73.00834213747906
 30
0.0
 10
172.3499838700047
 20
-73.00080721753214
 30
0.0
 10
172.3499838700047
 20
-73.00080721753214
 30
0.0
 10
172.3145231384986
 20
-72.99548616581595
 30
0.0
 10
172.3145231384986
 20
-72.99548616581595
 30
0.0
 10
172.279800363069
 20
-72.99020395389375
 30
0.0
 10
172.2443396315629
 20
-72.98418378589413
 30
0.0
 10
172.2065485124444
 20
-72.97890157397226
 30
0.0
 10
172.2065485124444
 20
-72.97890157397226
 30
0.0
 10
171.3897476541958
 20
-72.9124855270105
 30
0.0
 10
171.3897476541958
 20
-72.9124855270105
 30
0.0
 10
171.341430951026
 20
-72.91019397919176
 30
0.0
 10
171.2900847439596
 20
-72.90945602311431
 30
0.0
 10
171.2387385368926
 20
-72.90794127116575
 30
0.0
 10
171.2387385368926
 20
-72.90794127116575
 30
0.0
 10
171.1624960221652
 20
-72.90642651921782
 30
0.0
 10
171.1624960221652
 20
-72.90642651921782
 30
0.0
 10
171.004728780785
 20
-72.90339701532101
 30
0.0
 10
170.8325908157943
 20
-72.90339701532101
 30
0.0
 10
170.6642591505716
 20
-72.90642651921782
 30
0.0
 10
170.6642591505716
 20
-72.90642651921782
 30
0.0
 10
170.5962895118679
 20
-72.90794127116575
 30
0.0
 10
170.5962895118679
 20
-72.90794127116575
 30
0.0
 10
170.5261448447266
 20
-72.90945602311431
 30
0.0
 10
170.4559224979965
 20
-72.91170873114001
 30
0.0
 10
170.3728830193977
 20
-72.9147382350365
 30
0.0
 10
170.3728830193977
 20
-72.9147382350365
 30
0.0
 10
170.3434424558909
 20
-72.9154761911133
 30
0.0
 10
170.3434424558909
 20
-72.9154761911133
 30
0.0
 10
170.2596261814213
 20
-72.91928249088126
 30
0.0
 10
170.1765867028225
 20
-72.92378790693295
 30
0.0
 10
170.0942851803008
 20
-72.92833216277802
 30
0.0
 10
170.0942851803008
 20
-72.92833216277802
 30
0.0
 10
170.0512506890525
 20
-72.93132282688017
 30
0.0
 10
170.0512506890525
 20
-72.93132282688017
 30
0.0
 10
169.9795524301695
 20
-72.93586708272461
 30
0.0
 10
169.9093300834401
 20
-72.94037249877533
 30
0.0
 10
169.826329444635
 20
-72.94716946264641
 30
0.0
 10
169.826329444635
 20
-72.94716946264641
 30
0.0
 10
169.7968888811282
 20
-72.9494610104658
 30
0.0
 10
169.7968888811282
 20
-72.9494610104658
 30
0.0
 10
169.6315090402133
 20
-72.96305493820603
 30
0.0
 10
169.4722270468858
 20
-72.97963953004938
 30
0.0
 10
169.3212567693776
 20
-72.99855450950613
 30
0.0
 10
169.3212567693776
 20
-72.99855450950613
 30
0.0
 10
169.2948068699729
 20
-73.00154517360862
 30
0.0
 10
169.2948068699729
 20
-73.00154517360862
 30
0.0
 10
169.1385543805426
 20
-73.02193606522057
 30
0.0
 10
168.991351563008
 20
-73.04384170877948
 30
0.0
 10
168.8524216214977
 20
-73.06873801644184
 30
0.0
 10
168.6101001495708
 20
-73.11251046376662
 30
0.0
 10
168.4070457089185
 20
-73.16234191888407
 30
0.0
 10
168.2485016716694
 20
-73.21594083397674
 30
0.0
 10
168.0884817222641
 20
-73.27031654493928
 30
0.0
 10
167.9616309565461
 20
-73.39184625894164
 30
0.0
 10
167.9020118734542
 20
-73.55039029619108
 30
0.0
 10
167.9020118734542
 20
-73.55039029619108
 30
0.0
 10
166.5590094922607
 20
-77.1060568758421
 30
0.0
 10
166.5590094922607
 20
-77.1060568758421
 30
0.0
 10
166.5590094922607
 20
-77.1060568758421
 30
0.0
 10
168.84566349742
 20
-77.1060568758421
 30
0.0
 10
168.84566349742
 20
-77.1060568758421
 30
0.0
 10
168.84566349742
 20
-77.1060568758421
 30
0.0
 10
169.5462168535895
 20
-75.23992131539213
 30
0.0
 10
169.5462168535895
 20
-75.23992131539213
 30
0.0
 10
169.6715528673588
 20
-74.90923931315172
 30
0.0
 10
169.9621910424544
 20
-74.31359223934797
 30
0.0
 10
170.5027244492185
 20
-74.03957749588883
 30
0.0
 10
170.9903968969676
 20
-73.83046404744323
 30
0.0
 10
171.3255454754657
 20
-73.74893932079266
 30
0.0
 10
171.6992619689544
 20
-73.74893932079266
 30
0.0
 10
171.894004693788
 20
-73.74893932079266
 30
0.0
 10
172.1023801861568
 20
-73.77158292042932
 30
0.0
 10
172.3560428777984
 20
-73.81989962359885
 30
0.0
 10
172.400592120994
 20
-73.82821133941753
 30
0.0
 10
172.5402600185813
 20
-73.87198378674263
 30
0.0
 10
172.6701014484021
 20
-73.94896425754845
 30
0.0
 10
172.6701014484021
 20
-73.94896425754845
 30
0.0
 10
172.7984281262742
 20
-74.01615710038135
 30
0.0
 10
172.7984281262742
 20
-74.01615710038135
 30
0.0
 10
172.7984281262742
 20
-74.01615710038135
 30
0.0
 10
173.0950864693703
 20
-73.25066360940539
 30
0.0
 10
173.0950864693703
 20
-73.25066360940539
 30
0.0
 10
173.0950864693703
 20
-73.25066360940539
 30
0.0
 10
173.0090563266681
 20
-73.19706469431401
 30
0.0
 10
173.0090563266681
 20
-73.19706469431401
 30
0.0
  0
HATCH
  5
2E0
330
2D9
100
AcDbEntity
  8
Слой 2
 62
   254
420
 13421772
440
 33554687
100
AcDbHatch
 10
0.0
 20
0.0
 30
0.0
210
0.0
220
0.0
230
1.0
  2
SOLID
 70
     1
 71
     1
 91
        1
 92
        1
 93
        1
 72
     4
 94
        3
 73
     0
 74
     0
 95
       98
 96
       94
 40
0.0
 40
0.0
 40
0.0
 40
0.0
 40
1.0
 40
1.0
 40
1.0
 40
2.0
 40
2.0
 40
2.0
 40
3.0
 40
3.0
 40
3.0
 40
4.0
 40
4.0
 40
4.0
 40
5.0
 40
5.0
 40
5.0
 40
6.0
 40
6.0
 40
6.0
 40
7.0
 40
7.0
 40
7.0
 40
8.0
 40
8.0
 40
8.0
 40
9.0
 40
9.0
 40
9.0
 40
10.0
 40
10.0
 40
10.0
 40
11.0
 40
11.0
 40
11.0
 40
12.0
 40
12.0
 40
12.0
 40
13.0
 40
13.0
 40
13.0
 40
14.0
 40
14.0
 40
14.0
 40
15.0
 40
15.0
 40
15.0
 40
16.0
 40
16.0
 40
16.0
 40
17.0
 40
17.0
 40
17.0
 40
18.0
 40
18.0
 40
18.0
 40
19.0
 40
19.0
 40
19.0
 40
20.0
 40
20.0
 40
20.0
 40
21.0
 40
21.0
 40
21.0
 40
22.0
 40
22.0
 40
22.0
 40
23.0
 40
23.0
 40
23.0
 40
24.0
 40
24.0
 40
24.0
 40
25.0
 40
25.0
 40
25.0
 40
26.0
 40
26.0
 40
26.0
 40
27.0
 40
27.0
 40
27.0
 40
28.0
 40
28.0
 40
28.0
 40
29.0
 40
29.0
 40
29.0
 40
30.0
 40
30.0
 40
30.0
 40
31.0
 40
31.0
 40
31.0
 40
31.0
 10
173.0090563266681
 20
-73.19706469431401
 10
172.9071407084062
 20
-73.13290135537761
 10
172.7274678234677
 20
-73.07402022836339
 10
172.4904285634629
 20
-73.02648032106532
 10
172.4904285634629
 20
-73.02648032106532
 10
172.4783493876699
 20
-73.02418877324561
 10
172.4783493876699
 20
-73.02418877324561
 10
172.4383055605257
 20
-73.01587705742694
 10
172.3952710692781
 20
-73.00834213747906
 10
172.3499838700047
 20
-73.00080721753214
 10
172.3499838700047
 20
-73.00080721753214
 10
172.3145231384986
 20
-72.99548616581595
 10
172.3145231384986
 20
-72.99548616581595
 10
172.279800363069
 20
-72.99020395389375
 10
172.2443396315629
 20
-72.98418378589413
 10
172.2065485124444
 20
-72.97890157397226
 10
172.2065485124444
 20
-72.97890157397226
 10
171.3897476541958
 20
-72.9124855270105
 10
171.3897476541958
 20
-72.9124855270105
 10
171.341430951026
 20
-72.91019397919176
 10
171.2900847439596
 20
-72.90945602311431
 10
171.2387385368926
 20
-72.90794127116575
 10
171.2387385368926
 20
-72.90794127116575
 10
171.1624960221652
 20
-72.90642651921782
 10
171.1624960221652
 20
-72.90642651921782
 10
171.004728780785
 20
-72.90339701532101
 10
170.8325908157943
 20
-72.90339701532101
 10
170.6642591505716
 20
-72.90642651921782
 10
170.6642591505716
 20
-72.90642651921782
 10
170.5962895118679
 20
-72.90794127116575
 10
170.5962895118679
 20
-72.90794127116575
 10
170.5261448447266
 20
-72.90945602311431
 10
170.4559224979965
 20
-72.91170873114001
 10
170.3728830193977
 20
-72.9147382350365
 10
170.3728830193977
 20
-72.9147382350365
 10
170.3434424558909
 20
-72.9154761911133
 10
170.3434424558909
 20
-72.9154761911133
 10
170.2596261814213
 20
-72.91928249088126
 10
170.1765867028225
 20
-72.92378790693295
 10
170.0942851803008
 20
-72.92833216277802
 10
170.0942851803008
 20
-72.92833216277802
 10
170.0512506890525
 20
-72.93132282688017
 10
170.0512506890525
 20
-72.93132282688017
 10
169.9795524301695
 20
-72.93586708272461
 10
169.9093300834401
 20
-72.94037249877533
 10
169.826329444635
 20
-72.94716946264641
 10
169.826329444635
 20
-72.94716946264641
 10
169.7968888811282
 20
-72.9494610104658
 10
169.7968888811282
 20
-72.9494610104658
 10
169.6315090402133
 20
-72.96305493820603
 10
169.4722270468858
 20
-72.97963953004938
 10
169.3212567693776
 20
-72.99855450950613
 10
169.3212567693776
 20
-72.99855450950613
 10
169.2948068699729
 20
-73.00154517360862
 10
169.2948068699729
 20
-73.00154517360862
 10
169.1385543805426
 20
-73.02193606522057
 10
168.991351563008
 20
-73.04384170877948
 10
168.8524216214977
 20
-73.06873801644184
 10
168.6101001495708
 20
-73.11251046376662
 10
168.4070457089185
 20
-73.16234191888407
 10
168.2485016716694
 20
-73.21594083397674
 10
168.0884817222641
 20
-73.27031654493928
 10
167.9616309565461
 20
-73.39184625894164
 10
167.9020118734542
 20
-73.55039029619108
 10
167.9020118734542
 20
-73.55039029619108
 10
166.5590094922607
 20
-77.1060568758421
 10
166.5590094922607
 20
-77.1060568758421
 10
166.5590094922607
 20
-77.1060568758421
 10
168.84566349742
 20
-77.1060568758421
 10
168.84566349742
 20
-77.1060568758421
 10
168.84566349742
 20
-77.1060568758421
 10
169.5462168535895
 20
-75.23992131539213
 10
169.5462168535895
 20
-75.23992131539213
 10
169.6715528673588
 20
-74.90923931315172
 10
169.9621910424544
 20
-74.31359223934797
 10
170.5027244492185
 20
-74.03957749588883
 10
170.9903968969676
 20
-73.83046404744323
 10
171.3255454754657
 20
-73.74893932079266
 10
171.6992619689544
 20
-73.74893932079266
 10
171.894004693788
 20
-73.74893932079266
 10
172.1023801861568
 20
-73.77158292042932
 10
172.3560428777984
 20
-73.81989962359885
 10
172.400592120994
 20
-73.82821133941753
 10
172.5402600185813
 20
-73.87198378674263
 10
172.6701014484021
 20
-73.94896425754845
 10
172.6701014484021
 20
-73.94896425754845
 10
172.7984281262742
 20
-74.01615710038135
 10
172.7984281262742
 20
-74.01615710038135
 10
172.7984281262742
 20
-74.01615710038135
 10
173.0950864693703
 20
-73.25066360940539
 10
173.0950864693703
 20
-73.25066360940539
 10
173.0950864693703
 20
-73.25066360940539
 10
173.0090563266681
 20
-73.19706469431401
 10
173.0090563266681
 20
-73.19706469431401
 97
        0
 97
        1
330
2DF
 75
     2
 76
     1
 98
        1
 10
0.0
 20
0.0
450
        0
451
        0
460
0.0
461
0.0
452
        0
462
0.0
453
        0
470

  0
SPLINE
  5
2E1
330
2D9
100
AcDbEntity
  8
Слой 2
100
AcDbSpline
210
0.0
220
0.0
230
1.0
 70
    11
 71
     3
 72
    26
 73
    22
 74
     0
 42
0.0000000001
 43
0.0000000001
 40
0.0
 40
0.0
 40
0.0
 40
0.0
 40
1.0
 40
1.0
 40
1.0
 40
2.0
 40
2.0
 40
2.0
 40
3.0
 40
3.0
 40
3.0
 40
4.0
 40
4.0
 40
4.0
 40
5.0
 40
5.0
 40
5.0
 40
6.0
 40
6.0
 40
6.0
 40
7.0
 40
7.0
 40
7.0
 40
7.0
 10
179.6659639014944
 20
-73.66535608508394
 30
0.0
 10
179.6047912266614
 20
-73.57474284674355
 30
0.0
 10
179.5029144481933
 20
-73.52118277144587
 30
0.0
 10
179.3941630262669
 20
-73.52118277144587
 30
0.0
 10
179.3941630262669
 20
-73.52118277144587
 30
0.0
 10
177.6955823351707
 20
-73.52118277144587
 30
0.0
 10
177.6955823351707
 20
-73.52118277144587
 30
0.0
 10
177.5612354892986
 20
-73.52118277144587
 30
0.0
 10
177.4374142274766
 20
-73.60569816219923
 30
0.0
 10
177.389097524308
 20
-73.7317721320457
 30
0.0
 10
177.389097524308
 20
-73.7317721320457
 30
0.0
 10
176.0913823423866
 20
-77.10628991460335
 30
0.0
 10
176.0913823423866
 20
-77.10628991460335
 30
0.0
 10
176.0913823423866
 20
-77.10628991460335
 30
0.0
 10
178.4792140097314
 20
-77.10628991460335
 30
0.0
 10
178.4792140097314
 20
-77.10628991460335
 30
0.0
 10
178.4792140097314
 20
-77.10628991460335
 30
0.0
 10
179.6991719249748
 20
-73.97184089594637
 30
0.0
 10
179.6991719249748
 20
-73.97184089594637
 30
0.0
 10
179.7399537081974
 20
-73.86996411747851
 30
0.0
 10
179.7271365763274
 20
-73.75596932342434
 30
0.0
 10
179.6659639014944
 20
-73.66535608508394
 30
0.0
  0
HATCH
  5
2E2
330
2D9
100
AcDbEntity
  8
Слой 2
 62
   254
420
 13421772
440
 33554687
100
AcDbHatch
 10
0.0
 20
0.0
 30
0.0
210
0.0
220
0.0
230
1.0
  2
SOLID
 70
     1
 71
     1
 91
        1
 92
        1
 93
        2
 72
     4
 94
        3
 73
     0
 74
     0
 95
       26
 96
       22
 40
0.0
 40
0.0
 40
0.0
 40
0.0
 40
1.0
 40
1.0
 40
1.0
 40
2.0
 40
2.0
 40
2.0
 40
3.0
 40
3.0
 40
3.0
 40
4.0
 40
4.0
 40
4.0
 40
5.0
 40
5.0
 40
5.0
 40
6.0
 40
6.0
 40
6.0
 40
7.0
 40
7.0
 40
7.0
 40
7.0
 10
179.6659639014944
 20
-73.66535608508394
 10
179.6047912266614
 20
-73.57474284674355
 10
179.5029144481933
 20
-73.52118277144587
 10
179.3941630262669
 20
-73.52118277144587
 10
179.3941630262669
 20
-73.52118277144587
 10
177.6955823351707
 20
-73.52118277144587
 10
177.6955823351707
 20
-73.52118277144587
 10
177.5612354892986
 20
-73.52118277144587
 10
177.4374142274766
 20
-73.60569816219923
 10
177.389097524308
 20
-73.7317721320457
 10
177.389097524308
 20
-73.7317721320457
 10
176.0913823423866
 20
-77.10628991460335
 10
176.0913823423866
 20
-77.10628991460335
 10
176.0913823423866
 20
-77.10628991460335
 10
178.4792140097314
 20
-77.10628991460335
 10
178.4792140097314
 20
-77.10628991460335
 10
178.4792140097314
 20
-77.10628991460335
 10
179.6991719249748
 20
-73.97184089594637
 10
179.6991719249748
 20
-73.97184089594637
 10
179.7399537081974
 20
-73.86996411747851
 10
179.7271365763274
 20
-73.75596932342434
 10
179.6659639014944
 20
-73.66535608508394
 97
        0
 72
     1
 10
179.6659639014944
 20
-73.66535608508394
 11
179.6659639014944
 21
-73.66535608508394
 97
        0
 75
     2
 76
     1
 98
        1
 10
0.0
 20
0.0
450
        0
451
        0
460
0.0
461
0.0
452
        0
462
0.0
453
        0
470

  0
SPLINE
  5
2E3
330
2D9
100
AcDbEntity
  8
Слой 2
100
AcDbSpline
210
0.0
220
0.0
230
1.0
 70
     9
 71
     3
 72
    56
 73
    52
 74
     0
 42
0.0000000001
 43
0.0000000001
 40
0.0
 40
0.0
 40
0.0
 40
0.0
 40
1.0
 40
1.0
 40
1.0
 40
2.0
 40
2.0
 40
2.0
 40
3.0
 40
3.0
 40
3.0
 40
4.0
 40
4.0
 40
4.0
 40
5.0
 40
5.0
 40
5.0
 40
6.0
 40
6.0
 40
6.0
 40
7.0
 40
7.0
 40
7.0
 40
8.0
 40
8.0
 40
8.0
 40
9.0
 40
9.0
 40
9.0
 40
10.0
 40
10.0
 40
10.0
 40
11.0
 40
11.0
 40
11.0
 40
12.0
 40
12.0
 40
12.0
 40
13.0
 40
13.0
 40
13.0
 40
14.0
 40
14.0
 40
14.0
 40
15.0
 40
15.0
 40
15.0
 40
16.0
 40
16.0
 40
16.0
 40
17.0
 40
17.0
 40
17.0
 40
17.0
 10
192.8735910555966
 20
-73.03242280947722
 30
0.0
 10
192.0869298771395
 20
-73.03242280947722
 30
0.0
 10
191.373520549307
 20
-73.17512021096106
 30
0.0
 10
190.7484717517899
 20
-73.45822346610939
 30
0.0
 10
190.7484717517899
 20
-73.45822346610939
 30
0.0
 10
191.3923966889701
 20
-71.83060307781875
 30
0.0
 10
191.3923966889701
 20
-71.83060307781875
 30
0.0
 10
191.4233520044254
 20
-71.75284581114211
 30
0.0
 10
191.4135643764519
 20
-71.66530091649192
 30
0.0
 10
191.3659856293591
 20
-71.59659332171109
 30
0.0
 10
191.3191836781372
 20
-71.52788572693026
 30
0.0
 10
191.2414264114606
 20
-71.48636598763085
 30
0.0
 10
191.157648976784
 20
-71.48636598763085
 30
0.0
 10
191.157648976784
 20
-71.48636598763085
 30
0.0
 10
189.2967567884638
 20
-71.48407443981177
 30
0.0
 10
189.2967567884638
 20
-71.48407443981177
 30
0.0
 10
189.1918116663048
 20
-71.48407443981177
 30
0.0
 10
189.0997225158115
 20
-71.54676186659331
 30
0.0
 10
189.0619702364847
 20
-71.6441332290098
 30
0.0
 10
189.0619702364847
 20
-71.6441332290098
 30
0.0
 10
186.9285780566536
 20
-77.10601803604872
 30
0.0
 10
186.9285780566536
 20
-77.10601803604872
 30
0.0
 10
186.9285780566536
 20
-77.10601803604872
 30
0.0
 10
189.3337322719185
 20
-77.10601803604872
 30
0.0
 10
189.3337322719185
 20
-77.10601803604872
 30
0.0
 10
189.3337322719185
 20
-77.10601803604872
 30
0.0
 10
190.0886613390501
 20
-75.19754710063513
 30
0.0
 10
190.0886613390501
 20
-75.19754710063513
 30
0.0
 10
190.3279921468736
 20
-74.56189503947959
 30
0.0
 10
191.0149515753008
 20
-74.11803387884889
 30
0.0
 10
191.7585394227172
 20
-74.11803387884889
 30
0.0
 10
192.1601817277648
 20
-74.11803387884889
 30
0.0
 10
192.3639741244948
 20
-74.21315253324097
 30
0.0
 10
192.3639741244948
 20
-74.40113713399816
 30
0.0
 10
192.3639741244948
 20
-74.53396922792137
 30
0.0
 10
192.3367862690137
 20
-74.66684016163798
 30
0.0
 10
192.2832261937141
 20
-74.79066142345941
 30
0.0
 10
192.2832261937141
 20
-74.79066142345941
 30
0.0
 10
191.3750353012549
 20
-77.10601803604872
 30
0.0
 10
191.3750353012549
 20
-77.10601803604872
 30
0.0
 10
191.3750353012549
 20
-77.10601803604872
 30
0.0
 10
193.7809663123919
 20
-77.10601803604872
 30
0.0
 10
193.7809663123919
 20
-77.10601803604872
 30
0.0
 10
193.7809663123919
 20
-77.10601803604872
 30
0.0
 10
194.6838749929289
 20
-74.79066142345941
 30
0.0
 10
194.6838749929289
 20
-74.79066142345941
 30
0.0
 10
194.7676912673979
 20
-74.56418658729994
 30
0.0
 10
194.825834438335
 20
-74.28411283604749
 30
0.0
 10
194.825834438335
 20
-74.11123691497909
 30
0.0
 10
194.825834438335
 20
-73.43557986647271
 30
0.0
 10
194.0957628390727
 20
-73.03242280947722
 30
0.0
 10
192.8735910555966
 20
-73.03242280947722
 30
0.0
  0
HATCH
  5
2E4
330
2D9
100
AcDbEntity
  8
Слой 2
 62
   254
420
 13421772
440
 33554687
100
AcDbHatch
 10
0.0
 20
0.0
 30
0.0
210
0.0
220
0.0
230
1.0
  2
SOLID
 70
     1
 71
     1
 91
        1
 92
        1
 93
        2
 72
     4
 94
        3
 73
     0
 74
     0
 95
       56
 96
       52
 40
0.0
 40
0.0
 40
0.0
 40
0.0
 40
1.0
 40
1.0
 40
1.0
 40
2.0
 40
2.0
 40
2.0
 40
3.0
 40
3.0
 40
3.0
 40
4.0
 40
4.0
 40
4.0
 40
5.0
 40
5.0
 40
5.0
 40
6.0
 40
6.0
 40
6.0
 40
7.0
 40
7.0
 40
7.0
 40
8.0
 40
8.0
 40
8.0
 40
9.0
 40
9.0
 40
9.0
 40
10.0
 40
10.0
 40
10.0
 40
11.0
 40
11.0
 40
11.0
 40
12.0
 40
12.0
 40
12.0
 40
13.0
 40
13.0
 40
13.0
 40
14.0
 40
14.0
 40
14.0
 40
15.0
 40
15.0
 40
15.0
 40
16.0
 40
16.0
 40
16.0
 40
17.0
 40
17.0
 40
17.0
 40
17.0
 10
192.8735910555966
 20
-73.03242280947722
 10
192.0869298771395
 20
-73.03242280947722
 10
191.373520549307
 20
-73.17512021096106
 10
190.7484717517899
 20
-73.45822346610939
 10
190.7484717517899
 20
-73.45822346610939
 10
191.3923966889701
 20
-71.83060307781875
 10
191.3923966889701
 20
-71.83060307781875
 10
191.4233520044254
 20
-71.75284581114211
 10
191.4135643764519
 20
-71.66530091649192
 10
191.3659856293591
 20
-71.59659332171109
 10
191.3191836781372
 20
-71.52788572693026
 10
191.2414264114606
 20
-71.48636598763085
 10
191.157648976784
 20
-71.48636598763085
 10
191.157648976784
 20
-71.48636598763085
 10
189.2967567884638
 20
-71.48407443981177
 10
189.2967567884638
 20
-71.48407443981177
 10
189.1918116663048
 20
-71.48407443981177
 10
189.0997225158115
 20
-71.54676186659331
 10
189.0619702364847
 20
-71.6441332290098
 10
189.0619702364847
 20
-71.6441332290098
 10
186.9285780566536
 20
-77.10601803604872
 10
186.9285780566536
 20
-77.10601803604872
 10
186.9285780566536
 20
-77.10601803604872
 10
189.3337322719185
 20
-77.10601803604872
 10
189.3337322719185
 20
-77.10601803604872
 10
189.3337322719185
 20
-77.10601803604872
 10
190.0886613390501
 20
-75.19754710063513
 10
190.0886613390501
 20
-75.19754710063513
 10
190.3279921468736
 20
-74.56189503947959
 10
191.0149515753008
 20
-74.11803387884889
 10
191.7585394227172
 20
-74.11803387884889
 10
192.1601817277648
 20
-74.11803387884889
 10
192.3639741244948
 20
-74.21315253324097
 10
192.3639741244948
 20
-74.40113713399816
 10
192.3639741244948
 20
-74.53396922792137
 10
192.3367862690137
 20
-74.66684016163798
 10
192.2832261937141
 20
-74.79066142345941
 10
192.2832261937141
 20
-74.79066142345941
 10
191.3750353012549
 20
-77.10601803604872
 10
191.3750353012549
 20
-77.10601803604872
 10
191.3750353012549
 20
-77.10601803604872
 10
193.7809663123919
 20
-77.10601803604872
 10
193.7809663123919
 20
-77.10601803604872
 10
193.7809663123919
 20
-77.10601803604872
 10
194.6838749929289
 20
-74.79066142345941
 10
194.6838749929289
 20
-74.79066142345941
 10
194.7676912673979
 20
-74.56418658729994
 10
194.825834438335
 20
-74.28411283604749
 10
194.825834438335
 20
-74.11123691497909
 10
194.825834438335
 20
-73.43557986647271
 10
194.0957628390727
 20
-73.03242280947722
 10
192.8735910555966
 20
-73.03242280947722
 97
        0
 72
     1
 10
192.8735910555966
 20
-73.03242280947722
 11
192.8735910555966
 21
-73.03242280947722
 97
        0
 75
     2
 76
     1
 98
        1
 10
0.0
 20
0.0
450
        0
451
        0
460
0.0
461
0.0
452
        0
462
0.0
453
        0
470

  0
SPLINE
  5
2E5
330
2D9
100
AcDbEntity
  8
Слой 2
100
AcDbSpline
210
0.0
220
0.0
230
1.0
 70
     9
 71
     3
 72
    26
 73
    22
 74
     0
 42
0.0000000001
 43
0.0000000001
 40
0.0
 40
0.0
 40
0.0
 40
0.0
 40
1.0
 40
1.0
 40
1.0
 40
2.0
 40
2.0
 40
2.0
 40
3.0
 40
3.0
 40
3.0
 40
4.0
 40
4.0
 40
4.0
 40
5.0
 40
5.0
 40
5.0
 40
6.0
 40
6.0
 40
6.0
 40
7.0
 40
7.0
 40
7.0
 40
7.0
 10
176.920456575396
 20
-71.62168382834067
 30
0.0
 10
176.8736934639678
 20
-71.55301507335386
 30
0.0
 10
176.7958973574975
 20
-71.51149533405413
 30
0.0
 10
176.7121199228209
 20
-71.51149533405413
 30
0.0
 10
176.7121199228209
 20
-71.51149533405413
 30
0.0
 10
174.7991047315622
 20
-71.51149533405413
 30
0.0
 10
174.7991047315622
 20
-71.51149533405413
 30
0.0
 10
174.694936405276
 20
-71.51149533405413
 30
0.0
 10
174.6020704589099
 20
-71.57492071691279
 30
0.0
 10
174.5643570193775
 20
-71.6722920793299
 30
0.0
 10
174.5643570193775
 20
-71.6722920793299
 30
0.0
 10
172.4399756716478
 20
-77.10621223501691
 30
0.0
 10
172.4399756716478
 20
-77.10621223501691
 30
0.0
 10
172.4399756716478
 20
-77.10621223501691
 30
0.0
 10
174.9010203498248
 20
-77.10621223501691
 30
0.0
 10
174.9010203498248
 20
-77.10621223501691
 30
0.0
 10
174.9010203498248
 20
-77.10621223501691
 30
0.0
 10
176.9469064748006
 20
-71.85647038031946
 30
0.0
 10
176.9469064748006
 20
-71.85647038031946
 30
0.0
 10
176.9778617902547
 20
-71.77871311364251
 30
0.0
 10
176.9680353224881
 20
-71.69039142312183
 30
0.0
 10
176.920456575396
 20
-71.62168382834067
 30
0.0
  0
HATCH
  5
2E6
330
2D9
100
AcDbEntity
  8
Слой 2
 62
   254
420
 13421772
440
 33554687
100
AcDbHatch
 10
0.0
 20
0.0
 30
0.0
210
0.0
220
0.0
230
1.0
  2
SOLID
 70
     1
 71
     1
 91
        1
 92
        1
 93
        2
 72
     4
 94
        3
 73
     0
 74
     0
 95
       26
 96
       22
 40
0.0
 40
0.0
 40
0.0
 40
0.0
 40
1.0
 40
1.0
 40
1.0
 40
2.0
 40
2.0
 40
2.0
 40
3.0
 40
3.0
 40
3.0
 40
4.0
 40
4.0
 40
4.0
 40
5.0
 40
5.0
 40
5.0
 40
6.0
 40
6.0
 40
6.0
 40
7.0
 40
7.0
 40
7.0
 40
7.0
 10
176.920456575396
 20
-71.62168382834067
 10
176.8736934639678
 20
-71.55301507335386
 10
176.7958973574975
 20
-71.51149533405413
 10
176.7121199228209
 20
-71.51149533405413
 10
176.7121199228209
 20
-71.51149533405413
 10
174.7991047315622
 20
-71.51149533405413
 10
174.7991047315622
 20
-71.51149533405413
 10
174.694936405276
 20
-71.51149533405413
 10
174.6020704589099
 20
-71.57492071691279
 10
174.5643570193775
 20
-71.6722920793299
 10
174.5643570193775
 20
-71.6722920793299
 10
172.4399756716478
 20
-77.10621223501691
 10
172.4399756716478
 20
-77.10621223501691
 10
172.4399756716478
 20
-77.10621223501691
 10
174.9010203498248
 20
-77.10621223501691
 10
174.9010203498248
 20
-77.10621223501691
 10
174.9010203498248
 20
-77.10621223501691
 10
176.9469064748006
 20
-71.85647038031946
 10
176.9469064748006
 20
-71.85647038031946
 10
176.9778617902547
 20
-71.77871311364251
 10
176.9680353224881
 20
-71.69039142312183
 10
176.920456575396
 20
-71.62168382834067
 97
        0
 72
     1
 10
176.920456575396
 20
-71.62168382834067
 11
176.920456575396
 21
-71.62168382834067
 97
        0
 75
     2
 76
     1
 98
        1
 10
0.0
 20
0.0
450
        0
451
        0
460
0.0
461
0.0
452
        0
462
0.0
453
        0
470

  0
SPLINE
  5
2E7
330
2D9
100
AcDbEntity
  8
Слой 2
100
AcDbSpline
210
0.0
220
0.0
230
1.0
 70
     9
 71
     3
 72
     8
 73
     4
 74
     0
 42
0.0000000001
 43
0.0000000001
 40
0.0
 40
0.0
 40
0.0
 40
0.0
 40
1.0
 40
1.0
 40
1.0
 40
1.0
 10
184.9632845032836
 20
-73.73985080910315
 30
0.0
 10
181.9405775706551
 20
-79.31347770217057
 30
0.0
 10
179.287780831748
 20
-73.70512803367418
 30
0.0
 10
184.9632845032836
 20
-73.73985080910315
 30
0.0
  0
SPLINE
  5
2E8
330
2D9
100
AcDbEntity
  8
Слой 2
100
AcDbSpline
210
0.0
220
0.0
230
1.0
 70
     9
 71
     3
 72
    62
 73
    58
 74
     0
 42
0.0000000001
 43
0.0000000001
 40
0.0
 40
0.0
 40
0.0
 40
0.0
 40
1.0
 40
1.0
 40
1.0
 40
2.0
 40
2.0
 40
2.0
 40
3.0
 40
3.0
 40
3.0
 40
4.0
 40
4.0
 40
4.0
 40
5.0
 40
5.0
 40
5.0
 40
6.0
 40
6.0
 40
6.0
 40
7.0
 40
7.0
 40
7.0
 40
8.0
 40
8.0
 40
8.0
 40
9.0
 40
9.0
 40
9.0
 40
10.0
 40
10.0
 40
10.0
 40
11.0
 40
11.0
 40
11.0
 40
12.0
 40
12.0
 40
12.0
 40
13.0
 40
13.0
 40
13.0
 40
14.0
 40
14.0
 40
14.0
 40
15.0
 40
15.0
 40
15.0
 40
16.0
 40
16.0
 40
16.0
 40
17.0
 40
17.0
 40
17.0
 40
18.0
 40
18.0
 40
18.0
 40
19.0
 40
19.0
 40
19.0
 40
19.0
 10
187.4461959852258
 20
-73.13212455950679
 30
0.0
 10
187.3994328737975
 20
-73.06345580451933
 30
0.0
 10
187.3208988112501
 20
-73.02267402129736
 30
0.0
 10
187.2378204928576
 20
-73.02267402129736
 30
0.0
 10
187.2378204928576
 20
-73.02267402129736
 30
0.0
 10
183.8187923068968
 20
-73.02267402129736
 30
0.0
 10
183.8187923068968
 20
-73.02267402129736
 30
0.0
 10
183.2631890602389
 20
-73.03475319708967
 30
0.0
 10
182.8442242072699
 20
-73.06951481231234
 30
0.0
 10
182.5309035927446
 20
-73.12913389540367
 30
0.0
 10
181.5434795214526
 20
-73.35106447571902
 30
0.0
 10
180.9251888480125
 20
-73.73153909328383
 30
0.0
 10
180.4594220438223
 20
-74.41022564568735
 30
0.0
 10
179.9988986117605
 20
-75.20213019627295
 30
0.0
 10
179.9143443812131
 20
-75.93367770769074
 30
0.0
 10
180.2223439440244
 20
-76.46966685861009
 30
0.0
 10
180.4820656434583
 20
-76.92261653092966
 30
0.0
 10
181.0014313627406
 20
-77.18156143449305
 30
0.0
 10
181.6476478477402
 20
-77.18156143449305
 30
0.0
 10
182.1609933990219
 20
-77.18156143449305
 30
0.0
 10
182.7226556534747
 20
-77.01847314139853
 30
0.0
 10
183.2730155280048
 20
-76.70748291448474
 30
0.0
 10
183.4300448133073
 20
-76.61686967614468
 30
0.0
 10
183.6255643340117
 20
-76.46512260276502
 30
0.0
 10
183.8542918781972
 20
-76.25678595019053
 30
0.0
 10
183.8542918781972
 20
-76.25678595019053
 30
0.0
 10
184.2853747467522
 20
-75.86497011290958
 30
0.0
 10
184.2853747467522
 20
-75.86497011290958
 30
0.0
 10
183.6678608691829
 20
-77.35894277161282
 30
0.0
 10
182.855526587192
 20
-77.64659028260621
 30
0.0
 10
181.9903701859805
 20
-77.63602585876151
 30
0.0
 10
181.2233619430566
 20
-77.62697618686572
 30
0.0
 10
180.7024814718264
 20
-77.44881805387513
 30
0.0
 10
180.3831795290942
 20
-77.34084342782058
 30
0.0
 10
180.3831795290942
 20
-77.34084342782058
 30
0.0
 10
180.27971031909
 20
-77.30538269631449
 30
0.0
 10
180.27971031909
 20
-77.30538269631449
 30
0.0
 10
180.27971031909
 20
-77.30538269631449
 30
0.0
 10
179.8645129260959
 20
-78.34640568269718
 30
0.0
 10
179.8645129260959
 20
-78.34640568269718
 30
0.0
 10
179.8645129260959
 20
-78.34640568269718
 30
0.0
 10
179.9996754076319
 20
-78.38866337807371
 30
0.0
 10
179.9996754076319
 20
-78.38866337807371
 30
0.0
 10
180.472239175693
 20
-78.538157743428
 30
0.0
 10
181.3034107575526
 20
-78.63024689392261
 30
0.0
 10
182.1670524068149
 20
-78.63024689392261
 30
0.0
 10
183.2624122643674
 20
-78.63024689392261
 30
0.0
 10
184.1351035855268
 20
-78.47849982054296
 30
0.0
 10
184.7617059747856
 20
-78.17807401747355
 30
0.0
 10
185.5233931659935
 20
-77.8171746558549
 30
0.0
 10
185.8200903488834
 20
-77.60883800328073
 30
0.0
 10
186.0307185492759
 20
-77.04566099687963
 30
0.0
 10
186.0307185492759
 20
-77.04566099687963
 30
0.0
 10
187.4726458846291
 20
-73.36691111148526
 30
0.0
 10
187.4726458846291
 20
-73.36691111148526
 30
0.0
 10
187.5028244042136
 20
-73.28915384480831
 30
0.0
 10
187.4929979364477
 20
-73.20160895015844
 30
0.0
 10
187.4461959852258
 20
-73.13212455950679
 30
0.0
  0
HATCH
  5
2E9
330
2D9
100
AcDbEntity
  8
Слой 2
 62
   254
420
 13421772
440
 33554687
100
AcDbHatch
 10
0.0
 20
0.0
 30
0.0
210
0.0
220
0.0
230
1.0
  2
SOLID
 70
     1
 71
     1
 91
        2
 92
        1
 93
        2
 72
     4
 94
        3
 73
     0
 74
     0
 95
        8
 96
        4
 40
0.0
 40
0.0
 40
0.0
 40
0.0
 40
1.0
 40
1.0
 40
1.0
 40
1.0
 10
184.9632845032836
 20
-73.73985080910315
 10
181.9405775706551
 20
-79.31347770217057
 10
179.287780831748
 20
-73.70512803367418
 10
184.9632845032836
 20
-73.73985080910315
 97
        0
 72
     1
 10
184.9632845032836
 20
-73.73985080910316
 11
184.9632845032836
 21
-73.73985080910315
 97
        0
 92
        1
 93
        2
 72
     4
 94
        3
 73
     0
 74
     0
 95
       62
 96
       58
 40
0.0
 40
0.0
 40
0.0
 40
0.0
 40
1.0
 40
1.0
 40
1.0
 40
2.0
 40
2.0
 40
2.0
 40
3.0
 40
3.0
 40
3.0
 40
4.0
 40
4.0
 40
4.0
 40
5.0
 40
5.0
 40
5.0
 40
6.0
 40
6.0
 40
6.0
 40
7.0
 40
7.0
 40
7.0
 40
8.0
 40
8.0
 40
8.0
 40
9.0
 40
9.0
 40
9.0
 40
10.0
 40
10.0
 40
10.0
 40
11.0
 40
11.0
 40
11.0
 40
12.0
 40
12.0
 40
12.0
 40
13.0
 40
13.0
 40
13.0
 40
14.0
 40
14.0
 40
14.0
 40
15.0
 40
15.0
 40
15.0
 40
16.0
 40
16.0
 40
16.0
 40
17.0
 40
17.0
 40
17.0
 40
18.0
 40
18.0
 40
18.0
 40
19.0
 40
19.0
 40
19.0
 40
19.0
 10
187.4461959852258
 20
-73.13212455950679
 10
187.3994328737975
 20
-73.06345580451933
 10
187.3208988112501
 20
-73.02267402129736
 10
187.2378204928576
 20
-73.02267402129736
 10
187.2378204928576
 20
-73.02267402129736
 10
183.8187923068968
 20
-73.02267402129736
 10
183.8187923068968
 20
-73.02267402129736
 10
183.2631890602389
 20
-73.03475319708967
 10
182.8442242072699
 20
-73.06951481231234
 10
182.5309035927446
 20
-73.12913389540367
 10
181.5434795214526
 20
-73.35106447571902
 10
180.9251888480125
 20
-73.73153909328383
 10
180.4594220438223
 20
-74.41022564568735
 10
179.9988986117605
 20
-75.20213019627295
 10
179.9143443812131
 20
-75.93367770769074
 10
180.2223439440244
 20
-76.46966685861009
 10
180.4820656434583
 20
-76.92261653092966
 10
181.0014313627406
 20
-77.18156143449305
 10
181.6476478477402
 20
-77.18156143449305
 10
182.1609933990219
 20
-77.18156143449305
 10
182.7226556534747
 20
-77.01847314139853
 10
183.2730155280048
 20
-76.70748291448474
 10
183.4300448133073
 20
-76.61686967614468
 10
183.6255643340117
 20
-76.46512260276502
 10
183.8542918781972
 20
-76.25678595019053
 10
183.8542918781972
 20
-76.25678595019053
 10
184.2853747467522
 20
-75.86497011290958
 10
184.2853747467522
 20
-75.86497011290958
 10
183.6678608691829
 20
-77.35894277161282
 10
182.855526587192
 20
-77.64659028260621
 10
181.9903701859805
 20
-77.63602585876151
 10
181.2233619430566
 20
-77.62697618686572
 10
180.7024814718264
 20
-77.44881805387513
 10
180.3831795290942
 20
-77.34084342782058
 10
180.3831795290942
 20
-77.34084342782058
 10
180.27971031909
 20
-77.30538269631449
 10
180.27971031909
 20
-77.30538269631449
 10
180.27971031909
 20
-77.30538269631449
 10
179.8645129260959
 20
-78.34640568269718
 10
179.8645129260959
 20
-78.34640568269718
 10
179.8645129260959
 20
-78.34640568269718
 10
179.9996754076319
 20
-78.38866337807371
 10
179.9996754076319
 20
-78.38866337807371
 10
180.472239175693
 20
-78.538157743428
 10
181.3034107575526
 20
-78.63024689392261
 10
182.1670524068149
 20
-78.63024689392261
 10
183.2624122643674
 20
-78.63024689392261
 10
184.1351035855268
 20
-78.47849982054296
 10
184.7617059747856
 20
-78.17807401747355
 10
185.5233931659935
 20
-77.8171746558549
 10
185.8200903488834
 20
-77.60883800328073
 10
186.0307185492759
 20
-77.04566099687963
 10
186.0307185492759
 20
-77.04566099687963
 10
187.4726458846291
 20
-73.36691111148526
 10
187.4726458846291
 20
-73.36691111148526
 10
187.5028244042136
 20
-73.28915384480831
 10
187.4929979364477
 20
-73.20160895015844
 10
187.4461959852258
 20
-73.13212455950679
 97
        0
 72
     1
 10
187.4461959852258
 20
-73.13212455950679
 11
187.4461959852258
 21
-73.13212455950679
 97
        0
 75
     2
 76
     1
 98
        1
 10
0.0
 20
0.0
450
        0
451
        0
460
0.0
461
0.0
452
        0
462
0.0
453
        0
470

  0
SPLINE
  5
2EA
330
2D9
100
AcDbEntity
  8
Слой 2
100
AcDbSpline
210
0.0
220
0.0
230
1.0
 70
     9
 71
     3
 72
     8
 73
     4
 74
     0
 42
0.0000000001
 43
0.0000000001
 40
0.0
 40
0.0
 40
0.0
 40
0.0
 40
1.0
 40
1.0
 40
1.0
 40
1.0
 10
164.4394831187245
 20
-73.73985080910315
 30
0.0
 10
161.4167373463029
 20
-79.31347770217057
 30
0.0
 10
158.7639406073952
 20
-73.70512803367418
 30
0.0
 10
164.4394831187245
 20
-73.73985080910315
 30
0.0
  0
SPLINE
  5
2EB
330
2D9
100
AcDbEntity
  8
Слой 2
100
AcDbSpline
210
0.0
220
0.0
230
1.0
 70
     9
 71
     3
 72
    44
 73
    40
 74
     0
 42
0.0000000001
 43
0.0000000001
 40
0.0
 40
0.0
 40
0.0
 40
0.0
 40
1.0
 40
1.0
 40
1.0
 40
2.0
 40
2.0
 40
2.0
 40
3.0
 40
3.0
 40
3.0
 40
4.0
 40
4.0
 40
4.0
 40
5.0
 40
5.0
 40
5.0
 40
6.0
 40
6.0
 40
6.0
 40
7.0
 40
7.0
 40
7.0
 40
8.0
 40
8.0
 40
8.0
 40
9.0
 40
9.0
 40
9.0
 40
10.0
 40
10.0
 40
10.0
 40
11.0
 40
11.0
 40
11.0
 40
12.0
 40
12.0
 40
12.0
 40
13.0
 40
13.0
 40
13.0
 40
13.0
 10
166.9850431876551
 20
-73.13212455950679
 30
0.0
 10
166.9382800762269
 20
-73.06345580451933
 30
0.0
 10
166.8604839697566
 20
-73.02267402129736
 30
0.0
 10
166.7766676952863
 20
-73.02267402129736
 30
0.0
 10
166.7766676952863
 20
-73.02267402129736
 30
0.0
 10
163.3598922173518
 20
-73.02267402129736
 30
0.0
 10
163.3598922173518
 20
-73.02267402129736
 30
0.0
 10
162.8050269267697
 20
-73.03475319708967
 30
0.0
 10
162.3845473218534
 20
-73.06951481231234
 30
0.0
 10
162.0720035031983
 20
-73.12913389540367
 30
0.0
 10
161.084579431907
 20
-73.35032651964191
 30
0.0
 10
160.4662887584669
 20
-73.73080113720767
 30
0.0
 10
160.0005219542766
 20
-74.41022564568735
 30
0.0
 10
159.5399596824218
 20
-75.20213019627295
 30
0.0
 10
159.4554442916681
 20
-75.93367770769074
 30
0.0
 10
159.7627058984017
 20
-76.46966685861009
 30
0.0
 10
160.0231267141203
 20
-76.9218785748519
 30
0.0
 10
160.542531273195
 20
-77.18156143449305
 30
0.0
 10
161.1887477581952
 20
-77.18156143449305
 30
0.0
 10
161.7020933094763
 20
-77.18156143449305
 30
0.0
 10
162.2629787680577
 20
-77.01773518532046
 30
0.0
 10
162.8141154384598
 20
-76.70748291448474
 30
0.0
 10
162.9703679278902
 20
-76.61686967614468
 30
0.0
 10
163.1666254046724
 20
-76.46512260276502
 30
0.0
 10
163.3953529488579
 20
-76.25678595019053
 30
0.0
 10
163.3953529488579
 20
-76.25678595019053
 30
0.0
 10
163.7162473231267
 20
-75.96537097922321
 30
0.0
 10
163.7162473231267
 20
-75.96537097922321
 30
0.0
 10
163.7162473231267
 20
-75.96537097922321
 30
0.0
 10
163.143243848958
 20
-77.12415621963434
 30
0.0
 10
163.143243848958
 20
-77.12415621963434
 30
0.0
 10
163.143243848958
 20
-77.12415621963434
 30
0.0
 10
165.5582633717845
 20
-77.12415621963434
 30
0.0
 10
165.5582633717845
 20
-77.12415621963434
 30
0.0
 10
165.5582633717845
 20
-77.12415621963434
 30
0.0
 10
167.0122310431356
 20
-73.36691111148526
 30
0.0
 10
167.0122310431356
 20
-73.36691111148526
 30
0.0
 10
167.0424484025138
 20
-73.28915384480831
 30
0.0
 10
167.0326219347465
 20
-73.20160895015844
 30
0.0
 10
166.9850431876551
 20
-73.13212455950679
 30
0.0
  0
HATCH
  5
2EC
330
2D9
100
AcDbEntity
  8
Слой 2
 62
   254
420
 13421772
440
 33554687
100
AcDbHatch
 10
0.0
 20
0.0
 30
0.0
210
0.0
220
0.0
230
1.0
  2
SOLID
 70
     1
 71
     1
 91
        2
 92
        1
 93
        2
 72
     4
 94
        3
 73
     0
 74
     0
 95
        8
 96
        4
 40
0.0
 40
0.0
 40
0.0
 40
0.0
 40
1.0
 40
1.0
 40
1.0
 40
1.0
 10
164.4394831187245
 20
-73.73985080910315
 10
161.4167373463029
 20
-79.31347770217057
 10
158.7639406073952
 20
-73.70512803367418
 10
164.4394831187245
 20
-73.73985080910315
 97
        0
 72
     1
 10
164.4394831187245
 20
-73.73985080910316
 11
164.4394831187245
 21
-73.73985080910315
 97
        0
 92
        1
 93
        2
 72
     4
 94
        3
 73
     0
 74
     0
 95
       44
 96
       40
 40
0.0
 40
0.0
 40
0.0
 40
0.0
 40
1.0
 40
1.0
 40
1.0
 40
2.0
 40
2.0
 40
2.0
 40
3.0
 40
3.0
 40
3.0
 40
4.0
 40
4.0
 40
4.0
 40
5.0
 40
5.0
 40
5.0
 40
6.0
 40
6.0
 40
6.0
 40
7.0
 40
7.0
 40
7.0
 40
8.0
 40
8.0
 40
8.0
 40
9.0
 40
9.0
 40
9.0
 40
10.0
 40
10.0
 40
10.0
 40
11.0
 40
11.0
 40
11.0
 40
12.0
 40
12.0
 40
12.0
 40
13.0
 40
13.0
 40
13.0
 40
13.0
 10
166.9850431876551
 20
-73.13212455950679
 10
166.9382800762269
 20
-73.06345580451933
 10
166.8604839697566
 20
-73.02267402129736
 10
166.7766676952863
 20
-73.02267402129736
 10
166.7766676952863
 20
-73.02267402129736
 10
163.3598922173518
 20
-73.02267402129736
 10
163.3598922173518
 20
-73.02267402129736
 10
162.8050269267697
 20
-73.03475319708967
 10
162.3845473218534
 20
-73.06951481231234
 10
162.0720035031983
 20
-73.12913389540367
 10
161.084579431907
 20
-73.35032651964191
 10
160.4662887584669
 20
-73.73080113720767
 10
160.0005219542766
 20
-74.41022564568735
 10
159.5399596824218
 20
-75.20213019627295
 10
159.4554442916681
 20
-75.93367770769074
 10
159.7627058984017
 20
-76.46966685861009
 10
160.0231267141203
 20
-76.9218785748519
 10
160.542531273195
 20
-77.18156143449305
 10
161.1887477581952
 20
-77.18156143449305
 10
161.7020933094763
 20
-77.18156143449305
 10
162.2629787680577
 20
-77.01773518532046
 10
162.8141154384598
 20
-76.70748291448474
 10
162.9703679278902
 20
-76.61686967614468
 10
163.1666254046724
 20
-76.46512260276502
 10
163.3953529488579
 20
-76.25678595019053
 10
163.3953529488579
 20
-76.25678595019053
 10
163.7162473231267
 20
-75.96537097922321
 10
163.7162473231267
 20
-75.96537097922321
 10
163.7162473231267
 20
-75.96537097922321
 10
163.143243848958
 20
-77.12415621963434
 10
163.143243848958
 20
-77.12415621963434
 10
163.143243848958
 20
-77.12415621963434
 10
165.5582633717845
 20
-77.12415621963434
 10
165.5582633717845
 20
-77.12415621963434
 10
165.5582633717845
 20
-77.12415621963434
 10
167.0122310431356
 20
-73.36691111148526
 10
167.0122310431356
 20
-73.36691111148526
 10
167.0424484025138
 20
-73.28915384480831
 10
167.0326219347465
 20
-73.20160895015844
 10
166.9850431876551
 20
-73.13212455950679
 97
        0
 72
     1
 10
166.9850431876551
 20
-73.13212455950679
 11
166.9850431876551
 21
-73.13212455950679
 97
        0
 75
     2
 76
     1
 98
        1
 10
0.0
 20
0.0
450
        0
451
        0
460
0.0
461
0.0
452
        0
462
0.0
453
        0
470

  0
SPLINE
  5
2ED
330
2D9
100
AcDbEntity
  8
Слой 2
100
AcDbSpline
210
0.0
220
0.0
230
1.0
 70
    11
 71
     3
 72
    62
 73
    58
 74
     0
 42
0.0000000001
 43
0.0000000001
 40
0.0
 40
0.0
 40
0.0
 40
0.0
 40
1.0
 40
1.0
 40
1.0
 40
2.0
 40
2.0
 40
2.0
 40
3.0
 40
3.0
 40
3.0
 40
4.0
 40
4.0
 40
4.0
 40
5.0
 40
5.0
 40
5.0
 40
6.0
 40
6.0
 40
6.0
 40
7.0
 40
7.0
 40
7.0
 40
8.0
 40
8.0
 40
8.0
 40
9.0
 40
9.0
 40
9.0
 40
10.0
 40
10.0
 40
10.0
 40
11.0
 40
11.0
 40
11.0
 40
12.0
 40
12.0
 40
12.0
 40
13.0
 40
13.0
 40
13.0
 40
14.0
 40
14.0
 40
14.0
 40
15.0
 40
15.0
 40
15.0
 40
16.0
 40
16.0
 40
16.0
 40
17.0
 40
17.0
 40
17.0
 40
18.0
 40
18.0
 40
18.0
 40
19.0
 40
19.0
 40
19.0
 40
19.0
 10
199.834148136357
 20
-71.54951949193455
 30
0.0
 10
199.834148136357
 20
-71.54951949193455
 30
0.0
 10
198.9780414070407
 20
-71.54951949193455
 30
0.0
 10
198.9780414070407
 20
-71.54951949193455
 30
0.0
 10
198.7712195064142
 20
-71.54951949193455
 30
0.0
 10
198.2065277480661
 20
-71.74356310048508
 30
0.0
 10
197.2817134239696
 20
-72.13157263799773
 30
0.0
 10
196.3576758957439
 20
-72.52109692745929
 30
0.0
 10
195.808869612956
 20
-72.81779411034817
 30
0.0
 10
195.6382463999127
 20
-73.02314009881985
 30
0.0
 10
195.6382463999127
 20
-73.02314009881985
 30
0.0
 10
195.0720398896148
 20
-73.74183163857421
 30
0.0
 10
195.0720398896148
 20
-73.74183163857421
 30
0.0
 10
195.0720398896148
 20
-73.74183163857421
 30
0.0
 10
196.3403145080294
 20
-73.74183163857421
 30
0.0
 10
196.3403145080294
 20
-73.74183163857421
 30
0.0
 10
196.3403145080294
 20
-73.74183163857421
 30
0.0
 10
195.6035624642768
 20
-75.55817458369915
 30
0.0
 10
195.6035624642768
 20
-75.55817458369915
 30
0.0
 10
195.5469340452889
 20
-75.7295357528193
 30
0.0
 10
195.5174934817815
 20
-75.87825332230181
 30
0.0
 10
195.5174934817815
 20
-76.00358933607182
 30
0.0
 10
195.5174934817815
 20
-76.30028651896068
 30
0.0
 10
195.6428294955508
 20
-76.54031644306797
 30
0.0
 10
195.8941617995792
 20
-76.72228087582553
 30
0.0
 10
196.2482641973278
 20
-76.97438997572511
 30
0.0
 10
196.8129171158828
 20
-77.09972598949383
 30
0.0
 10
197.5904897826517
 20
-77.09972598949383
 30
0.0
 10
198.4118348967441
 20
-77.09972598949383
 30
0.0
 10
199.0225906502369
 20
-76.96231079993281
 30
0.0
 10
199.423456159413
 20
-76.68903401255112
 30
0.0
 10
199.5487533333894
 20
-76.59768281813424
 30
0.0
 10
199.6680303393651
 20
-76.45424746057232
 30
0.0
 10
199.7827630894964
 20
-76.25950473573839
 30
0.0
 10
199.7827630894964
 20
-76.25950473573839
 30
0.0
 10
199.7827630894964
 20
-76.05415874726702
 30
0.0
 10
199.7827630894964
 20
-76.05415874726702
 30
0.0
 10
199.7827630894964
 20
-76.05415874726702
 30
0.0
 10
198.49790387924
 20
-76.05415874726702
 30
0.0
 10
198.49790387924
 20
-76.05415874726702
 30
0.0
 10
198.0743947704266
 20
-76.05415874726702
 30
0.0
 10
198.2404737276236
 20
-75.56042729172452
 30
0.0
 10
198.3272806661967
 20
-75.23203683730255
 30
0.0
 10
198.3272806661967
 20
-75.23203683730255
 30
0.0
 10
198.9432797918193
 20
-73.74183163857421
 30
0.0
 10
198.9432797918193
 20
-73.74183163857421
 30
0.0
 10
198.9432797918193
 20
-73.74183163857421
 30
0.0
 10
200.2968854366509
 20
-73.74183163857421
 30
0.0
 10
200.2968854366509
 20
-73.74183163857421
 30
0.0
 10
200.2968854366509
 20
-73.74183163857421
 30
0.0
 10
200.5883004076166
 20
-73.02314009881985
 30
0.0
 10
200.5883004076166
 20
-73.02314009881985
 30
0.0
 10
200.5883004076166
 20
-73.02314009881985
 30
0.0
 10
199.2165954189941
 20
-73.02314009881985
 30
0.0
 10
199.2165954189941
 20
-73.02314009881985
 30
0.0
 10
199.2165954189941
 20
-73.02314009881985
 30
0.0
 10
199.834148136357
 20
-71.54951949193455
 30
0.0
 10
199.834148136357
 20
-71.54951949193455
 30
0.0
  0
HATCH
  5
2EE
330
2D9
100
AcDbEntity
  8
Слой 2
 62
   254
420
 13421772
440
 33554687
100
AcDbHatch
 10
0.0
 20
0.0
 30
0.0
210
0.0
220
0.0
230
1.0
  2
SOLID
 70
     1
 71
     1
 91
        1
 92
        1
 93
        1
 72
     4
 94
        3
 73
     0
 74
     0
 95
       62
 96
       58
 40
0.0
 40
0.0
 40
0.0
 40
0.0
 40
1.0
 40
1.0
 40
1.0
 40
2.0
 40
2.0
 40
2.0
 40
3.0
 40
3.0
 40
3.0
 40
4.0
 40
4.0
 40
4.0
 40
5.0
 40
5.0
 40
5.0
 40
6.0
 40
6.0
 40
6.0
 40
7.0
 40
7.0
 40
7.0
 40
8.0
 40
8.0
 40
8.0
 40
9.0
 40
9.0
 40
9.0
 40
10.0
 40
10.0
 40
10.0
 40
11.0
 40
11.0
 40
11.0
 40
12.0
 40
12.0
 40
12.0
 40
13.0
 40
13.0
 40
13.0
 40
14.0
 40
14.0
 40
14.0
 40
15.0
 40
15.0
 40
15.0
 40
16.0
 40
16.0
 40
16.0
 40
17.0
 40
17.0
 40
17.0
 40
18.0
 40
18.0
 40
18.0
 40
19.0
 40
19.0
 40
19.0
 40
19.0
 10
199.834148136357
 20
-71.54951949193455
 10
199.834148136357
 20
-71.54951949193455
 10
198.9780414070407
 20
-71.54951949193455
 10
198.9780414070407
 20
-71.54951949193455
 10
198.7712195064142
 20
-71.54951949193455
 10
198.2065277480661
 20
-71.74356310048508
 10
197.2817134239696
 20
-72.13157263799773
 10
196.3576758957439
 20
-72.52109692745929
 10
195.808869612956
 20
-72.81779411034817
 10
195.6382463999127
 20
-73.02314009881985
 10
195.6382463999127
 20
-73.02314009881985
 10
195.0720398896148
 20
-73.74183163857421
 10
195.0720398896148
 20
-73.74183163857421
 10
195.0720398896148
 20
-73.74183163857421
 10
196.3403145080294
 20
-73.74183163857421
 10
196.3403145080294
 20
-73.74183163857421
 10
196.3403145080294
 20
-73.74183163857421
 10
195.6035624642768
 20
-75.55817458369915
 10
195.6035624642768
 20
-75.55817458369915
 10
195.5469340452889
 20
-75.7295357528193
 10
195.5174934817815
 20
-75.87825332230181
 10
195.5174934817815
 20
-76.00358933607182
 10
195.5174934817815
 20
-76.30028651896068
 10
195.6428294955508
 20
-76.54031644306797
 10
195.8941617995792
 20
-76.72228087582553
 10
196.2482641973278
 20
-76.97438997572511
 10
196.8129171158828
 20
-77.09972598949383
 10
197.5904897826517
 20
-77.09972598949383
 10
198.4118348967441
 20
-77.09972598949383
 10
199.0225906502369
 20
-76.96231079993281
 10
199.423456159413
 20
-76.68903401255112
 10
199.5487533333894
 20
-76.59768281813424
 10
199.6680303393651
 20
-76.45424746057232
 10
199.7827630894964
 20
-76.25950473573839
 10
199.7827630894964
 20
-76.25950473573839
 10
199.7827630894964
 20
-76.05415874726702
 10
199.7827630894964
 20
-76.05415874726702
 10
199.7827630894964
 20
-76.05415874726702
 10
198.49790387924
 20
-76.05415874726702
 10
198.49790387924
 20
-76.05415874726702
 10
198.0743947704266
 20
-76.05415874726702
 10
198.2404737276236
 20
-75.56042729172452
 10
198.3272806661967
 20
-75.23203683730255
 10
198.3272806661967
 20
-75.23203683730255
 10
198.9432797918193
 20
-73.74183163857421
 10
198.9432797918193
 20
-73.74183163857421
 10
198.9432797918193
 20
-73.74183163857421
 10
200.2968854366509
 20
-73.74183163857421
 10
200.2968854366509
 20
-73.74183163857421
 10
200.2968854366509
 20
-73.74183163857421
 10
200.5883004076166
 20
-73.02314009881985
 10
200.5883004076166
 20
-73.02314009881985
 10
200.5883004076166
 20
-73.02314009881985
 10
199.2165954189941
 20
-73.02314009881985
 10
199.2165954189941
 20
-73.02314009881985
 10
199.2165954189941
 20
-73.02314009881985
 10
199.834148136357
 20
-71.54951949193455
 10
199.834148136357
 20
-71.54951949193455
 97
        0
 97
        1
330
2ED
 75
     2
 76
     1
 98
        1
 10
0.0
 20
0.0
450
        0
451
        0
460
0.0
461
0.0
452
        0
462
0.0
453
        0
470

  0
SPLINE
  5
2EF
330
2D9
100
AcDbEntity
  8
Слой 2
100
AcDbSpline
210
0.0
220
0.0
230
1.0
 70
     9
 71
     3
 72
    29
 73
    25
 74
     0
 42
0.0000000001
 43
0.0000000001
 40
0.0
 40
0.0
 40
0.0
 40
0.0
 40
1.0
 40
1.0
 40
1.0
 40
2.0
 40
2.0
 40
2.0
 40
3.0
 40
3.0
 40
3.0
 40
4.0
 40
4.0
 40
4.0
 40
5.0
 40
5.0
 40
5.0
 40
6.0
 40
6.0
 40
6.0
 40
7.0
 40
7.0
 40
7.0
 40
8.0
 40
8.0
 40
8.0
 40
8.0
 10
177.0364321989206
 20
-55.42921854031685
 30
0.0
 10
181.261696819285
 20
-52.78244196940968
 30
0.0
 10
186.8322553686629
 20
-54.06279576361528
 30
0.0
 10
189.4790707793637
 20
-58.28809922377274
 30
0.0
 10
189.8051308461723
 20
-58.80975649087378
 30
0.0
 10
190.0716495094776
 20
-59.35102785371563
 30
0.0
 10
190.2800250018458
 20
-59.90437839234883
 30
0.0
 10
190.0482679537632
 20
-59.01055822350103
 30
0.0
 10
189.6776198039647
 20
-58.13639099018711
 30
0.0
 10
189.1612059089927
 20
-57.31197753240356
 30
0.0
 10
186.4419931231236
 20
-52.96964977429574
 30
0.0
 10
180.7173959525473
 20
-51.65457320466021
 30
0.0
 10
176.3750681944392
 20
-54.37382483032245
 30
0.0
 10
172.0335172322019
 20
-57.09307645598471
 30
0.0
 10
170.7176638666958
 20
-62.81763478676758
 30
0.0
 10
173.4369543321518
 20
-67.15996254487571
 30
0.0
 10
173.9532905475369
 20
-67.98433716286524
 30
0.0
 10
174.5783781848478
 20
-68.69926124264599
 30
0.0
 10
175.281961044913
 20
-69.2978989805522
 30
0.0
 10
174.8742985718655
 20
-68.86833086394642
 30
0.0
 10
174.5036115822733
 20
-68.39277643178355
 30
0.0
 10
174.1767358798002
 20
-67.87185712075899
 30
0.0
 10
171.5307361047632
 20
-63.64655366060153
 30
0.0
 10
172.8110898989695
 20
-58.07595627143158
 30
0.0
 10
177.0364321989206
 20
-55.42921854031685
 30
0.0
  0
HATCH
  5
2F0
330
2D9
100
AcDbEntity
  8
Слой 2
 62
   254
420
 13421772
440
 33554687
100
AcDbHatch
 10
0.0
 20
0.0
 30
0.0
210
0.0
220
0.0
230
1.0
  2
SOLID
 70
     1
 71
     1
 91
        1
 92
        1
 93
        2
 72
     4
 94
        3
 73
     0
 74
     0
 95
       29
 96
       25
 40
0.0
 40
0.0
 40
0.0
 40
0.0
 40
1.0
 40
1.0
 40
1.0
 40
2.0
 40
2.0
 40
2.0
 40
3.0
 40
3.0
 40
3.0
 40
4.0
 40
4.0
 40
4.0
 40
5.0
 40
5.0
 40
5.0
 40
6.0
 40
6.0
 40
6.0
 40
7.0
 40
7.0
 40
7.0
 40
8.0
 40
8.0
 40
8.0
 40
8.0
 10
177.0364321989206
 20
-55.42921854031685
 10
181.261696819285
 20
-52.78244196940968
 10
186.8322553686629
 20
-54.06279576361528
 10
189.4790707793637
 20
-58.28809922377274
 10
189.8051308461723
 20
-58.80975649087378
 10
190.0716495094776
 20
-59.35102785371563
 10
190.2800250018458
 20
-59.90437839234883
 10
190.0482679537632
 20
-59.01055822350103
 10
189.6776198039647
 20
-58.13639099018711
 10
189.1612059089927
 20
-57.31197753240356
 10
186.4419931231236
 20
-52.96964977429574
 10
180.7173959525473
 20
-51.65457320466021
 10
176.3750681944392
 20
-54.37382483032245
 10
172.0335172322019
 20
-57.09307645598471
 10
170.7176638666958
 20
-62.81763478676758
 10
173.4369543321518
 20
-67.15996254487571
 10
173.9532905475369
 20
-67.98433716286524
 10
174.5783781848478
 20
-68.69926124264599
 10
175.281961044913
 20
-69.2978989805522
 10
174.8742985718655
 20
-68.86833086394642
 10
174.5036115822733
 20
-68.39277643178355
 10
174.1767358798002
 20
-67.87185712075899
 10
171.5307361047632
 20
-63.64655366060153
 10
172.8110898989695
 20
-58.07595627143158
 10
177.0364321989206
 20
-55.42921854031685
 97
        0
 72
     1
 10
177.0364321989206
 20
-55.42921854031685
 11
177.0364321989206
 21
-55.42921854031685
 97
        0
 75
     2
 76
     1
 98
        1
 10
0.0
 20
0.0
450
        0
451
        0
460
0.0
461
0.0
452
        0
462
0.0
453
        0
470

  0
SPLINE
  5
2F1
330
2D9
100
AcDbEntity
  8
Слой 2
100
AcDbSpline
210
0.0
220
0.0
230
1.0
 70
     9
 71
     3
 72
    17
 73
    13
 74
     0
 42
0.0000000001
 43
0.0000000001
 40
0.0
 40
0.0
 40
0.0
 40
0.0
 40
1.0
 40
1.0
 40
1.0
 40
2.0
 40
2.0
 40
2.0
 40
3.0
 40
3.0
 40
3.0
 40
4.0
 40
4.0
 40
4.0
 40
4.0
 10
175.5254865504389
 20
-60.85020504475269
 30
0.0
 10
177.3591520434844
 20
-60.13683455671454
 30
0.0
 10
179.7885034501288
 20
-59.6815933365759
 30
0.0
 10
182.9176702568636
 20
-59.70124627210881
 30
0.0
 10
180.7094726346644
 20
-63.77328790693901
 30
0.0
 10
178.5549127673495
 20
-66.19809505773776
 30
0.0
 10
176.6918067107973
 20
-67.47541934804717
 30
0.0
 10
179.2140240638066
 20
-67.4142855130076
 30
0.0
 10
183.0195470353312
 20
-64.91622651158358
 30
0.0
 10
186.9836917236936
 20
-57.60556753180948
 30
0.0
 10
181.1299910793743
 20
-57.57010680030275
 30
0.0
 10
177.4920229772023
 20
-59.03689160352424
 30
0.0
 10
175.5254865504389
 20
-60.85020504475269
 30
0.0
  0
HATCH
  5
2F2
330
2D9
100
AcDbEntity
  8
Слой 2
 62
   254
420
 13421772
440
 33554687
100
AcDbHatch
 10
0.0
 20
0.0
 30
0.0
210
0.0
220
0.0
230
1.0
  2
SOLID
 70
     1
 71
     1
 91
        1
 92
        1
 93
        2
 72
     4
 94
        3
 73
     0
 74
     0
 95
       17
 96
       13
 40
0.0
 40
0.0
 40
0.0
 40
0.0
 40
1.0
 40
1.0
 40
1.0
 40
2.0
 40
2.0
 40
2.0
 40
3.0
 40
3.0
 40
3.0
 40
4.0
 40
4.0
 40
4.0
 40
4.0
 10
175.5254865504389
 20
-60.85020504475269
 10
177.3591520434844
 20
-60.13683455671454
 10
179.7885034501288
 20
-59.6815933365759
 10
182.9176702568636
 20
-59.70124627210881
 10
180.7094726346644
 20
-63.77328790693901
 10
178.5549127673495
 20
-66.19809505773776
 10
176.6918067107973
 20
-67.47541934804717
 10
179.2140240638066
 20
-67.4142855130076
 10
183.0195470353312
 20
-64.91622651158358
 10
186.9836917236936
 20
-57.60556753180948
 10
181.1299910793743
 20
-57.57010680030275
 10
177.4920229772023
 20
-59.03689160352424
 10
175.5254865504389
 20
-60.85020504475269
 97
        0
 72
     1
 10
175.525486550439
 20
-60.85020504475269
 11
175.5254865504389
 21
-60.85020504475269
 97
        0
 75
     2
 76
     1
 98
        1
 10
0.0
 20
0.0
450
        0
451
        0
460
0.0
461
0.0
452
        0
462
0.0
453
        0
470

  0
SPLINE
  5
2F3
330
2D9
100
AcDbEntity
  8
Слой 2
100
AcDbSpline
210
0.0
220
0.0
230
1.0
 70
     9
 71
     3
 72
    14
 73
    10
 74
     0
 42
0.0000000001
 43
0.0000000001
 40
0.0
 40
0.0
 40
0.0
 40
0.0
 40
1.0
 40
1.0
 40
1.0
 40
2.0
 40
2.0
 40
2.0
 40
3.0
 40
3.0
 40
3.0
 40
3.0
 10
176.6831454368366
 20
-67.47557470722101
 30
0.0
 10
176.6831454368366
 20
-67.47557470722101
 30
0.0
 10
176.6816306848887
 20
-67.47635150309183
 30
0.0
 10
176.6808538890172
 20
-67.47708945916959
 30
0.0
 10
176.6876508528886
 20
-67.47635150309183
 30
0.0
 10
176.693709860681
 20
-67.47557470722101
 30
0.0
 10
176.6997300286796
 20
-67.47557470722101
 30
0.0
 10
176.6944478167581
 20
-67.47557470722101
 30
0.0
 10
176.6892044446302
 20
-67.47557470722101
 30
0.0
 10
176.6831454368366
 20
-67.47557470722101
 30
0.0
  0
HATCH
  5
2F4
330
2D9
100
AcDbEntity
  8
Слой 2
 62
   254
420
 13421772
440
 33554687
100
AcDbHatch
 10
0.0
 20
0.0
 30
0.0
210
0.0
220
0.0
230
1.0
  2
SOLID
 70
     1
 71
     1
 91
        1
 92
        1
 93
        2
 72
     4
 94
        3
 73
     0
 74
     0
 95
       14
 96
       10
 40
0.0
 40
0.0
 40
0.0
 40
0.0
 40
1.0
 40
1.0
 40
1.0
 40
2.0
 40
2.0
 40
2.0
 40
3.0
 40
3.0
 40
3.0
 40
3.0
 10
176.6831454368366
 20
-67.47557470722101
 10
176.6831454368366
 20
-67.47557470722101
 10
176.6816306848887
 20
-67.47635150309183
 10
176.6808538890172
 20
-67.47708945916959
 10
176.6876508528886
 20
-67.47635150309183
 10
176.693709860681
 20
-67.47557470722101
 10
176.6997300286796
 20
-67.47557470722101
 10
176.6944478167581
 20
-67.47557470722101
 10
176.6892044446302
 20
-67.47557470722101
 10
176.6831454368366
 20
-67.47557470722101
 97
        0
 72
     1
 10
176.6831454368366
 20
-67.47557470722101
 11
176.6831454368366
 21
-67.47557470722101
 97
        0
 75
     2
 76
     1
 98
        1
 10
0.0
 20
0.0
450
        0
451
        0
460
0.0
461
0.0
452
        0
462
0.0
453
        0
470

  0
ENDBLK
  5
2DC
330
2D9
100
AcDbEntity
  8
0
100
AcDbBlockEnd
  0
BLOCK
  5
2FA
330
2F8
100
AcDbEntity
  8
0
100
AcDbBlockBegin
  2
Block_6
 70
     0
 10
0.0
 20
0.0
 30
0.0
  3
Block_6
  1

  0
MTEXT
  5
2FC
330
2F8
100
AcDbEntity
  8
Слой 2
100
AcDbMText
 10
30.10843352518774
 20
-238.7610937581266
 30
0.0
 40
0.2
 41
0.0
 46
0.0
 71
     7
 72
     1
  1
\C250;\c3882044;\FDINPro-Light|b0|i0|c1;\H5.951021;\W1.000000;IP
 73
     1
 44
1.0
  0
MTEXT
  5
2FD
330
2F8
100
AcDbEntity
  8
Слой 2
100
AcDbMText
 10
37.78892940000373
 20
-238.7610937581266
 30
0.0
 40
0.2
 41
0.0
 46
0.0
 71
     7
 72
     1
  1
\C250;\c3882044;\FDINPro-Medium|b0|i0|c1;\H5.951021;\W1.000000;20
 73
     1
 44
1.0
  0
INSERT
  5
2FF
330
2F8
100
AcDbEntity
  8
Слой 2
100
AcDbBlockReference
  2
Block_7
 10
0.0
 20
0.0
 30
0.0
  0
ENDBLK
  5
2FB
330
2F8
100
AcDbEntity
  8
0
100
AcDbBlockEnd
  0
BLOCK
  5
300
330
2FE
100
AcDbEntity
  8
0
100
AcDbBlockBegin
  2
Block_7
 70
     0
 10
0.0
 20
0.0
 30
0.0
  3
Block_7
  1

  0
SPLINE
  5
302
330
2FE
100
AcDbEntity
  8
Слой 2
100
AcDbSpline
210
0.0
220
0.0
230
1.0
 70
     9
 71
     3
 72
    17
 73
    13
 74
     0
 42
0.0000000001
 43
0.0000000001
 40
0.0
 40
0.0
 40
0.0
 40
0.0
 40
1.0
 40
1.0
 40
1.0
 40
2.0
 40
2.0
 40
2.0
 40
3.0
 40
3.0
 40
3.0
 40
4.0
 40
4.0
 40
4.0
 40
4.0
 10
17.72721924311443
 20
-228.8049851918421
 30
0.0
 10
13.86155100840251
 20
-228.8049851918421
 30
0.0
 10
10.71681942196463
 20
-231.9496815799442
 30
0.0
 10
10.71681942196463
 20
-235.8153499123111
 30
0.0
 10
10.71681942196463
 20
-239.6812651891227
 30
0.0
 10
13.86155100840251
 20
-242.826032132781
 30
0.0
 10
17.72721924311443
 20
-242.826032132781
 30
0.0
 10
21.59278164449572
 20
-242.826032132781
 30
0.0
 10
24.73754850871048
 20
-239.6812651891227
 30
0.0
 10
24.73754850871048
 20
-235.8153499123111
 30
0.0
 10
24.73754850871048
 20
-231.9496815799442
 30
0.0
 10
21.59278164449572
 20
-228.8049851918421
 30
0.0
 10
17.72721924311443
 20
-228.8049851918421
 30
0.0
  0
SPLINE
  5
303
330
2FE
100
AcDbEntity
  8
Слой 2
100
AcDbSpline
210
0.0
220
0.0
230
1.0
 70
     9
 71
     3
 72
    17
 73
    13
 74
     0
 42
0.0000000001
 43
0.0000000001
 40
0.0
 40
0.0
 40
0.0
 40
0.0
 40
1.0
 40
1.0
 40
1.0
 40
2.0
 40
2.0
 40
2.0
 40
3.0
 40
3.0
 40
3.0
 40
4.0
 40
4.0
 40
4.0
 40
4.0
 10
17.72721924311443
 20
-242.9647796327463
 30
0.0
 10
13.78510406590839
 20
-242.9647796327463
 30
0.0
 10
10.57804322957871
 20
-239.7576768557701
 30
0.0
 10
10.57804322957871
 20
-235.8153499123111
 30
0.0
 10
10.57804322957871
 20
-231.8733051910749
 30
0.0
 10
13.78510406590839
 20
-228.6661671363206
 30
0.0
 10
17.72721924311443
 20
-228.6661671363206
 30
0.0
 10
21.66922858698984
 20
-228.6661671363206
 30
0.0
 10
24.87633128294761
 20
-231.8733051910749
 30
0.0
 10
24.87633128294761
 20
-235.8153499123111
 30
0.0
 10
24.87633128294761
 20
-239.7576768557701
 30
0.0
 10
21.66922858698984
 20
-242.9647796327463
 30
0.0
 10
17.72721924311443
 20
-242.9647796327463
 30
0.0
  0
HATCH
  5
304
330
2FE
100
AcDbEntity
  8
Слой 2
 62
   250
420
  3947579
440
 33554687
100
AcDbHatch
 10
0.0
 20
0.0
 30
0.0
210
0.0
220
0.0
230
1.0
  2
SOLID
 70
     1
 71
     1
 91
        2
 92
        1
 93
        1
 72
     4
 94
        3
 73
     0
 74
     0
 95
       17
 96
       13
 40
0.0
 40
0.0
 40
0.0
 40
0.0
 40
1.0
 40
1.0
 40
1.0
 40
2.0
 40
2.0
 40
2.0
 40
3.0
 40
3.0
 40
3.0
 40
4.0
 40
4.0
 40
4.0
 40
4.0
 10
17.72721924311443
 20
-228.8049851918421
 10
13.86155100840251
 20
-228.8049851918421
 10
10.71681942196463
 20
-231.9496815799442
 10
10.71681942196463
 20
-235.8153499123111
 10
10.71681942196463
 20
-239.6812651891227
 10
13.86155100840251
 20
-242.826032132781
 10
17.72721924311443
 20
-242.826032132781
 10
21.59278164449572
 20
-242.826032132781
 10
24.73754850871048
 20
-239.6812651891227
 10
24.73754850871048
 20
-235.8153499123111
 10
24.73754850871048
 20
-231.9496815799442
 10
21.59278164449572
 20
-228.8049851918421
 10
17.72721924311443
 20
-228.8049851918421
 97
        0
 97
        1
330
302
 92
        1
 93
        1
 72
     4
 94
        3
 73
     0
 74
     0
 95
       17
 96
       13
 40
0.0
 40
0.0
 40
0.0
 40
0.0
 40
1.0
 40
1.0
 40
1.0
 40
2.0
 40
2.0
 40
2.0
 40
3.0
 40
3.0
 40
3.0
 40
4.0
 40
4.0
 40
4.0
 40
4.0
 10
17.72721924311443
 20
-242.9647796327463
 10
13.78510406590839
 20
-242.9647796327463
 10
10.57804322957871
 20
-239.7576768557701
 10
10.57804322957871
 20
-235.8153499123111
 10
10.57804322957871
 20
-231.8733051910749
 10
13.78510406590839
 20
-228.6661671363206
 10
17.72721924311443
 20
-228.6661671363206
 10
21.66922858698984
 20
-228.6661671363206
 10
24.87633128294761
 20
-231.8733051910749
 10
24.87633128294761
 20
-235.8153499123111
 10
24.87633128294761
 20
-239.7576768557701
 10
21.66922858698984
 20
-242.9647796327463
 10
17.72721924311443
 20
-242.9647796327463
 97
        0
 97
        1
330
303
 75
     2
 76
     1
 98
        1
 10
0.0
 20
0.0
450
        0
451
        0
460
0.0
461
0.0
452
        0
462
0.0
453
        0
470

  0
INSERT
  5
306
330
2FE
100
AcDbEntity
  8
Слой 2
100
AcDbBlockReference
  2
Block_8
 10
0.0
 20
0.0
 30
0.0
  0
ENDBLK
  5
301
330
2FE
100
AcDbEntity
  8
0
100
AcDbBlockEnd
  0
BLOCK
  5
307
330
305
100
AcDbEntity
  8
0
100
AcDbBlockBegin
  2
Block_8
 70
     0
 10
0.0
 20
0.0
 30
0.0
  3
Block_8
  1

  0
SPLINE
  5
309
330
305
100
AcDbEntity
  8
Слой 2
100
AcDbSpline
210
0.0
220
0.0
230
1.0
 70
    11
 71
     3
 72
    17
 73
    13
 74
     0
 42
0.0000000001
 43
0.0000000001
 40
0.0
 40
0.0
 40
0.0
 40
0.0
 40
1.0
 40
1.0
 40
1.0
 40
2.0
 40
2.0
 40
2.0
 40
3.0
 40
3.0
 40
3.0
 40
4.0
 40
4.0
 40
4.0
 40
4.0
 10
16.77923482285508
 20
-237.4107521341351
 30
0.0
 10
16.77923482285508
 20
-237.4107521341351
 30
0.0
 10
18.68003671880603
 20
-237.4107521341351
 30
0.0
 10
18.68003671880603
 20
-237.4107521341351
 30
0.0
 10
18.68003671880603
 20
-237.4107521341351
 30
0.0
 10
18.68003671880603
 20
-235.5096679679431
 30
0.0
 10
18.68003671880603
 20
-235.5096679679431
 30
0.0
 10
18.68003671880603
 20
-235.5096679679431
 30
0.0
 10
16.77923482285508
 20
-235.5096679679431
 30
0.0
 10
16.77923482285508
 20
-235.5096679679431
 30
0.0
 10
16.77923482285508
 20
-235.5096679679431
 30
0.0
 10
16.77923482285508
 20
-237.4107521341351
 30
0.0
 10
16.77923482285508
 20
-237.4107521341351
 30
0.0
  0
SPLINE
  5
30A
330
305
100
AcDbEntity
  8
Слой 2
100
AcDbSpline
210
0.0
220
0.0
230
1.0
 70
     9
 71
     3
 72
    29
 73
    25
 74
     0
 42
0.0000000001
 43
0.0000000001
 40
0.0
 40
0.0
 40
0.0
 40
0.0
 40
1.0
 40
1.0
 40
1.0
 40
2.0
 40
2.0
 40
2.0
 40
3.0
 40
3.0
 40
3.0
 40
4.0
 40
4.0
 40
4.0
 40
5.0
 40
5.0
 40
5.0
 40
6.0
 40
6.0
 40
6.0
 40
7.0
 40
7.0
 40
7.0
 40
8.0
 40
8.0
 40
8.0
 40
8.0
 10
18.90221615758221
 20
-237.8551815784684
 30
0.0
 10
18.90221615758221
 20
-237.8551815784684
 30
0.0
 10
16.55698482852515
 20
-237.8551815784684
 30
0.0
 10
16.55698482852515
 20
-237.8551815784684
 30
0.0
 10
16.43453566498243
 20
-237.8551815784684
 30
0.0
 10
16.3347701119721
 20
-237.7555218562707
 30
0.0
 10
16.3347701119721
 20
-237.6330021340799
 30
0.0
 10
16.3347701119721
 20
-237.6330021340799
 30
0.0
 10
16.3347701119721
 20
-235.287700190221
 30
0.0
 10
16.3347701119721
 20
-235.287700190221
 30
0.0
 10
16.3347701119721
 20
-235.165180468029
 30
0.0
 10
16.43453566498243
 20
-235.0657324124989
 30
0.0
 10
16.55698482852515
 20
-235.0657324124989
 30
0.0
 10
16.55698482852515
 20
-235.0657324124989
 30
0.0
 10
18.90221615758221
 20
-235.0657324124989
 30
0.0
 10
18.90221615758221
 20
-235.0657324124989
 30
0.0
 10
19.02470059890181
 20
-235.0657324124989
 30
0.0
 10
19.12453670746589
 20
-235.165180468029
 30
0.0
 10
19.12453670746589
 20
-235.287700190221
 30
0.0
 10
19.12453670746589
 20
-235.287700190221
 30
0.0
 10
19.12453670746589
 20
-237.6330021340799
 30
0.0
 10
19.12453670746589
 20
-237.6330021340799
 30
0.0
 10
19.12453670746589
 20
-237.7555218562707
 30
0.0
 10
19.02470059890181
 20
-237.8551815784684
 30
0.0
 10
18.90221615758221
 20
-237.8551815784684
 30
0.0
  0
HATCH
  5
30B
330
305
100
AcDbEntity
  8
Слой 2
 62
   250
420
  3947579
440
 33554687
100
AcDbHatch
 10
0.0
 20
0.0
 30
0.0
210
0.0
220
0.0
230
1.0
  2
SOLID
 70
     1
 71
     1
 91
        2
 92
        1
 93
        1
 72
     4
 94
        3
 73
     0
 74
     0
 95
       17
 96
       13
 40
0.0
 40
0.0
 40
0.0
 40
0.0
 40
1.0
 40
1.0
 40
1.0
 40
2.0
 40
2.0
 40
2.0
 40
3.0
 40
3.0
 40
3.0
 40
4.0
 40
4.0
 40
4.0
 40
4.0
 10
16.77923482285508
 20
-237.4107521341351
 10
16.77923482285508
 20
-237.4107521341351
 10
18.68003671880603
 20
-237.4107521341351
 10
18.68003671880603
 20
-237.4107521341351
 10
18.68003671880603
 20
-237.4107521341351
 10
18.68003671880603
 20
-235.5096679679431
 10
18.68003671880603
 20
-235.5096679679431
 10
18.68003671880603
 20
-235.5096679679431
 10
16.77923482285508
 20
-235.5096679679431
 10
16.77923482285508
 20
-235.5096679679431
 10
16.77923482285508
 20
-235.5096679679431
 10
16.77923482285508
 20
-237.4107521341351
 10
16.77923482285508
 20
-237.4107521341351
 97
        0
 97
        1
330
309
 92
        1
 93
        1
 72
     4
 94
        3
 73
     0
 74
     0
 95
       29
 96
       25
 40
0.0
 40
0.0
 40
0.0
 40
0.0
 40
1.0
 40
1.0
 40
1.0
 40
2.0
 40
2.0
 40
2.0
 40
3.0
 40
3.0
 40
3.0
 40
4.0
 40
4.0
 40
4.0
 40
5.0
 40
5.0
 40
5.0
 40
6.0
 40
6.0
 40
6.0
 40
7.0
 40
7.0
 40
7.0
 40
8.0
 40
8.0
 40
8.0
 40
8.0
 10
18.90221615758221
 20
-237.8551815784684
 10
18.90221615758221
 20
-237.8551815784684
 10
16.55698482852515
 20
-237.8551815784684
 10
16.55698482852515
 20
-237.8551815784684
 10
16.43453566498243
 20
-237.8551815784684
 10
16.3347701119721
 20
-237.7555218562707
 10
16.3347701119721
 20
-237.6330021340799
 10
16.3347701119721
 20
-237.6330021340799
 10
16.3347701119721
 20
-235.287700190221
 10
16.3347701119721
 20
-235.287700190221
 10
16.3347701119721
 20
-235.165180468029
 10
16.43453566498243
 20
-235.0657324124989
 10
16.55698482852515
 20
-235.0657324124989
 10
16.55698482852515
 20
-235.0657324124989
 10
18.90221615758221
 20
-235.0657324124989
 10
18.90221615758221
 20
-235.0657324124989
 10
19.02470059890181
 20
-235.0657324124989
 10
19.12453670746589
 20
-235.165180468029
 10
19.12453670746589
 20
-235.287700190221
 10
19.12453670746589
 20
-235.287700190221
 10
19.12453670746589
 20
-237.6330021340799
 10
19.12453670746589
 20
-237.6330021340799
 10
19.12453670746589
 20
-237.7555218562707
 10
19.02470059890181
 20
-237.8551815784684
 10
18.90221615758221
 20
-237.8551815784684
 97
        0
 97
        1
330
30A
 75
     2
 76
     1
 98
        1
 10
0.0
 20
0.0
450
        0
451
        0
460
0.0
461
0.0
452
        0
462
0.0
453
        0
470

  0
INSERT
  5
30D
330
305
100
AcDbEntity
  8
Слой 2
100
AcDbBlockReference
  2
Block_9
 10
0.0
 20
0.0
 30
0.0
  0
ENDBLK
  5
308
330
305
100
AcDbEntity
  8
0
100
AcDbBlockEnd
  0
BLOCK
  5
30E
330
30C
100
AcDbEntity
  8
0
100
AcDbBlockBegin
  2
Block_9
 70
     0
 10
0.0
 20
0.0
 30
0.0
  3
Block_9
  1

  0
SPLINE
  5
310
330
30C
100
AcDbEntity
  8
Слой 2
100
AcDbSpline
210
0.0
220
0.0
230
1.0
 70
     9
 71
     3
 72
    35
 73
    31
 74
     0
 42
0.0000000001
 43
0.0000000001
 40
0.0
 40
0.0
 40
0.0
 40
0.0
 40
1.0
 40
1.0
 40
1.0
 40
2.0
 40
2.0
 40
2.0
 40
3.0
 40
3.0
 40
3.0
 40
4.0
 40
4.0
 40
4.0
 40
5.0
 40
5.0
 40
5.0
 40
6.0
 40
6.0
 40
6.0
 40
7.0
 40
7.0
 40
7.0
 40
8.0
 40
8.0
 40
8.0
 40
9.0
 40
9.0
 40
9.0
 40
10.0
 40
10.0
 40
10.0
 40
10.0
 10
13.45744407426769
 20
-235.2492474124527
 30
0.0
 10
13.3953904647397
 20
-235.2492474124527
 30
0.0
 10
13.33390129964175
 20
-235.2234946346813
 30
0.0
 10
13.28998046742893
 20
-235.1730826902498
 30
0.0
 10
13.20951185837075
 20
-235.0803021347178
 30
0.0
 10
13.21921324701213
 20
-234.9402140791966
 30
0.0
 10
13.31164102243188
 20
-234.8598160236618
 30
0.0
 10
13.31164102243188
 20
-234.8598160236618
 30
0.0
 10
17.58402674676758
 20
-231.1437254690349
 30
0.0
 10
17.58402674676758
 20
-231.1437254690349
 30
0.0
 10
17.66752924463725
 20
-231.0710885246083
 30
0.0
 10
17.79223618590015
 20
-231.0710885246083
 30
0.0
 10
17.87570340599295
 20
-231.1437254690349
 30
0.0
 10
17.87570340599295
 20
-231.1437254690349
 30
0.0
 10
22.14777163033675
 20
-234.8598160236618
 30
0.0
 10
22.14777163033675
 20
-234.8598160236618
 30
0.0
 10
22.24005829464898
 20
-234.9402140791966
 30
0.0
 10
22.25032412772042
 20
-235.0803021347178
 30
0.0
 10
22.16957329644721
 20
-235.1730826902498
 30
0.0
 10
22.08924579849653
 20
-235.2652282457826
 30
0.0
 10
21.94940469095306
 20
-235.2752471346688
 30
0.0
 10
21.85627135999576
 20
-235.1947079680226
 30
0.0
 10
21.85627135999576
 20
-235.1947079680226
 30
0.0
 10
17.72982979860338
 20
-231.605511580031
 30
0.0
 10
17.72982979860338
 20
-231.605511580031
 30
0.0
 10
17.72982979860338
 20
-231.605511580031
 30
0.0
 10
13.60300018166536
 20
-235.1947079680226
 30
0.0
 10
13.60300018166536
 20
-235.1947079680226
 30
0.0
 10
13.56126657161896
 20
-235.2313615791239
 30
0.0
 10
13.50919657294738
 20
-235.2492474124527
 30
0.0
 10
13.45744407426769
 20
-235.2492474124527
 30
0.0
  0
HATCH
  5
311
330
30C
100
AcDbEntity
  8
Слой 2
 62
   250
420
  3947579
440
 33554687
100
AcDbHatch
 10
0.0
 20
0.0
 30
0.0
210
0.0
220
0.0
230
1.0
  2
SOLID
 70
     1
 71
     1
 91
        1
 92
        1
 93
        1
 72
     4
 94
        3
 73
     0
 74
     0
 95
       35
 96
       31
 40
0.0
 40
0.0
 40
0.0
 40
0.0
 40
1.0
 40
1.0
 40
1.0
 40
2.0
 40
2.0
 40
2.0
 40
3.0
 40
3.0
 40
3.0
 40
4.0
 40
4.0
 40
4.0
 40
5.0
 40
5.0
 40
5.0
 40
6.0
 40
6.0
 40
6.0
 40
7.0
 40
7.0
 40
7.0
 40
8.0
 40
8.0
 40
8.0
 40
9.0
 40
9.0
 40
9.0
 40
10.0
 40
10.0
 40
10.0
 40
10.0
 10
13.45744407426769
 20
-235.2492474124527
 10
13.3953904647397
 20
-235.2492474124527
 10
13.33390129964175
 20
-235.2234946346813
 10
13.28998046742893
 20
-235.1730826902498
 10
13.20951185837075
 20
-235.0803021347178
 10
13.21921324701213
 20
-234.9402140791966
 10
13.31164102243188
 20
-234.8598160236618
 10
13.31164102243188
 20
-234.8598160236618
 10
17.58402674676758
 20
-231.1437254690349
 10
17.58402674676758
 20
-231.1437254690349
 10
17.66752924463725
 20
-231.0710885246083
 10
17.79223618590015
 20
-231.0710885246083
 10
17.87570340599295
 20
-231.1437254690349
 10
17.87570340599295
 20
-231.1437254690349
 10
22.14777163033675
 20
-234.8598160236618
 10
22.14777163033675
 20
-234.8598160236618
 10
22.24005829464898
 20
-234.9402140791966
 10
22.25032412772042
 20
-235.0803021347178
 10
22.16957329644721
 20
-235.1730826902498
 10
22.08924579849653
 20
-235.2652282457826
 10
21.94940469095306
 20
-235.2752471346688
 10
21.85627135999576
 20
-235.1947079680226
 10
21.85627135999576
 20
-235.1947079680226
 10
17.72982979860338
 20
-231.605511580031
 10
17.72982979860338
 20
-231.605511580031
 10
17.72982979860338
 20
-231.605511580031
 10
13.60300018166536
 20
-235.1947079680226
 10
13.60300018166536
 20
-235.1947079680226
 10
13.56126657161896
 20
-235.2313615791239
 10
13.50919657294738
 20
-235.2492474124527
 10
13.45744407426769
 20
-235.2492474124527
 97
        0
 97
        1
330
310
 75
     2
 76
     1
 98
        1
 10
0.0
 20
0.0
450
        0
451
        0
460
0.0
461
0.0
452
        0
462
0.0
453
        0
470

  0
SPLINE
  5
312
330
30C
100
AcDbEntity
  8
Слой 2
100
AcDbSpline
210
0.0
220
0.0
230
1.0
 70
     9
 71
     3
 72
    41
 73
    37
 74
     0
 42
0.0000000001
 43
0.0000000001
 40
0.0
 40
0.0
 40
0.0
 40
0.0
 40
1.0
 40
1.0
 40
1.0
 40
2.0
 40
2.0
 40
2.0
 40
3.0
 40
3.0
 40
3.0
 40
4.0
 40
4.0
 40
4.0
 40
5.0
 40
5.0
 40
5.0
 40
6.0
 40
6.0
 40
6.0
 40
7.0
 40
7.0
 40
7.0
 40
8.0
 40
8.0
 40
8.0
 40
9.0
 40
9.0
 40
9.0
 40
10.0
 40
10.0
 40
10.0
 40
11.0
 40
11.0
 40
11.0
 40
12.0
 40
12.0
 40
12.0
 40
12.0
 10
20.81716444206114
 20
-239.6644376891272
 30
0.0
 10
20.81716444206114
 20
-239.6644376891272
 30
0.0
 10
14.6528668215477
 20
-239.6644376891272
 30
0.0
 10
14.6528668215477
 20
-239.6644376891272
 30
0.0
 10
14.53031182467433
 20
-239.6644376891272
 30
0.0
 10
14.43065210499464
 20
-239.5647779669295
 30
0.0
 10
14.43065210499464
 20
-239.4422229669606
 30
0.0
 10
14.43065210499464
 20
-239.4422229669606
 30
0.0
 10
14.43065210499464
 20
-235.1545265791437
 30
0.0
 10
14.43065210499464
 20
-235.1545265791437
 30
0.0
 10
14.43065210499464
 20
-235.0321126902848
 30
0.0
 10
14.53031182467433
 20
-234.9326999125317
 30
0.0
 10
14.6528668215477
 20
-234.9326999125317
 30
0.0
 10
14.7753512628673
 20
-234.9326999125317
 30
0.0
 10
14.87508153810075
 20
-235.0321126902848
 30
0.0
 10
14.87508153810075
 20
-235.1545265791437
 30
0.0
 10
14.87508153810075
 20
-235.1545265791437
 30
0.0
 10
14.87508153810075
 20
-239.2200082447939
 30
0.0
 10
14.87508153810075
 20
-239.2200082447939
 30
0.0
 10
14.87508153810075
 20
-239.2200082447939
 30
0.0
 10
20.59494972550809
 20
-239.2200082447939
 30
0.0
 10
20.59494972550809
 20
-239.2200082447939
 30
0.0
 10
20.59494972550809
 20
-239.2200082447939
 30
0.0
 10
20.59494972550809
 20
-235.1545265791437
 30
0.0
 10
20.59494972550809
 20
-235.1545265791437
 30
0.0
 10
20.59494972550809
 20
-235.0321126902848
 30
0.0
 10
20.69471527851841
 20
-234.9326999125317
 30
0.0
 10
20.81716444206114
 20
-234.9326999125317
 30
0.0
 10
20.93968416115763
 20
-234.9326999125317
 30
0.0
 10
21.03937915861419
 20
-235.0321126902848
 30
0.0
 10
21.03937915861419
 20
-235.1545265791437
 30
0.0
 10
21.03937915861419
 20
-235.1545265791437
 30
0.0
 10
21.03937915861419
 20
-239.4422229669606
 30
0.0
 10
21.03937915861419
 20
-239.4422229669606
 30
0.0
 10
21.03937915861419
 20
-239.5647779669295
 30
0.0
 10
20.93968416115763
 20
-239.6644376891272
 30
0.0
 10
20.81716444206114
 20
-239.6644376891272
 30
0.0
  0
HATCH
  5
313
330
30C
100
AcDbEntity
  8
Слой 2
 62
   250
420
  3947579
440
 33554687
100
AcDbHatch
 10
0.0
 20
0.0
 30
0.0
210
0.0
220
0.0
230
1.0
  2
SOLID
 70
     1
 71
     1
 91
        1
 92
        1
 93
        1
 72
     4
 94
        3
 73
     0
 74
     0
 95
       41
 96
       37
 40
0.0
 40
0.0
 40
0.0
 40
0.0
 40
1.0
 40
1.0
 40
1.0
 40
2.0
 40
2.0
 40
2.0
 40
3.0
 40
3.0
 40
3.0
 40
4.0
 40
4.0
 40
4.0
 40
5.0
 40
5.0
 40
5.0
 40
6.0
 40
6.0
 40
6.0
 40
7.0
 40
7.0
 40
7.0
 40
8.0
 40
8.0
 40
8.0
 40
9.0
 40
9.0
 40
9.0
 40
10.0
 40
10.0
 40
10.0
 40
11.0
 40
11.0
 40
11.0
 40
12.0
 40
12.0
 40
12.0
 40
12.0
 10
20.81716444206114
 20
-239.6644376891272
 10
20.81716444206114
 20
-239.6644376891272
 10
14.6528668215477
 20
-239.6644376891272
 10
14.6528668215477
 20
-239.6644376891272
 10
14.53031182467433
 20
-239.6644376891272
 10
14.43065210499464
 20
-239.5647779669295
 10
14.43065210499464
 20
-239.4422229669606
 10
14.43065210499464
 20
-239.4422229669606
 10
14.43065210499464
 20
-235.1545265791437
 10
14.43065210499464
 20
-235.1545265791437
 10
14.43065210499464
 20
-235.0321126902848
 10
14.53031182467433
 20
-234.9326999125317
 10
14.6528668215477
 20
-234.9326999125317
 10
14.7753512628673
 20
-234.9326999125317
 10
14.87508153810075
 20
-235.0321126902848
 10
14.87508153810075
 20
-235.1545265791437
 10
14.87508153810075
 20
-235.1545265791437
 10
14.87508153810075
 20
-239.2200082447939
 10
14.87508153810075
 20
-239.2200082447939
 10
14.87508153810075
 20
-239.2200082447939
 10
20.59494972550809
 20
-239.2200082447939
 10
20.59494972550809
 20
-239.2200082447939
 10
20.59494972550809
 20
-239.2200082447939
 10
20.59494972550809
 20
-235.1545265791437
 10
20.59494972550809
 20
-235.1545265791437
 10
20.59494972550809
 20
-235.0321126902848
 10
20.69471527851841
 20
-234.9326999125317
 10
20.81716444206114
 20
-234.9326999125317
 10
20.93968416115763
 20
-234.9326999125317
 10
21.03937915861419
 20
-235.0321126902848
 10
21.03937915861419
 20
-235.1545265791437
 10
21.03937915861419
 20
-235.1545265791437
 10
21.03937915861419
 20
-239.4422229669606
 10
21.03937915861419
 20
-239.4422229669606
 10
21.03937915861419
 20
-239.5647779669295
 10
20.93968416115763
 20
-239.6644376891272
 10
20.81716444206114
 20
-239.6644376891272
 97
        0
 97
        1
330
312
 75
     2
 76
     1
 98
        1
 10
0.0
 20
0.0
450
        0
451
        0
460
0.0
461
0.0
452
        0
462
0.0
453
        0
470

  0
ENDBLK
  5
30F
330
30C
100
AcDbEntity
  8
0
100
AcDbBlockEnd
  0
ENDSEC
  0
SECTION
  2
ENTITIES
  0
LWPOLYLINE
  5
79
330
70
100
AcDbEntity
  8
Слой 3
100
AcDbPolyline
 90
        4
 70
     1
 43
0.0
 10
210.7588863604421
 20
-252.9647796302453
 10
0.785886412935537
 20
-252.9647796302453
 10
0.785886412935537
 20
-42.99177968273838
 10
210.7588863604421
 20
-42.99177968273838
  0
LINE
  5
7B
330
70
100
AcDbEntity
  8
Слой 1
 62
     8
420
  7368559
370
    18
100
AcDbLine
 10
85.55634450290282
 20
-158.0307313076623
 30
0.0
 11
85.55634450290282
 21
-101.4011222295459
 31
0.0
  0
LINE
  5
7C
330
70
100
AcDbEntity
  8
Слой 1
 62
     8
420
  7368559
370
    18
100
AcDbLine
 10
91.4379346142644
 20
-158.0307313076623
 30
0.0
 11
91.4379346142644
 21
-123.6724585567679
 31
0.0
  0
LINE
  5
7D
330
70
100
AcDbEntity
  8
Слой 1
 62
     8
420
  7368559
370
    18
100
AcDbLine
 10
96.040577401344
 20
-149.6131222486967
 30
0.0
 11
96.040577401344
 21
-144.7643380494444
 31
0.0
  0
LINE
  5
7E
330
70
100
AcDbEntity
  8
Слой 1
 62
     8
420
  7368559
370
    18
100
AcDbLine
 10
96.040577401344
 20
-158.0307313076623
 30
0.0
 11
96.040577401344
 21
-149.6131222486967
 31
0.0
  0
LINE
  5
7F
330
70
100
AcDbEntity
  8
Слой 1
 62
     8
420
  7368559
370
    18
100
AcDbLine
 10
96.040577401344
 20
-162.8795155069146
 30
0.0
 11
96.040577401344
 21
-158.0307313076623
 31
0.0
  0
LINE
  5
80
330
70
100
AcDbEntity
  8
Слой 1
 62
     8
420
  7368559
370
    18
100
AcDbLine
 10
100.8890251316066
 20
-158.6204649415091
 30
0.0
 11
100.8890251316066
 21
-175.1730992999375
 31
0.0
  0
LINE
  5
81
330
70
100
AcDbEntity
  8
Слой 1
 62
     8
420
  7368559
370
    18
100
AcDbLine
 10
100.8890251316066
 20
-167.6281414950239
 30
0.0
 11
188.4106529772917
 21
-167.6281414950239
 31
0.0
  0
LINE
  5
82
330
70
100
AcDbEntity
  8
Слой 1
 62
     8
420
  7368559
370
    18
100
AcDbLine
 10
113.7120122508586
 20
-123.0827249229209
 30
0.0
 11
113.7120122508586
 21
-89.70904912016132
 31
0.0
  0
LINE
  5
83
330
70
100
AcDbEntity
  8
Слой 1
 62
     8
420
  7368559
370
    18
100
AcDbLine
 10
100.7915899718275
 20
-158.0307313076623
 30
0.0
 11
84.59739223007984
 21
-158.0307313076623
 31
0.0
  0
LINE
  5
84
330
70
100
AcDbEntity
  8
Слой 1
 62
     8
420
  7368559
370
    18
100
AcDbLine
 10
122.6478983199071
 20
-111.8344048546404
 30
0.0
 11
122.6478983199071
 21
-95.2474017368481
 31
0.0
  0
LINE
  5
85
330
70
100
AcDbEntity
  8
Слой 1
 62
     8
420
  7368559
370
    18
100
AcDbLine
 10
101.0120997501234
 20
-149.6131222486967
 30
0.0
 11
95.08162252023387
 21
-149.6131222486967
 31
0.0
  0
LINE
  5
86
330
70
100
AcDbEntity
  8
Слой 1
 62
     8
420
  7368559
370
    18
100
AcDbLine
 10
113.147918075751
 20
-123.6724585567679
 30
0.0
 11
90.47932141871816
 21
-123.6724585567679
 31
0.0
  0
LINE
  5
87
330
70
100
AcDbEntity
  8
Слой 1
 62
     8
420
  7368559
370
    18
100
AcDbLine
 10
166.6288816396246
 20
-111.8344048546404
 30
0.0
 11
166.6288816396246
 21
-95.2474017368481
 31
0.0
  0
LINE
  5
88
330
70
100
AcDbEntity
  8
Слой 1
 62
     8
420
  7368559
370
    18
100
AcDbLine
 10
175.5876684663263
 20
-123.0827249229209
 30
0.0
 11
175.5876684663263
 21
-89.70904912016132
 31
0.0
  0
LINE
  5
89
330
70
100
AcDbEntity
  8
Слой 1
 62
     8
420
  7368559
370
    18
100
AcDbLine
 10
124.2475240667765
 20
-101.4011222295459
 30
0.0
 11
84.59739223007984
 21
-101.4011222295459
 31
0.0
  0
LINE
  5
8A
330
70
100
AcDbEntity
  8
Слой 1
 62
     8
420
  7368559
370
    18
100
AcDbLine
 10
122.6478983199071
 20
-96.20635400967207
 30
0.0
 11
166.6288816396246
 21
-96.20635400967207
 31
0.0
  0
LINE
  5
8B
330
70
100
AcDbEntity
  8
Слой 1
 62
     8
420
  7368559
370
    18
100
AcDbLine
 10
113.7120122508586
 20
-90.67073487749764
 30
0.0
 11
175.5876684663263
 21
-90.67073487749764
 31
0.0
  0
LINE
  5
8C
330
70
100
AcDbEntity
  8
Слой 1
 62
     8
420
  7368559
370
    18
100
AcDbLine
 10
188.4106529772917
 20
-158.6204649415091
 30
0.0
 11
188.4106529772917
 21
-168.5894933916562
 31
0.0
  0
LINE
  5
8D
330
70
100
AcDbEntity
  8
Слой 1
 62
     8
420
  7368559
370
    18
100
AcDbLine
 10
19.04206330569669
 20
-166.2999601500774
 30
0.0
 11
69.99345777474521
 21
-166.2999601500774
 31
0.0
  0
LINE
  5
8E
330
70
100
AcDbEntity
  8
Слой 1
 62
     8
420
  7368559
370
    18
100
AcDbLine
 10
19.04206330569669
 20
-158.6204649415091
 30
0.0
 11
19.04206330569669
 21
-167.2845570982126
 31
0.0
  0
LINE
  5
8F
330
70
100
AcDbEntity
  8
Слой 1
 62
     8
420
  7368559
370
    18
100
AcDbLine
 10
69.87862118968874
 20
-158.6204649415091
 30
0.0
 11
69.87862118968874
 21
-167.2845570982126
 31
0.0
  0
INSERT
  5
91
330
70
100
AcDbEntity
  8
Слой 1
100
AcDbBlockReference
  2
Block_0
 10
0.0
 20
0.0
 30
0.0
  0
MTEXT
  5
D2
330
70
100
AcDbEntity
  8
Слой 1
100
AcDbMText
 10
40.06008706680789
 20
-165.5871364603393
 30
0.0
 40
0.2
 41
0.0
 46
0.0
 71
     7
 72
     1
  1
\C8;\c7303024;\FDINPro-Regular|b0|i0|c1;\H2.571458;\W1.000000;52.5
 73
     1
 44
1.0
  0
MTEXT
  5
D3
330
70
100
AcDbEntity
  8
Слой 1
100
AcDbMText
 10
142.7495984886181
 20
-89.97366398575312
 30
0.0
 40
0.2
 41
0.0
 46
0.0
 71
     7
 72
     1
  1
\C8;\c7303024;\FDINPro-Regular|b0|i0|c1;\H2.571458;\W1.000000;63.8
 73
     1
 44
1.0
  0
MTEXT
  5
D4
330
70
100
AcDbEntity
  8
Слой 1
100
AcDbMText
 10
142.5136094478785
 20
-95.51217174261502
 30
0.0
 40
0.2
 41
0.0
 46
0.0
 71
     7
 72
     1
  1
\C8;\c7303024;\FDINPro-Regular|b0|i0|c1;\H2.571458;\W1.000000;45.4
 73
     1
 44
1.0
  0
MTEXT
  5
D5
330
70
100
AcDbEntity
  8
Слой 1
100
AcDbMText
 10
141.0973306938923
 20
-166.6816432960032
 30
0.0
 40
0.2
 41
0.0
 46
0.0
 71
     7
 72
     1
  1
\C8;\c7303024;\FDINPro-Regular|b0|i0|c1;\H2.571458;\W1.000000;90.3
 73
     1
 44
1.0
  0
LINE
  5
D6
330
70
100
AcDbEntity
  8
Слой 1
 62
     8
420
  7368559
370
    18
100
AcDbLine
 10
100.8890251316066
 20
-173.9841452449031
 30
0.0
 11
190.8231990899635
 21
-173.9841452449031
 31
0.0
  0
LINE
  5
D7
330
70
100
AcDbEntity
  8
Слой 1
 62
     8
420
  7368559
370
    18
100
AcDbLine
 10
190.8231990899635
 20
-158.6204649415091
 30
0.0
 11
190.8231990899635
 21
-174.9454971415353
 31
0.0
  0
MTEXT
  5
D8
330
70
100
AcDbEntity
  8
Слой 1
100
AcDbMText
 10
140.9946668484319
 20
-173.0381889758376
 30
0.0
 40
0.2
 41
0.0
 46
0.0
 71
     7
 72
     1
  1
\C8;\c7303024;\FDINPro-Regular|b0|i0|c1;\H2.571458;\W1.027570;92.6
 73
     1
 44
1.0
  0
MTEXT
  5
D9
330
70
100
AcDbEntity
  8
Слой 1
100
AcDbMText
 10
84.59793699056927
 20
-133.2599107197232
 30
0.0
 40
0.2
 41
0.0
 46
0.0
 71
     7
 72
     1
  1
\C8;\c7303024;\FDINPro-Regular|b0|i0|c1;\H2.571458;\W1.000000;58.5
 11
0.0000000000000001
 21
1.0
 31
0.0
 73
     1
 44
1.0
  0
MTEXT
  5
DA
330
70
100
AcDbEntity
  8
Слой 1
100
AcDbMText
 10
90.47957625776204
 20
-143.7478149054693
 30
0.0
 40
0.2
 41
0.0
 46
0.0
 71
     7
 72
     1
  1
\C8;\c7303024;\FDINPro-Regular|b0|i0|c1;\H2.571458;\W1.000000;35.5
 11
0.0000000000000001
 21
1.0
 31
0.0
 73
     1
 44
1.0
  0
MTEXT
  5
DB
330
70
100
AcDbEntity
  8
Слой 1
100
AcDbMText
 10
95.2830728928459
 20
-155.9622286936483
 30
0.0
 40
0.2
 41
0.0
 46
0.0
 71
     7
 72
     1
  1
\C8;\c7303024;\FDINPro-Regular|b0|i0|c1;\H2.571458;\W1.000000;8.7
 11
0.0000000000000001
 21
1.0
 31
0.0
 73
     1
 44
1.0
  0
INSERT
  5
DD
330
70
100
AcDbEntity
  8
Слой 1
100
AcDbBlockReference
  2
Block_1
 10
0.0
 20
0.0
 30
0.0
  0
INSERT
  5
E8
330
70
100
AcDbEntity
  8
Слой 1
100
AcDbBlockReference
  2
Block_2
 10
0.0
 20
0.0
 30
0.0
  0
INSERT
  5
2D2
330
70
100
AcDbEntity
  8
Слой 2
100
AcDbBlockReference
  2
Block_3
 10
0.0
 20
0.0
 30
0.0
  0
MTEXT
  5
2F5
330
70
100
AcDbEntity
  8
Слой 2
100
AcDbMText
 10
9.781358165414903
 20
-58.55216461413258
 30
0.0
 40
0.2
 41
0.0
 46
0.0
 71
     7
 72
     1
  1
\C250;\c3882044;\FDINPro-Light|b0|i0|c1;\H5.494867;\W1.000000;ИСТОЧНИКИ НАПРЯЖЕНИЯ 
 73
     1
 44
1.0
  0
MTEXT
  5
2F6
330
70
100
AcDbEntity
  8
Слой 2
100
AcDbMText
 10
9.781358165414903
 20
-67.86563574895699
 30
0.0
 40
0.2
 41
0.0
 46
0.0
 71
     7
 72
     1
  1
\C250;\c3882044;\FDINPro-Light|b0|i0|c1;\H5.494867;\W1.000000;СЕРИИ ARV-DR
 73
     1
 44
1.0
  0
MTEXT
  5
2F7
330
70
100
AcDbEntity
  8
Слой 2
100
AcDbMText
 10
9.781358165414903
 20
-77.17876237423287
 30
0.0
 40
0.2
 41
0.0
 46
0.0
 71
     7
 72
     1
  1
\C250;\c3882044;\FDINPro-Light|b0|i0|c1;\H5.494867;\W1.000000;ARV-DR60-12/24/48
 73
     1
 44
1.0
  0
INSERT
  5
2F9
330
70
100
AcDbEntity
  8
Слой 2
100
AcDbBlockReference
  2
Block_6
 10
0.0
 20
0.0
 30
0.0
  0
ENDSEC
  0
SECTION
  2
OBJECTS
  0
DICTIONARY
  5
C
330
0
100
AcDbDictionary
281
     1
  3
ACAD_COLOR
350
63
  3
ACAD_DETAILVIEWSTYLE
350
6A
  3
ACAD_GROUP
350
D
  3
ACAD_LAYOUT
350
62
  3
ACAD_MATERIAL
350
10
  3
ACAD_MLEADERSTYLE
350
66
  3
ACAD_MLINESTYLE
350
5F
  3
ACAD_PLOTSETTINGS
350
61
  3
ACAD_PLOTSTYLENAME
350
E
  3
ACAD_SCALELIST
350
42
  3
ACAD_SECTIONVIEWSTYLE
350
68
  3
ACAD_TABLESTYLE
350
64
  3
ACAD_VISUALSTYLE
350
29
  3
ACDB_RECOMPOSE_DATA
350
31C
  3
AcDbVariableDictionary
350
314
  0
DICTIONARY
  5
63
102
{ACAD_REACTORS
330
C
102
}
330
C
100
AcDbDictionary
281
     1
  0
DICTIONARY
  5
6A
102
{ACAD_REACTORS
330
C
102
}
330
C
100
AcDbDictionary
281
     1
  3
Imperial24
350
6B
  0
DICTIONARY
  5
D
102
{ACAD_REACTORS
330
C
102
}
330
C
100
AcDbDictionary
281
     1
  0
DICTIONARY
  5
62
102
{ACAD_REACTORS
330
C
102
}
330
C
100
AcDbDictionary
281
     1
  3
Layout1
350
6F
  3
Layout2
350
77
  3
Model
350
73
  0
DICTIONARY
  5
10
102
{ACAD_REACTORS
330
C
102
}
330
C
100
AcDbDictionary
281
     1
  3
ByBlock
350
19
  3
ByLayer
350
11
  3
Global
350
21
  0
DICTIONARY
  5
66
102
{ACAD_REACTORS
330
C
102
}
330
C
100
AcDbDictionary
281
     1
  3
Standard
350
67
  0
DICTIONARY
  5
5F
102
{ACAD_REACTORS
330
C
102
}
330
C
100
AcDbDictionary
281
     1
  3
Standard
350
60
  0
DICTIONARY
  5
61
102
{ACAD_REACTORS
330
C
102
}
330
C
100
AcDbDictionary
281
     1
  0
ACDBDICTIONARYWDFLT
  5
E
102
{ACAD_REACTORS
330
C
102
}
330
C
100
AcDbDictionary
281
     1
  3
Normal
350
F
100
AcDbDictionaryWithDefault
340
F
  0
DICTIONARY
  5
42
102
{ACAD_REACTORS
330
C
102
}
330
C
100
AcDbDictionary
281
     1
  3
A0
350
43
  3
A1
350
44
  3
A2
350
45
  3
A3
350
46
  3
A4
350
47
  3
A5
350
48
  3
A6
350
49
  3
A7
350
4A
  3
A8
350
4B
  3
A9
350
4C
  3
B0
350
4D
  3
B1
350
4E
  3
B2
350
4F
  3
B3
350
50
  3
B4
350
51
  3
B5
350
52
  3
B6
350
53
  0
DICTIONARY
  5
68
102
{ACAD_REACTORS
330
C
102
}
330
C
100
AcDbDictionary
281
     1
  3
Imperial24
350
69
  0
DICTIONARY
  5
64
102
{ACAD_REACTORS
330
C
102
}
330
C
100
AcDbDictionary
281
     1
  3
Standard
350
65
  0
DICTIONARY
  5
29
102
{ACAD_REACTORS
330
C
102
}
330
C
100
AcDbDictionary
281
     1
  3
2dWireframe
350
2F
  3
Basic
350
2E
  3
Brighten
350
35
  3
ColorChange
350
39
  3
Conceptual
350
32
  3
Dim
350
34
  3
EdgeColorOff
350
41
  3
Facepattern
350
38
  3
Flat
350
2A
  3
FlatWithEdges
350
2B
  3
Gouraud
350
2C
  3
GouraudWithEdges
350
2D
  3
Hidden
350
31
  3
JitterOff
350
3F
  3
Linepattern
350
37
  3
OverhangOff
350
40
  3
Realistic
350
33
  3
Shaded
350
3E
  3
Shaded with edges
350
3D
  3
Shades of Gray
350
3A
  3
Sketchy
350
3B
  3
Thicken
350
36
  3
Wireframe
350
30
  3
X-Ray
350
3C
  0
XRECORD
  5
31C
102
{ACAD_REACTORS
330
C
102
}
330
C
100
AcDbXrecord
280
     1
 90
        1
330
65
  0
DICTIONARY
  5
314
102
{ACAD_REACTORS
330
C
102
}
330
C
100
AcDbDictionary
281
     1
  3
CANNOSCALE
350
319
  3
CMLEADERSTYLE
350
316
  3
CTABLESTYLE
350
315
  3
CVIEWDETAILSTYLE
350
317
  3
CVIEWSECTIONSTYLE
350
318
  0
ACDBDETAILVIEWSTYLE
  5
6B
102
{ACAD_REACTORS
330
6A
102
}
330
6A
100
AcDbModelDocViewStyle
 70
     0
  3
Imperial24
290
     1
300
Imperial24
 90
        0
100
AcDbDetailViewStyle
 70
     0
 71
     0
 90
        3
 71
     1
340
55
 62
   256
 40
0.24
340
0
 62
   256
 40
0.24
300

 40
0.36
280
     3
 71
     2
340
5D
 90
       25
 62
   256
 71
     3
340
55
 62
   256
 40
0.24
 90
        1
 40
0.75
 90
        1
300
%<\AcVar ViewType \f "%tc1">% %<\AcVar ViewDetailId>%\PSCALE %<\AcVar ViewScale \f "%sn">%
 71
     4
340
5D
 90
       25
 62
   256
340
5D
 90
       25
 62
   256
280
     0
  0
LAYOUT
  5
6F
102
{ACAD_REACTORS
330
62
102
}
330
62
100
AcDbPlotSettings
  1

  2

  4

  6

 40
0.0
 41
0.0
 42
0.0
 43
0.0
 44
0.0
 45
0.0
 46
0.0
 47
0.0
 48
0.0
 49
0.0
140
0.0
141
0.0
142
1.0
143
1.0
 70
   688
 72
     0
 73
     0
 74
     5
  7

 75
    16
147
1.0
 76
     0
 77
     2
 78
   300
148
0.0
149
0.0
100
AcDbLayout
  1
Layout1
 70
     1
 71
     1
 10
0.0
 20
0.0
 11
12.0
 21
9.0
 12
0.0
 22
0.0
 32
0.0
 14
0.0
 24
0.0
 34
0.0
 15
0.0
 25
0.0
 35
0.0
146
0.0
 13
0.0
 23
0.0
 33
0.0
 16
1.0
 26
0.0
 36
0.0
 17
0.0
 27
1.0
 37
0.0
 76
     0
330
6C
  0
LAYOUT
  5
77
102
{ACAD_REACTORS
330
62
102
}
330
62
100
AcDbPlotSettings
  1

  2

  4

  6

 40
0.0
 41
0.0
 42
0.0
 43
0.0
 44
0.0
 45
0.0
 46
0.0
 47
0.0
 48
0.0
 49
0.0
140
0.0
141
0.0
142
1.0
143
1.0
 70
   688
 72
     0
 73
     0
 74
     5
  7

 75
    16
147
1.0
 76
     0
 77
     2
 78
   300
148
0.0
149
0.0
100
AcDbLayout
  1
Layout2
 70
     1
 71
     2
 10
0.0
 20
0.0
 11
12.0
 21
9.0
 12
0.0
 22
0.0
 32
0.0
 14
0.0
 24
0.0
 34
0.0
 15
0.0
 25
0.0
 35
0.0
146
0.0
 13
0.0
 23
0.0
 33
0.0
 16
1.0
 26
0.0
 36
0.0
 17
0.0
 27
1.0
 37
0.0
 76
     0
330
74
  0
LAYOUT
  5
73
102
{ACAD_REACTORS
330
62
102
}
330
62
100
AcDbPlotSettings
  1

  2

  4

  6

 40
0.0
 41
0.0
 42
0.0
 43
0.0
 44
0.0
 45
0.0
 46
0.0
 47
0.0
 48
0.0
 49
0.0
140
0.0
141
0.0
142
1.0
143
1.0
 70
  1712
 72
     0
 73
     0
 74
     0
  7

 75
     0
147
1.0
 76
     0
 77
     2
 78
   300
148
0.0
149
0.0
100
AcDbLayout
  1
Model
 70
     1
 71
     0
 10
0.0
 20
0.0
 11
12.0
 21
9.0
 12
0.0
 22
0.0
 32
0.0
 14
0.0
 24
0.0
 34
0.0
 15
0.0
 25
0.0
 35
0.0
146
0.0
 13
0.0
 23
0.0
 33
0.0
 16
1.0
 26
0.0
 36
0.0
 17
0.0
 27
1.0
 37
0.0
 76
     0
330
70
  0
MATERIAL
  5
19
102
{ACAD_XDICTIONARY
360
1A
102
}
102
{ACAD_REACTORS
330
10
102
}
330
10
100
AcDbMaterial
  1
ByBlock
 72
     0
 43
0.0208333333333333
 43
0.0
 43
0.0
 43
0.0
 43
0.0
 43
0.0208333333333333
 43
0.0
 43
0.0
 43
0.0
 43
0.0
 43
1.0
 43
0.0
 43
0.0
 43
0.0
 43
0.0
 43
1.0
 77
     0
 47
0.0208333333333333
 47
0.0
 47
0.0
 47
0.0
 47
0.0
 47
0.0208333333333333
 47
0.0
 47
0.0
 47
0.0
 47
0.0
 47
1.0
 47
0.0
 47
0.0
 47
0.0
 47
0.0
 47
1.0
171
     0
 49
0.0208333333333333
 49
0.0
 49
0.0
 49
0.0
 49
0.0
 49
0.0208333333333333
 49
0.0
 49
0.0
 49
0.0
 49
0.0
 49
1.0
 49
0.0
 49
0.0
 49
0.0
 49
0.0
 49
1.0
175
     0
142
0.0208333333333333
142
0.0
142
0.0
142
0.0
142
0.0
142
0.0208333333333333
142
0.0
142
0.0
142
0.0
142
0.0
142
1.0
142
0.0
142
0.0
142
0.0
142
0.0
142
1.0
179
     0
144
0.0208333333333333
144
0.0
144
0.0
144
0.0
144
0.0
144
0.0208333333333333
144
0.0
144
0.0
144
0.0
144
0.0
144
1.0
144
0.0
144
0.0
144
0.0
144
0.0
144
1.0
147
0.0208333333333333
147
0.0
147
0.0
147
0.0
147
0.0
147
0.0208333333333333
147
0.0
147
0.0
147
0.0
147
0.0
147
1.0
147
0.0
147
0.0
147
0.0
147
0.0
147
1.0
  0
MATERIAL
  5
11
102
{ACAD_XDICTIONARY
360
12
102
}
102
{ACAD_REACTORS
330
10
102
}
330
10
100
AcDbMaterial
  1
ByLayer
 72
     0
 43
0.0208333333333333
 43
0.0
 43
0.0
 43
0.0
 43
0.0
 43
0.0208333333333333
 43
0.0
 43
0.0
 43
0.0
 43
0.0
 43
1.0
 43
0.0
 43
0.0
 43
0.0
 43
0.0
 43
1.0
 77
     0
 47
0.0208333333333333
 47
0.0
 47
0.0
 47
0.0
 47
0.0
 47
0.0208333333333333
 47
0.0
 47
0.0
 47
0.0
 47
0.0
 47
1.0
 47
0.0
 47
0.0
 47
0.0
 47
0.0
 47
1.0
171
     0
 49
0.0208333333333333
 49
0.0
 49
0.0
 49
0.0
 49
0.0
 49
0.0208333333333333
 49
0.0
 49
0.0
 49
0.0
 49
0.0
 49
1.0
 49
0.0
 49
0.0
 49
0.0
 49
0.0
 49
1.0
175
     0
142
0.0208333333333333
142
0.0
142
0.0
142
0.0
142
0.0
142
0.0208333333333333
142
0.0
142
0.0
142
0.0
142
0.0
142
1.0
142
0.0
142
0.0
142
0.0
142
0.0
142
1.0
179
     0
144
0.0208333333333333
144
0.0
144
0.0
144
0.0
144
0.0
144
0.0208333333333333
144
0.0
144
0.0
144
0.0
144
0.0
144
1.0
144
0.0
144
0.0
144
0.0
144
0.0
144
1.0
147
0.0208333333333333
147
0.0
147
0.0
147
0.0
147
0.0
147
0.0208333333333333
147
0.0
147
0.0
147
0.0
147
0.0
147
1.0
147
0.0
147
0.0
147
0.0
147
0.0
147
1.0
  0
MATERIAL
  5
21
102
{ACAD_XDICTIONARY
360
22
102
}
102
{ACAD_REACTORS
330
10
102
}
330
10
100
AcDbMaterial
  1
Global
 72
     0
 43
0.0208333333333333
 43
0.0
 43
0.0
 43
0.0
 43
0.0
 43
0.0208333333333333
 43
0.0
 43
0.0
 43
0.0
 43
0.0
 43
1.0
 43
0.0
 43
0.0
 43
0.0
 43
0.0
 43
1.0
 77
     0
 47
0.0208333333333333
 47
0.0
 47
0.0
 47
0.0
 47
0.0
 47
0.0208333333333333
 47
0.0
 47
0.0
 47
0.0
 47
0.0
 47
1.0
 47
0.0
 47
0.0
 47
0.0
 47
0.0
 47
1.0
171
     0
 49
0.0208333333333333
 49
0.0
 49
0.0
 49
0.0
 49
0.0
 49
0.0208333333333333
 49
0.0
 49
0.0
 49
0.0
 49
0.0
 49
1.0
 49
0.0
 49
0.0
 49
0.0
 49
0.0
 49
1.0
175
     0
142
0.0208333333333333
142
0.0
142
0.0
142
0.0
142
0.0
142
0.0208333333333333
142
0.0
142
0.0
142
0.0
142
0.0
142
1.0
142
0.0
142
0.0
142
0.0
142
0.0
142
1.0
179
     0
144
0.0208333333333333
144
0.0
144
0.0
144
0.0
144
0.0
144
0.0208333333333333
144
0.0
144
0.0
144
0.0
144
0.0
144
1.0
144
0.0
144
0.0
144
0.0
144
0.0
144
1.0
147
0.0208333333333333
147
0.0
147
0.0
147
0.0
147
0.0
147
0.0208333333333333
147
0.0
147
0.0
147
0.0
147
0.0
147
1.0
147
0.0
147
0.0
147
0.0
147
0.0
147
1.0
  0
MLEADERSTYLE
  5
67
102
{ACAD_REACTORS
330
66
102
}
330
66
100
AcDbMLeaderStyle
179
     2
170
     2
171
     1
172
     0
 90
        2
 40
0.0
 41
0.0
173
     1
 91
-1056964608
340
5B
 92
       -2
290
     1
 42
0.09
291
     1
 43
0.36
  3
Standard
 44
0.18
300

342
55
174
     1
178
     6
175
     1
176
     0
 93
-1056964608
 45
0.18
292
     0
297
     0
 46
0.18
 94
-1056964608
 47
1.0
 49
1.0
140
1.0
293
     1
141
0.0
294
     1
177
     0
142
1.0
295
     1
296
     0
143
0.125
271
     0
272
     9
273
     9
298
     1
  0
MLINESTYLE
  5
60
102
{ACAD_REACTORS
330
5F
102
}
330
5F
100
AcDbMlineStyle
  2
STANDARD
 70
     0
  3

 62
   256
 51
90.0
 52
90.0
 71
     2
 49
0.5
 62
   256
  6
BYLAYER
 49
-0.5
 62
   256
  6
BYLAYER
  0
ACDBPLACEHOLDER
  5
F
102
{ACAD_REACTORS
330
E
102
}
330
E
  0
SCALE
  5
43
102
{ACAD_REACTORS
330
42
102
}
330
42
100
AcDbScale
 70
     0
300
1:1
140
1.0
141
1.0
290
     1
  0
SCALE
  5
44
102
{ACAD_REACTORS
330
42
102
}
330
42
100
AcDbScale
 70
     0
300
1/128" = 1'-0"
140
0.0078125
141
12.0
290
     0
  0
SCALE
  5
45
102
{ACAD_REACTORS
330
42
102
}
330
42
100
AcDbScale
 70
     0
300
1/64" = 1'-0"
140
0.015625
141
12.0
290
     0
  0
SCALE
  5
46
102
{ACAD_REACTORS
330
42
102
}
330
42
100
AcDbScale
 70
     0
300
1/32" = 1'-0"
140
0.03125
141
12.0
290
     0
  0
SCALE
  5
47
102
{ACAD_REACTORS
330
42
102
}
330
42
100
AcDbScale
 70
     0
300
1/16" = 1'-0"
140
0.0625
141
12.0
290
     0
  0
SCALE
  5
48
102
{ACAD_REACTORS
330
42
102
}
330
42
100
AcDbScale
 70
     0
300
3/32" = 1'-0"
140
0.09375
141
12.0
290
     0
  0
SCALE
  5
49
102
{ACAD_REACTORS
330
42
102
}
330
42
100
AcDbScale
 70
     0
300
1/8" = 1'-0"
140
0.125
141
12.0
290
     0
  0
SCALE
  5
4A
102
{ACAD_REACTORS
330
42
102
}
330
42
100
AcDbScale
 70
     0
300
3/16" = 1'-0"
140
0.1875
141
12.0
290
     0
  0
SCALE
  5
4B
102
{ACAD_REACTORS
330
42
102
}
330
42
100
AcDbScale
 70
     0
300
1/4" = 1'-0"
140
0.25
141
12.0
290
     0
  0
SCALE
  5
4C
102
{ACAD_REACTORS
330
42
102
}
330
42
100
AcDbScale
 70
     0
300
3/8" = 1'-0"
140
0.375
141
12.0
290
     0
  0
SCALE
  5
4D
102
{ACAD_REACTORS
330
42
102
}
330
42
100
AcDbScale
 70
     0
300
1/2" = 1'-0"
140
0.5
141
12.0
290
     0
  0
SCALE
  5
4E
102
{ACAD_REACTORS
330
42
102
}
330
42
100
AcDbScale
 70
     0
300
3/4" = 1'-0"
140
0.75
141
12.0
290
     0
  0
SCALE
  5
4F
102
{ACAD_REACTORS
330
42
102
}
330
42
100
AcDbScale
 70
     0
300
1" = 1'-0"
140
1.0
141
12.0
290
     0
  0
SCALE
  5
50
102
{ACAD_REACTORS
330
42
102
}
330
42
100
AcDbScale
 70
     0
300
1-1/2" = 1'-0"
140
1.5
141
12.0
290
     0
  0
SCALE
  5
51
102
{ACAD_REACTORS
330
42
102
}
330
42
100
AcDbScale
 70
     0
300
3" = 1'-0"
140
3.0
141
12.0
290
     0
  0
SCALE
  5
52
102
{ACAD_REACTORS
330
42
102
}
330
42
100
AcDbScale
 70
     0
300
6" = 1'-0"
140
6.0
141
12.0
290
     0
  0
SCALE
  5
53
102
{ACAD_REACTORS
330
42
102
}
330
42
100
AcDbScale
 70
     0
300
1'-0" = 1'-0"
140
12.0
141
12.0
290
     0
  0
ACDBSECTIONVIEWSTYLE
  5
69
102
{ACAD_REACTORS
330
68
102
}
330
68
100
AcDbModelDocViewStyle
 70
     0
  3
Imperial24
290
     1
300
Imperial24
 90
        0
100
AcDbSectionViewStyle
 70
     0
 71
     0
 90
       78
 71
     1
340
55
 62
   256
 40
0.24
340
0
340
0
 62
   256
 40
0.24
300
I, O, Q, S, X, Z
 40
0.48
 90
        3
 40
0.18
 90
        1
 71
     2
340
5D
 90
       25
 62
   256
340
5D
 90
       50
 62
   256
 40
0.24
 40
0.0
 40
0.24
 71
     3
340
55
 62
   256
 40
0.24
 90
        1
 40
0.75
 90
        1
300
%<\AcVar ViewType \f "%tc1">% %<\AcVar ViewSectionStartId>%-%<\AcVar ViewSectionEndId>%\PSCALE %<\AcVar ViewScale \f "%sn">%
 71
     4
 62
   256
 62
   257
300
ANSI31
 40
1.0
 90
        0
290
     0
290
     0
 90
        6
 40
0.0
 40
1.570796326794896
 40
0.2617993877991494
 40
1.308996938995747
 40
-0.2617993877991494
 40
1.832595714594046
  0
TABLESTYLE
  5
65
102
{ACAD_XDICTIONARY
360
31A
102
}
102
{ACAD_REACTORS
330
64
102
}
330
64
100
AcDbTableStyle
280
     0
  3
Standard
 70
     0
 71
     0
 40
0.06
 41
0.06
280
     0
281
     0
  7
Standard
140
0.18
170
     2
 62
     0
 63
     7
283
     0
 90
      512
 91
        0
  1

274
    -2
284
     1
 64
     0
275
    -2
285
     1
 65
     0
276
    -2
286
     1
 66
     0
277
    -2
287
     1
 67
     0
278
    -2
288
     1
 68
     0
279
    -2
289
     1
 69
     0
  7
Standard
140
0.25
170
     5
 62
     0
 63
     7
283
     0
 90
      512
 91
        0
  1

274
    -2
284
     1
 64
     0
275
    -2
285
     1
 65
     0
276
    -2
286
     1
 66
     0
277
    -2
287
     1
 67
     0
278
    -2
288
     1
 68
     0
279
    -2
289
     1
 69
     0
  7
Standard
140
0.18
170
     5
 62
     0
 63
     7
283
     0
 90
      512
 91
        0
  1

274
    -2
284
     1
 64
     0
275
    -2
285
     1
 65
     0
276
    -2
286
     1
 66
     0
277
    -2
287
     1
 67
     0
278
    -2
288
     1
 68
     0
279
    -2
289
     1
 69
     0
  0
VISUALSTYLE
  5
2F
102
{ACAD_REACTORS
330
29
102
}
330
29
100
AcDbVisualStyle
  2
2dWireframe
 70
     4
177
     3
291
     0
 70
    58
 90
        0
176
     1
 90
        2
176
     1
 90
        0
176
     1
 90
        0
176
     1
 40
0.6
176
     1
 40
30.0
176
     1
 62
     7
420
 16777215
176
     1
 90
        1
176
     1
 90
        4
176
     1
 62
     7
176
     1
 62
   257
176
     1
 90
        1
176
     1
 90
        1
176
     1
 40
1.0
176
     1
 90
        0
176
     1
 62
   257
176
     1
 40
1.0
176
     1
 90
        1
176
     1
 90
        6
176
     1
 90
        2
176
     1
 62
     7
176
     1
 90
        5
176
     1
 90
        0
176
     1
 90
        0
176
     1
290
     0
176
     1
 90
        1
176
     1
 40
0.0
176
     1
 90
        0
176
     1
290
     1
176
     1
290
     1
176
     1
290
     0
176
     1
290
     0
176
     1
290
     0
176
     1
290
     0
176
     1
290
     0
176
     1
290
     0
176
     1
290
     0
176
     1
 90
       50
176
     1
 40
0.0
176
     1
 40
1.0
176
     1
 90
        0
176
     1
 62
    18
420
        0
176
     1
 90
       50
176
     1
 90
        3
176
     1
 62
     5
420
      255
176
     1
290
     0
176
     1
 90
       50
176
     1
 90
       50
176
     1
 90
       50
176
     1
290
     0
176
     1
 90
       50
176
     1
 62
   256
176
     0
 40
1.0
176
     0
 90
        2
176
     1
  1
strokes_ogs.tif
176
     1
290
     0
176
     1
 40
1.0
176
     1
 40
1.0
176
     1
  0
VISUALSTYLE
  5
2E
102
{ACAD_REACTORS
330
29
102
}
330
29
100
AcDbVisualStyle
  2
Basic
 70
     7
177
     3
291
     1
 70
    58
 90
        1
176
     1
 90
        0
176
     1
 90
        1
176
     1
 90
        0
176
     1
 40
0.6
176
     1
 40
30.0
176
     1
 62
     7
420
 16777215
176
     1
 90
        0
176
     1
 90
        4
176
     1
 62
     7
176
     1
 62
   257
176
     1
 90
        1
176
     1
 90
        1
176
     1
 40
1.0
176
     1
 90
        8
176
     1
 62
     7
176
     1
 40
1.0
176
     1
 90
        1
176
     1
 90
        6
176
     1
 90
        2
176
     1
 62
     7
176
     1
 90
        5
176
     1
 90
        0
176
     1
 90
        0
176
     1
290
     0
176
     1
 90
        1
176
     1
 40
0.0
176
     1
 90
        0
176
     1
290
     0
176
     1
290
     1
176
     1
290
     1
176
     1
290
     0
176
     1
290
     0
176
     1
290
     0
176
     1
290
     0
176
     1
290
     0
176
     1
290
     0
176
     1
 90
       50
176
     1
 40
0.0
176
     1
 40
1.0
176
     1
 90
        0
176
     1
 62
    18
420
        0
176
     1
 90
       50
176
     1
 90
        3
176
     1
 62
     5
420
      255
176
     1
290
     0
176
     1
 90
       50
176
     1
 90
       50
176
     1
 90
       50
176
     1
290
     0
176
     1
 90
       50
176
     1
 62
   256
176
     0
 40
1.0
176
     0
 90
        2
176
     1
  1
strokes_ogs.tif
176
     1
290
     0
176
     1
 40
1.0
176
     1
 40
1.0
176
     1
  0
VISUALSTYLE
  5
35
102
{ACAD_REACTORS
330
29
102
}
330
29
100
AcDbVisualStyle
  2
Brighten
 70
    12
177
     3
291
     1
 70
    58
 90
        2
176
     1
 90
        2
176
     1
 90
        0
176
     1
 90
        0
176
     1
 40
0.6
176
     1
 40
30.0
176
     1
 62
     7
420
 16777215
176
     1
 90
        1
176
     1
 90
        4
176
     1
 62
     7
176
     1
 62
   257
176
     1
 90
        1
176
     1
 90
        1
176
     1
 40
1.0
176
     1
 90
        8
176
     1
 62
     7
176
     1
 40
1.0
176
     1
 90
        1
176
     1
 90
        6
176
     1
 90
        2
176
     1
 62
     7
176
     1
 90
        5
176
     1
 90
        0
176
     1
 90
        0
176
     1
290
     0
176
     1
 90
        1
176
     1
 40
50.0
176
     1
 90
        0
176
     1
290
     0
176
     1
290
     1
176
     1
290
     1
176
     1
290
     0
176
     1
290
     0
176
     1
290
     0
176
     1
290
     0
176
     1
290
     0
176
     1
290
     0
176
     1
 90
       50
176
     1
 40
0.0
176
     1
 40
1.0
176
     1
 90
        0
176
     1
 62
    18
420
        0
176
     1
 90
       50
176
     1
 90
        3
176
     1
 62
     5
420
      255
176
     1
290
     0
176
     1
 90
       50
176
     1
 90
       50
176
     1
 90
       50
176
     1
290
     0
176
     1
 90
       50
176
     1
 62
   256
176
     0
 40
1.0
176
     0
 90
        2
176
     1
  1
strokes_ogs.tif
176
     1
290
     0
176
     1
 40
1.0
176
     1
 40
1.0
176
     1
  0
VISUALSTYLE
  5
39
102
{ACAD_REACTORS
330
29
102
}
330
29
100
AcDbVisualStyle
  2
ColorChange
 70
    16
177
     3
291
     1
 70
    58
 90
        2
176
     1
 90
        2
176
     1
 90
        3
176
     1
 90
        0
176
     1
 40
0.6
176
     1
 40
30.0
176
     1
 62
     8
420
  8421504
176
     1
 90
        1
176
     1
 90
        4
176
     1
 62
     7
176
     1
 62
   257
176
     1
 90
        1
176
     1
 90
        1
176
     1
 40
1.0
176
     1
 90
        8
176
     1
 62
     8
420
  8421504
176
     1
 40
1.0
176
     1
 90
        1
176
     1
 90
        6
176
     1
 90
        2
176
     1
 62
     7
176
     1
 90
        5
176
     1
 90
        0
176
     1
 90
        0
176
     1
290
     0
176
     1
 90
        1
176
     1
 40
0.0
176
     1
 90
        0
176
     1
290
     0
176
     1
290
     1
176
     1
290
     1
176
     1
290
     0
176
     1
290
     0
176
     1
290
     0
176
     1
290
     0
176
     1
290
     0
176
     1
290
     0
176
     1
 90
       50
176
     1
 40
0.0
176
     1
 40
1.0
176
     1
 90
        0
176
     1
 62
    18
420
        0
176
     1
 90
       50
176
     1
 90
        3
176
     1
 62
     5
420
      255
176
     1
290
     0
176
     1
 90
       50
176
     1
 90
       50
176
     1
 90
       50
176
     1
290
     0
176
     1
 90
       50
176
     1
 62
   256
176
     0
 40
1.0
176
     0
 90
        2
176
     1
  1
strokes_ogs.tif
176
     1
290
     0
176
     1
 40
1.0
176
     1
 40
1.0
176
     1
  0
VISUALSTYLE
  5
32
102
{ACAD_REACTORS
330
29
102
}
330
29
100
AcDbVisualStyle
  2
Conceptual
 70
     9
177
     3
291
     0
 70
    58
 90
        3
176
     1
 90
        2
176
     1
 90
        0
176
     1
 90
        0
176
     1
 40
0.6
176
     1
 40
30.0
176
     1
 62
     7
420
 16777215
176
     1
 90
        2
176
     1
 90
        2
176
     1
 62
     7
176
     1
 62
   257
176
     1
 90
        1
176
     1
 90
        1
176
     1
 40
179.0
176
     1
 90
        8
176
     1
 62
     7
176
     1
 40
1.0
176
     1
 90
        1
176
     1
 90
        6
176
     1
 90
        2
176
     1
 62
     7
176
     1
 90
        3
176
     1
 90
        0
176
     1
 90
        0
176
     1
290
     0
176
     1
 90
        1
176
     1
 40
0.0
176
     1
 90
        0
176
     1
290
     0
176
     1
290
     1
176
     1
290
     1
176
     1
290
     0
176
     1
290
     0
176
     1
290
     0
176
     1
290
     0
176
     1
290
     0
176
     1
290
     0
176
     1
 90
       50
176
     1
 40
0.0
176
     1
 40
1.0
176
     1
 90
        0
176
     1
 62
    18
420
        0
176
     1
 90
       50
176
     1
 90
        3
176
     1
 62
     5
420
      255
176
     1
290
     0
176
     1
 90
       50
176
     1
 90
       50
176
     1
 90
       50
176
     1
290
     0
176
     1
 90
       50
176
     1
 62
   256
176
     0
 40
1.0
176
     0
 90
        2
176
     1
  1
strokes_ogs.tif
176
     1
290
     0
176
     1
 40
1.0
176
     1
 40
1.0
176
     1
  0
VISUALSTYLE
  5
34
102
{ACAD_REACTORS
330
29
102
}
330
29
100
AcDbVisualStyle
  2
Dim
 70
    11
177
     3
291
     1
 70
    58
 90
        2
176
     1
 90
        2
176
     1
 90
        0
176
     1
 90
        0
176
     1
 40
0.6
176
     1
 40
30.0
176
     1
 62
     7
420
 16777215
176
     1
 90
        1
176
     1
 90
        4
176
     1
 62
     7
176
     1
 62
   257
176
     1
 90
        1
176
     1
 90
        1
176
     1
 40
1.0
176
     1
 90
        8
176
     1
 62
     7
176
     1
 40
1.0
176
     1
 90
        1
176
     1
 90
        6
176
     1
 90
        2
176
     1
 62
     7
176
     1
 90
        5
176
     1
 90
        0
176
     1
 90
        0
176
     1
290
     0
176
     1
 90
        1
176
     1
 40
-50.0
176
     1
 90
        0
176
     1
290
     0
176
     1
290
     1
176
     1
290
     1
176
     1
290
     0
176
     1
290
     0
176
     1
290
     0
176
     1
290
     0
176
     1
290
     0
176
     1
290
     0
176
     1
 90
       50
176
     1
 40
0.0
176
     1
 40
1.0
176
     1
 90
        0
176
     1
 62
    18
420
        0
176
     1
 90
       50
176
     1
 90
        3
176
     1
 62
     5
420
      255
176
     1
290
     0
176
     1
 90
       50
176
     1
 90
       50
176
     1
 90
       50
176
     1
290
     0
176
     1
 90
       50
176
     1
 62
   256
176
     0
 40
1.0
176
     0
 90
        2
176
     1
  1
strokes_ogs.tif
176
     1
290
     0
176
     1
 40
1.0
176
     1
 40
1.0
176
     1
  0
VISUALSTYLE
  5
41
102
{ACAD_REACTORS
330
29
102
}
330
29
100
AcDbVisualStyle
  2
EdgeColorOff
 70
    22
177
     3
291
     1
 70
    58
 90
        2
176
     0
 90
        2
176
     0
 90
        0
176
     0
 90
        0
176
     0
 40
0.6
176
     0
 40
30.0
176
     0
 62
     7
420
 16777215
176
     0
 90
        1
176
     0
 90
        4
176
     0
 62
     7
176
     0
 62
   257
176
     0
 90
        1
176
     0
 90
        1
176
     0
 40
1.0
176
     0
 90
        8
176
     2
 62
     7
176
     0
 40
1.0
176
     0
 90
        1
176
     0
 90
        6
176
     0
 90
        2
176
     0
 62
     7
176
     0
 90
        5
176
     0
 90
        0
176
     0
 90
        0
176
     0
290
     0
176
     0
 90
        1
176
     0
 40
0.0
176
     0
 90
        0
176
     0
290
     0
176
     0
290
     1
176
     0
290
     1
176
     0
290
     0
176
     0
290
     0
176
     0
290
     0
176
     0
290
     0
176
     0
290
     0
176
     0
290
     0
176
     0
 90
       50
176
     0
 40
0.0
176
     0
 40
1.0
176
     0
 90
        0
176
     0
 62
    18
420
        0
176
     0
 90
       50
176
     0
 90
        3
176
     0
 62
     5
420
      255
176
     0
290
     0
176
     0
 90
       50
176
     0
 90
       50
176
     0
 90
       50
176
     0
290
     0
176
     0
 90
       50
176
     0
 62
   256
176
     0
 40
1.0
176
     0
 90
        2
176
     0
  1
strokes_ogs.tif
176
     0
290
     0
176
     0
 40
1.0
176
     0
 40
1.0
176
     0
  0
VISUALSTYLE
  5
38
102
{ACAD_REACTORS
330
29
102
}
330
29
100
AcDbVisualStyle
  2
Facepattern
 70
    15
177
     3
291
     1
 70
    58
 90
        2
176
     1
 90
        2
176
     1
 90
        0
176
     1
 90
        0
176
     1
 40
0.6
176
     1
 40
30.0
176
     1
 62
     7
420
 16777215
176
     1
 90
        1
176
     1
 90
        4
176
     1
 62
     7
176
     1
 62
   257
176
     1
 90
        1
176
     1
 90
        1
176
     1
 40
1.0
176
     1
 90
        8
176
     1
 62
     7
176
     1
 40
1.0
176
     1
 90
        1
176
     1
 90
        6
176
     1
 90
        2
176
     1
 62
     7
176
     1
 90
        5
176
     1
 90
        0
176
     1
 90
        0
176
     1
290
     0
176
     1
 90
        1
176
     1
 40
0.0
176
     1
 90
        0
176
     1
290
     0
176
     1
290
     1
176
     1
290
     1
176
     1
290
     0
176
     1
290
     0
176
     1
290
     0
176
     1
290
     0
176
     1
290
     0
176
     1
290
     0
176
     1
 90
       50
176
     1
 40
0.0
176
     1
 40
1.0
176
     1
 90
        0
176
     1
 62
    18
420
        0
176
     1
 90
       50
176
     1
 90
        3
176
     1
 62
     5
420
      255
176
     1
290
     0
176
     1
 90
       50
176
     1
 90
       50
176
     1
 90
       50
176
     1
290
     0
176
     1
 90
       50
176
     1
 62
   256
176
     0
 40
1.0
176
     0
 90
        2
176
     1
  1
strokes_ogs.tif
176
     1
290
     0
176
     1
 40
1.0
176
     1
 40
1.0
176
     1
  0
VISUALSTYLE
  5
2A
102
{ACAD_REACTORS
330
29
102
}
330
29
100
AcDbVisualStyle
  2
Flat
 70
     0
177
     3
291
     1
 70
    58
 90
        2
176
     1
 90
        1
176
     1
 90
        1
176
     1
 90
        2
176
     1
 40
0.6
176
     1
 40
30.0
176
     1
 62
     7
420
 16777215
176
     1
 90
        0
176
     1
 90
        0
176
     1
 62
     7
176
     1
 62
   257
176
     1
 90
        1
176
     1
 90
        1
176
     1
 40
1.0
176
     1
 90
        8
176
     1
 62
     7
176
     1
 40
1.0
176
     1
 90
        1
176
     1
 90
        6
176
     1
 90
        2
176
     1
 62
     7
176
     1
 90
        5
176
     1
 90
        0
176
     1
 90
        0
176
     1
290
     0
176
     1
 90
       13
176
     1
 40
0.0
176
     1
 90
        0
176
     1
290
     0
176
     1
290
     1
176
     1
290
     1
176
     1
290
     0
176
     1
290
     0
176
     1
290
     0
176
     1
290
     0
176
     1
290
     0
176
     1
290
     0
176
     1
 90
       50
176
     1
 40
0.0
176
     1
 40
1.0
176
     1
 90
        0
176
     1
 62
    18
420
        0
176
     1
 90
       50
176
     1
 90
        3
176
     1
 62
     5
420
      255
176
     1
290
     0
176
     1
 90
       50
176
     1
 90
       50
176
     1
 90
       50
176
     1
290
     0
176
     1
 90
       50
176
     1
 62
   256
176
     0
 40
1.0
176
     0
 90
        2
176
     1
  1
strokes_ogs.tif
176
     1
290
     0
176
     1
 40
1.0
176
     1
 40
1.0
176
     1
  0
VISUALSTYLE
  5
2B
102
{ACAD_REACTORS
330
29
102
}
330
29
100
AcDbVisualStyle
  2
FlatWithEdges
 70
     1
177
     3
291
     1
 70
    58
 90
        2
176
     1
 90
        1
176
     1
 90
        1
176
     1
 90
        2
176
     1
 40
0.6
176
     1
 40
30.0
176
     1
 62
     7
420
 16777215
176
     1
 90
        1
176
     1
 90
        0
176
     1
 62
     7
176
     1
 62
   257
176
     1
 90
        1
176
     1
 90
        1
176
     1
 40
1.0
176
     1
 90
        0
176
     1
 62
   257
176
     1
 40
1.0
176
     1
 90
        1
176
     1
 90
        6
176
     1
 90
        2
176
     1
 62
     7
176
     1
 90
        5
176
     1
 90
        0
176
     1
 90
        0
176
     1
290
     0
176
     1
 90
       13
176
     1
 40
0.0
176
     1
 90
        0
176
     1
290
     0
176
     1
290
     1
176
     1
290
     1
176
     1
290
     0
176
     1
290
     0
176
     1
290
     0
176
     1
290
     0
176
     1
290
     0
176
     1
290
     0
176
     1
 90
       50
176
     1
 40
0.0
176
     1
 40
1.0
176
     1
 90
        0
176
     1
 62
    18
420
        0
176
     1
 90
       50
176
     1
 90
        3
176
     1
 62
     5
420
      255
176
     1
290
     0
176
     1
 90
       50
176
     1
 90
       50
176
     1
 90
       50
176
     1
290
     0
176
     1
 90
       50
176
     1
 62
   256
176
     0
 40
1.0
176
     0
 90
        2
176
     1
  1
strokes_ogs.tif
176
     1
290
     0
176
     1
 40
1.0
176
     1
 40
1.0
176
     1
  0
VISUALSTYLE
  5
2C
102
{ACAD_REACTORS
330
29
102
}
330
29
100
AcDbVisualStyle
  2
Gouraud
 70
     2
177
     3
291
     1
 70
    58
 90
        2
176
     1
 90
        2
176
     1
 90
        1
176
     1
 90
        2
176
     1
 40
0.6
176
     1
 40
30.0
176
     1
 62
     7
420
 16777215
176
     1
 90
        0
176
     1
 90
        0
176
     1
 62
     7
176
     1
 62
   257
176
     1
 90
        1
176
     1
 90
        1
176
     1
 40
1.0
176
     1
 90
        0
176
     1
 62
     7
176
     1
 40
1.0
176
     1
 90
        1
176
     1
 90
        6
176
     1
 90
        2
176
     1
 62
     7
176
     1
 90
        5
176
     1
 90
        0
176
     1
 90
        0
176
     1
290
     0
176
     1
 90
       13
176
     1
 40
0.0
176
     1
 90
        0
176
     1
290
     0
176
     1
290
     1
176
     1
290
     1
176
     1
290
     0
176
     1
290
     0
176
     1
290
     0
176
     1
290
     0
176
     1
290
     0
176
     1
290
     0
176
     1
 90
       50
176
     1
 40
0.0
176
     1
 40
1.0
176
     1
 90
        0
176
     1
 62
    18
420
        0
176
     1
 90
       50
176
     1
 90
        3
176
     1
 62
     5
420
      255
176
     1
290
     0
176
     1
 90
       50
176
     1
 90
       50
176
     1
 90
       50
176
     1
290
     0
176
     1
 90
       50
176
     1
 62
   256
176
     0
 40
1.0
176
     0
 90
        2
176
     1
  1
strokes_ogs.tif
176
     1
290
     0
176
     1
 40
1.0
176
     1
 40
1.0
176
     1
  0
VISUALSTYLE
  5
2D
102
{ACAD_REACTORS
330
29
102
}
330
29
100
AcDbVisualStyle
  2
GouraudWithEdges
 70
     3
177
     3
291
     1
 70
    58
 90
        2
176
     1
 90
        2
176
     1
 90
        1
176
     1
 90
        2
176
     1
 40
0.6
176
     1
 40
30.0
176
     1
 62
     7
420
 16777215
176
     1
 90
        1
176
     1
 90
        0
176
     1
 62
     7
176
     1
 62
   257
176
     1
 90
        1
176
     1
 90
        1
176
     1
 40
1.0
176
     1
 90
        0
176
     1
 62
   257
176
     1
 40
1.0
176
     1
 90
        1
176
     1
 90
        6
176
     1
 90
        2
176
     1
 62
     7
176
     1
 90
        5
176
     1
 90
        0
176
     1
 90
        0
176
     1
290
     0
176
     1
 90
       13
176
     1
 40
0.0
176
     1
 90
        0
176
     1
290
     0
176
     1
290
     1
176
     1
290
     1
176
     1
290
     0
176
     1
290
     0
176
     1
290
     0
176
     1
290
     0
176
     1
290
     0
176
     1
290
     0
176
     1
 90
       50
176
     1
 40
0.0
176
     1
 40
1.0
176
     1
 90
        0
176
     1
 62
    18
420
        0
176
     1
 90
       50
176
     1
 90
        3
176
     1
 62
     5
420
      255
176
     1
290
     0
176
     1
 90
       50
176
     1
 90
       50
176
     1
 90
       50
176
     1
290
     0
176
     1
 90
       50
176
     1
 62
   256
176
     0
 40
1.0
176
     0
 90
        2
176
     1
  1
strokes_ogs.tif
176
     1
290
     0
176
     1
 40
1.0
176
     1
 40
1.0
176
     1
  0
VISUALSTYLE
  5
31
102
{ACAD_REACTORS
330
29
102
}
330
29
100
AcDbVisualStyle
  2
Hidden
 70
     6
177
     3
291
     0
 70
    58
 90
        1
176
     1
 90
        2
176
     1
 90
        2
176
     1
 90
        0
176
     1
 40
0.6
176
     1
 40
30.0
176
     1
 62
     7
420
 16777215
176
     1
 90
        2
176
     1
 90
        2
176
     1
 62
     7
176
     1
 62
   257
176
     1
 90
        2
176
     1
 90
        1
176
     1
 40
40.0
176
     1
 90
        0
176
     1
 62
   257
176
     1
 40
1.0
176
     1
 90
        1
176
     1
 90
        6
176
     1
 90
        2
176
     1
 62
     7
176
     1
 90
        3
176
     1
 90
        0
176
     1
 90
        0
176
     1
290
     0
176
     1
 90
        1
176
     1
 40
0.0
176
     1
 90
        0
176
     1
290
     0
176
     1
290
     1
176
     1
290
     1
176
     1
290
     0
176
     1
290
     0
176
     1
290
     0
176
     1
290
     0
176
     1
290
     0
176
     1
290
     0
176
     1
 90
       50
176
     1
 40
0.0
176
     1
 40
1.0
176
     1
 90
        0
176
     1
 62
    18
420
        0
176
     1
 90
       50
176
     1
 90
        3
176
     1
 62
     5
420
      255
176
     1
290
     0
176
     1
 90
       50
176
     1
 90
       50
176
     1
 90
       50
176
     1
290
     0
176
     1
 90
       50
176
     1
 62
   256
176
     0
 40
1.0
176
     0
 90
        2
176
     1
  1
strokes_ogs.tif
176
     1
290
     0
176
     1
 40
1.0
176
     1
 40
1.0
176
     1
  0
VISUALSTYLE
  5
3F
102
{ACAD_REACTORS
330
29
102
}
330
29
100
AcDbVisualStyle
  2
JitterOff
 70
    20
177
     3
291
     1
 70
    58
 90
        2
176
     0
 90
        2
176
     0
 90
        0
176
     0
 90
        0
176
     0
 40
0.6
176
     0
 40
30.0
176
     0
 62
     7
420
 16777215
176
     0
 90
        1
176
     0
 90
        4
176
     0
 62
     7
176
     0
 62
   257
176
     0
 90
        1
176
     0
 90
        1
176
     0
 40
1.0
176
     0
 90
       10
176
     2
 62
     7
176
     0
 40
1.0
176
     0
 90
        1
176
     0
 90
        6
176
     0
 90
        2
176
     0
 62
     7
176
     0
 90
        5
176
     0
 90
        0
176
     0
 90
        0
176
     0
290
     0
176
     0
 90
        1
176
     0
 40
0.0
176
     0
 90
        0
176
     0
290
     0
176
     0
290
     1
176
     0
290
     1
176
     0
290
     0
176
     0
290
     0
176
     0
290
     0
176
     0
290
     0
176
     0
290
     0
176
     0
290
     0
176
     0
 90
       50
176
     0
 40
0.0
176
     0
 40
1.0
176
     0
 90
        0
176
     0
 62
    18
420
        0
176
     0
 90
       50
176
     0
 90
        3
176
     0
 62
     5
420
      255
176
     0
290
     0
176
     0
 90
       50
176
     0
 90
       50
176
     0
 90
       50
176
     0
290
     0
176
     0
 90
       50
176
     0
 62
   256
176
     0
 40
1.0
176
     0
 90
        2
176
     0
  1
strokes_ogs.tif
176
     0
290
     0
176
     0
 40
1.0
176
     0
 40
1.0
176
     0
  0
VISUALSTYLE
  5
37
102
{ACAD_REACTORS
330
29
102
}
330
29
100
AcDbVisualStyle
  2
Linepattern
 70
    14
177
     3
291
     1
 70
    58
 90
        2
176
     1
 90
        2
176
     1
 90
        0
176
     1
 90
        0
176
     1
 40
0.6
176
     1
 40
30.0
176
     1
 62
     7
420
 16777215
176
     1
 90
        1
176
     1
 90
        4
176
     1
 62
     7
176
     1
 62
   257
176
     1
 90
        7
176
     1
 90
        7
176
     1
 40
1.0
176
     1
 90
        8
176
     1
 62
     7
176
     1
 40
1.0
176
     1
 90
        1
176
     1
 90
        6
176
     1
 90
        2
176
     1
 62
     7
176
     1
 90
        5
176
     1
 90
        0
176
     1
 90
        0
176
     1
290
     0
176
     1
 90
        1
176
     1
 40
0.0
176
     1
 90
        0
176
     1
290
     0
176
     1
290
     1
176
     1
290
     1
176
     1
290
     0
176
     1
290
     0
176
     1
290
     0
176
     1
290
     0
176
     1
290
     0
176
     1
290
     0
176
     1
 90
       50
176
     1
 40
0.0
176
     1
 40
1.0
176
     1
 90
        0
176
     1
 62
    18
420
        0
176
     1
 90
       50
176
     1
 90
        3
176
     1
 62
     5
420
      255
176
     1
290
     0
176
     1
 90
       50
176
     1
 90
       50
176
     1
 90
       50
176
     1
290
     0
176
     1
 90
       50
176
     1
 62
   256
176
     0
 40
1.0
176
     0
 90
        2
176
     1
  1
strokes_ogs.tif
176
     1
290
     0
176
     1
 40
1.0
176
     1
 40
1.0
176
     1
  0
VISUALSTYLE
  5
40
102
{ACAD_REACTORS
330
29
102
}
330
29
100
AcDbVisualStyle
  2
OverhangOff
 70
    21
177
     3
291
     1
 70
    58
 90
        2
176
     0
 90
        2
176
     0
 90
        0
176
     0
 90
        0
176
     0
 40
0.6
176
     0
 40
30.0
176
     0
 62
     7
420
 16777215
176
     0
 90
        1
176
     0
 90
        4
176
     0
 62
     7
176
     0
 62
   257
176
     0
 90
        1
176
     0
 90
        1
176
     0
 40
1.0
176
     0
 90
        9
176
     2
 62
     7
176
     0
 40
1.0
176
     0
 90
        1
176
     0
 90
        6
176
     0
 90
        2
176
     0
 62
     7
176
     0
 90
        5
176
     0
 90
        0
176
     0
 90
        0
176
     0
290
     0
176
     0
 90
        1
176
     0
 40
0.0
176
     0
 90
        0
176
     0
290
     0
176
     0
290
     1
176
     0
290
     1
176
     0
290
     0
176
     0
290
     0
176
     0
290
     0
176
     0
290
     0
176
     0
290
     0
176
     0
290
     0
176
     0
 90
       50
176
     0
 40
0.0
176
     0
 40
1.0
176
     0
 90
        0
176
     0
 62
    18
420
        0
176
     0
 90
       50
176
     0
 90
        3
176
     0
 62
     5
420
      255
176
     0
290
     0
176
     0
 90
       50
176
     0
 90
       50
176
     0
 90
       50
176
     0
290
     0
176
     0
 90
       50
176
     0
 62
   256
176
     0
 40
1.0
176
     0
 90
        2
176
     0
  1
strokes_ogs.tif
176
     0
290
     0
176
     0
 40
1.0
176
     0
 40
1.0
176
     0
  0
VISUALSTYLE
  5
33
102
{ACAD_REACTORS
330
29
102
}
330
29
100
AcDbVisualStyle
  2
Realistic
 70
     8
177
     3
291
     0
 70
    58
 90
        2
176
     1
 90
        3
176
     1
 90
        0
176
     1
 90
        2
176
     1
 40
0.6
176
     1
 40
30.0
176
     1
 62
     7
420
 16777215
176
     1
 90
        0
176
     1
 90
        0
176
     1
 62
     7
176
     1
 62
   257
176
     1
 90
        1
176
     1
 90
        1
176
     1
 40
1.0
176
     1
 90
        8
176
     1
 62
   257
176
     1
 40
1.0
176
     1
 90
        1
176
     1
 90
        6
176
     1
 90
        2
176
     1
 62
     7
176
     1
 90
        3
176
     1
 90
        0
176
     1
 90
        0
176
     1
290
     0
176
     1
 90
       13
176
     1
 40
0.0
176
     1
 90
        0
176
     1
290
     0
176
     1
290
     1
176
     1
290
     1
176
     1
290
     0
176
     1
290
     0
176
     1
290
     0
176
     1
290
     0
176
     1
290
     0
176
     1
290
     0
176
     1
 90
       50
176
     1
 40
0.0
176
     1
 40
1.0
176
     1
 90
        0
176
     1
 62
    18
420
        0
176
     1
 90
       50
176
     1
 90
        3
176
     1
 62
     5
420
      255
176
     1
290
     0
176
     1
 90
       50
176
     1
 90
       50
176
     1
 90
       50
176
     1
290
     0
176
     1
 90
       50
176
     1
 62
   256
176
     0
 40
1.0
176
     0
 90
        2
176
     1
  1
strokes_ogs.tif
176
     1
290
     0
176
     1
 40
1.0
176
     1
 40
1.0
176
     1
  0
VISUALSTYLE
  5
3E
102
{ACAD_REACTORS
330
29
102
}
330
29
100
AcDbVisualStyle
  2
Shaded
 70
    27
177
     3
291
     0
 70
    58
 90
        2
176
     1
 90
        2
176
     1
 90
        1
176
     1
 90
        2
176
     1
 40
0.6
176
     1
 40
30.0
176
     1
 62
     7
420
 16777215
176
     1
 90
        0
176
     1
 90
        4
176
     1
 62
     7
176
     1
 62
   257
176
     1
 90
        1
176
     1
 90
        1
176
     1
 40
1.0
176
     1
 90
        8
176
     1
 62
   257
176
     1
 40
1.0
176
     1
 90
        1
176
     1
 90
        6
176
     1
 90
        2
176
     1
 62
     8
420
  7895160
176
     1
 90
        3
176
     1
 90
        0
176
     1
 90
        0
176
     1
290
     0
176
     1
 90
        5
176
     1
 40
0.0
176
     1
 90
        0
176
     1
290
     0
176
     1
290
     1
176
     1
290
     1
176
     1
290
     0
176
     1
290
     0
176
     1
290
     0
176
     1
290
     0
176
     1
290
     0
176
     1
290
     0
176
     1
 90
       50
176
     1
 40
0.0
176
     1
 40
1.0
176
     1
 90
        0
176
     1
 62
    18
420
        0
176
     1
 90
       50
176
     1
 90
        3
176
     1
 62
     5
420
      255
176
     1
290
     0
176
     1
 90
       50
176
     1
 90
       50
176
     1
 90
       50
176
     1
290
     0
176
     1
 90
       50
176
     1
 62
   256
176
     0
 40
1.0
176
     0
 90
        2
176
     1
  1
strokes_ogs.tif
176
     1
290
     0
176
     1
 40
1.0
176
     1
 40
1.0
176
     1
  0
VISUALSTYLE
  5
3D
102
{ACAD_REACTORS
330
29
102
}
330
29
100
AcDbVisualStyle
  2
Shaded with edges
 70
    26
177
     3
291
     0
 70
    58
 90
        2
176
     1
 90
        2
176
     1
 90
        1
176
     1
 90
        2
176
     1
 40
0.6
176
     1
 40
30.0
176
     1
 62
     7
420
 16777215
176
     1
 90
        1
176
     1
 90
        2
176
     1
 62
     7
176
     1
 62
   257
176
     1
 90
        2
176
     1
 90
        1
176
     1
 40
1.0
176
     1
 90
        8
176
     1
 62
   257
176
     1
 40
1.0
176
     1
 90
        1
176
     1
 90
        6
176
     1
 90
        2
176
     1
 62
     7
176
     1
 90
        3
176
     1
 90
        0
176
     1
 90
        0
176
     1
290
     0
176
     1
 90
        5
176
     1
 40
0.0
176
     1
 90
        0
176
     1
290
     0
176
     1
290
     1
176
     1
290
     1
176
     1
290
     0
176
     1
290
     0
176
     1
290
     0
176
     1
290
     0
176
     1
290
     0
176
     1
290
     0
176
     1
 90
       50
176
     1
 40
0.0
176
     1
 40
1.0
176
     1
 90
        0
176
     1
 62
    18
420
        0
176
     1
 90
       50
176
     1
 90
        3
176
     1
 62
     5
420
      255
176
     1
290
     0
176
     1
 90
       50
176
     1
 90
       50
176
     1
 90
       50
176
     1
290
     0
176
     1
 90
       50
176
     1
 62
   256
176
     0
 40
1.0
176
     0
 90
        2
176
     1
  1
strokes_ogs.tif
176
     1
290
     0
176
     1
 40
1.0
176
     1
 40
1.0
176
     1
  0
VISUALSTYLE
  5
3A
102
{ACAD_REACTORS
330
29
102
}
330
29
100
AcDbVisualStyle
  2
Shades of Gray
 70
    23
177
     3
291
     0
 70
    58
 90
        2
176
     1
 90
        2
176
     1
 90
        3
176
     1
 90
        0
176
     1
 40
0.6
176
     1
 40
30.0
176
     1
 62
     7
420
 16777215
176
     1
 90
        2
176
     1
 90
        2
176
     1
 62
     7
176
     1
 62
     7
176
     1
 90
        1
176
     1
 90
        1
176
     1
 40
40.0
176
     1
 90
        8
176
     1
 62
     7
176
     1
 40
1.0
176
     1
 90
        1
176
     1
 90
        6
176
     1
 90
        2
176
     1
 62
     7
176
     1
 90
        3
176
     1
 90
        0
176
     1
 90
        0
176
     1
290
     0
176
     1
 90
        1
176
     1
 40
0.0
176
     1
 90
        0
176
     1
290
     0
176
     1
290
     1
176
     1
290
     1
176
     1
290
     0
176
     1
290
     0
176
     1
290
     0
176
     1
290
     0
176
     1
290
     0
176
     1
290
     0
176
     1
 90
       50
176
     1
 40
0.0
176
     1
 40
1.0
176
     1
 90
        0
176
     1
 62
    18
420
        0
176
     1
 90
       50
176
     1
 90
        3
176
     1
 62
     5
420
      255
176
     1
290
     0
176
     1
 90
       50
176
     1
 90
       50
176
     1
 90
       50
176
     1
290
     0
176
     1
 90
       50
176
     1
 62
   256
176
     0
 40
1.0
176
     0
 90
        2
176
     1
  1
strokes_ogs.tif
176
     1
290
     0
176
     1
 40
1.0
176
     1
 40
1.0
176
     1
  0
VISUALSTYLE
  5
3B
102
{ACAD_REACTORS
330
29
102
}
330
29
100
AcDbVisualStyle
  2
Sketchy
 70
    24
177
     3
291
     0
 70
    58
 90
        1
176
     1
 90
        2
176
     1
 90
        2
176
     1
 90
        0
176
     1
 40
0.6
176
     1
 40
30.0
176
     1
 62
     7
420
 16777215
176
     1
 90
        2
176
     1
 90
        2
176
     1
 62
     7
176
     1
 62
     7
176
     1
 90
        1
176
     1
 90
        1
176
     1
 40
40.0
176
     1
 90
       11
176
     1
 62
     7
176
     1
 40
1.0
176
     1
 90
        1
176
     1
 90
        6
176
     1
 90
        2
176
     1
 62
     7
176
     1
 90
        6
176
     1
 90
        0
176
     1
 90
        0
176
     1
290
     0
176
     1
 90
        1
176
     1
 40
0.0
176
     1
 90
        0
176
     1
290
     0
176
     1
290
     1
176
     1
290
     1
176
     1
290
     0
176
     1
290
     0
176
     1
290
     0
176
     1
290
     0
176
     1
290
     0
176
     1
290
     0
176
     1
 90
       50
176
     1
 40
0.0
176
     1
 40
1.0
176
     1
 90
        0
176
     1
 62
    18
420
        0
176
     1
 90
       50
176
     1
 90
        3
176
     1
 62
     5
420
      255
176
     1
290
     0
176
     1
 90
       50
176
     1
 90
       50
176
     1
 90
       50
176
     1
290
     0
176
     1
 90
       50
176
     1
 62
   256
176
     0
 40
1.0
176
     0
 90
        2
176
     1
  1
strokes_ogs.tif
176
     1
290
     0
176
     1
 40
1.0
176
     1
 40
1.0
176
     1
  0
VISUALSTYLE
  5
36
102
{ACAD_REACTORS
330
29
102
}
330
29
100
AcDbVisualStyle
  2
Thicken
 70
    13
177
     3
291
     1
 70
    58
 90
        2
176
     1
 90
        2
176
     1
 90
        0
176
     1
 90
        0
176
     1
 40
0.6
176
     1
 40
30.0
176
     1
 62
     7
420
 16777215
176
     1
 90
        1
176
     1
 90
        4
176
     1
 62
     7
176
     1
 62
   257
176
     1
 90
        1
176
     1
 90
        1
176
     1
 40
1.0
176
     1
 90
       12
176
     1
 62
     7
176
     1
 40
1.0
176
     1
 90
        1
176
     1
 90
        6
176
     1
 90
        2
176
     1
 62
     7
176
     1
 90
        5
176
     1
 90
        0
176
     1
 90
        0
176
     1
290
     0
176
     1
 90
        1
176
     1
 40
0.0
176
     1
 90
        0
176
     1
290
     0
176
     1
290
     1
176
     1
290
     1
176
     1
290
     0
176
     1
290
     0
176
     1
290
     0
176
     1
290
     0
176
     1
290
     0
176
     1
290
     0
176
     1
 90
       50
176
     1
 40
0.0
176
     1
 40
1.0
176
     1
 90
        0
176
     1
 62
    18
420
        0
176
     1
 90
       50
176
     1
 90
        3
176
     1
 62
     5
420
      255
176
     1
290
     0
176
     1
 90
       50
176
     1
 90
       50
176
     1
 90
       50
176
     1
290
     0
176
     1
 90
       50
176
     1
 62
   256
176
     0
 40
1.0
176
     0
 90
        2
176
     1
  1
strokes_ogs.tif
176
     1
290
     0
176
     1
 40
1.0
176
     1
 40
1.0
176
     1
  0
VISUALSTYLE
  5
30
102
{ACAD_REACTORS
330
29
102
}
330
29
100
AcDbVisualStyle
  2
Wireframe
 70
     5
177
     3
291
     0
 70
    58
 90
        0
176
     1
 90
        2
176
     1
 90
        0
176
     1
 90
        0
176
     1
 40
0.6
176
     1
 40
30.0
176
     1
 62
     7
420
 16777215
176
     1
 90
        1
176
     1
 90
        4
176
     1
 62
     7
176
     1
 62
   257
176
     1
 90
        1
176
     1
 90
        1
176
     1
 40
1.0
176
     1
 90
        0
176
     1
 62
   257
176
     1
 40
1.0
176
     1
 90
        1
176
     1
 90
        6
176
     1
 90
        2
176
     1
 62
     7
176
     1
 90
        3
176
     1
 90
        0
176
     1
 90
        0
176
     1
290
     0
176
     1
 90
        1
176
     1
 40
0.0
176
     1
 90
        0
176
     1
290
     0
176
     1
290
     1
176
     1
290
     1
176
     1
290
     0
176
     1
290
     0
176
     1
290
     0
176
     1
290
     0
176
     1
290
     0
176
     1
290
     0
176
     1
 90
       50
176
     1
 40
0.0
176
     1
 40
1.0
176
     1
 90
        0
176
     1
 62
    18
420
        0
176
     1
 90
       50
176
     1
 90
        3
176
     1
 62
     5
420
      255
176
     1
290
     0
176
     1
 90
       50
176
     1
 90
       50
176
     1
 90
       50
176
     1
290
     0
176
     1
 90
       50
176
     1
 62
   256
176
     0
 40
1.0
176
     0
 90
        2
176
     1
  1
strokes_ogs.tif
176
     1
290
     0
176
     1
 40
1.0
176
     1
 40
1.0
176
     1
  0
VISUALSTYLE
  5
3C
102
{ACAD_REACTORS
330
29
102
}
330
29
100
AcDbVisualStyle
  2
X-Ray
 70
    25
177
     3
291
     0
 70
    58
 90
        2
176
     1
 90
        2
176
     1
 90
        1
176
     1
 90
        1
176
     1
 40
0.5
176
     1
 40
30.0
176
     1
 62
     7
420
 16777215
176
     1
 90
        1
176
     1
 90
        0
176
     1
 62
     7
176
     1
 62
   257
176
     1
 90
        1
176
     1
 90
        1
176
     1
 40
1.0
176
     1
 90
        8
176
     1
 62
     7
176
     1
 40
1.0
176
     1
 90
        1
176
     1
 90
        6
176
     1
 90
        2
176
     1
 62
     7
176
     1
 90
        3
176
     1
 90
        0
176
     1
 90
        0
176
     1
290
     0
176
     1
 90
       13
176
     1
 40
0.0
176
     1
 90
        0
176
     1
290
     0
176
     1
290
     1
176
     1
290
     1
176
     1
290
     0
176
     1
290
     0
176
     1
290
     0
176
     1
290
     0
176
     1
290
     0
176
     1
290
     0
176
     1
 90
       50
176
     1
 40
0.0
176
     1
 40
1.0
176
     1
 90
        0
176
     1
 62
    18
420
        0
176
     1
 90
       50
176
     1
 90
        3
176
     1
 62
     5
420
      255
176
     1
290
     0
176
     1
 90
       50
176
     1
 90
       50
176
     1
 90
       50
176
     1
290
     0
176
     1
 90
       50
176
     1
 62
   256
176
     0
 40
1.0
176
     0
 90
        2
176
     1
  1
strokes_ogs.tif
176
     1
290
     0
176
     1
 40
1.0
176
     1
 40
1.0
176
     1
  0
DICTIONARYVAR
  5
319
102
{ACAD_REACTORS
330
314
102
}
330
314
100
DictionaryVariables
280
     0
  1
1:1
  0
DICTIONARYVAR
  5
316
102
{ACAD_REACTORS
330
314
102
}
330
314
100
DictionaryVariables
280
     0
  1
STANDARD
  0
DICTIONARYVAR
  5
315
102
{ACAD_REACTORS
330
314
102
}
330
314
100
DictionaryVariables
280
     0
  1
STANDARD
  0
DICTIONARYVAR
  5
317
102
{ACAD_REACTORS
330
314
102
}
330
314
100
DictionaryVariables
280
     0
  1
Imperial24
  0
DICTIONARYVAR
  5
318
102
{ACAD_REACTORS
330
314
102
}
330
314
100
DictionaryVariables
280
     0
  1
Imperial24
  0
DICTIONARY
  5
1A
330
19
100
AcDbDictionary
280
     1
281
     1
  3
BUMPTILE
360
1C
  3
DIFFUSETILE
360
1B
  3
OPACITYTILE
360
1F
  3
REFLECTIONTILE
360
1E
  3
REFRACTIONTILE
360
20
  3
SPECULARTILE
360
1D
  0
DICTIONARY
  5
12
330
11
100
AcDbDictionary
280
     1
281
     1
  3
BUMPTILE
360
14
  3
DIFFUSETILE
360
13
  3
OPACITYTILE
360
17
  3
REFLECTIONTILE
360
16
  3
REFRACTIONTILE
360
18
  3
SPECULARTILE
360
15
  0
DICTIONARY
  5
22
330
21
100
AcDbDictionary
280
     1
281
     1
  3
BUMPTILE
360
24
  3
DIFFUSETILE
360
23
  3
OPACITYTILE
360
27
  3
REFLECTIONTILE
360
26
  3
REFRACTIONTILE
360
28
  3
SPECULARTILE
360
25
  0
DICTIONARY
  5
31A
330
65
100
AcDbDictionary
280
     1
281
     1
  3
ACAD_ROUNDTRIP_2008_TABLESTYLE_CELLSTYLEMAP
360
31B
  0
XRECORD
  5
1C
102
{ACAD_REACTORS
330
1A
102
}
330
1A
100
AcDbXrecord
280
     1
270
     1
271
     1
  0
XRECORD
  5
1B
102
{ACAD_REACTORS
330
1A
102
}
330
1A
100
AcDbXrecord
280
     1
270
     1
271
     1
  0
XRECORD
  5
1F
102
{ACAD_REACTORS
330
1A
102
}
330
1A
100
AcDbXrecord
280
     1
270
     1
271
     1
  0
XRECORD
  5
1E
102
{ACAD_REACTORS
330
1A
102
}
330
1A
100
AcDbXrecord
280
     1
270
     1
271
     1
  0
XRECORD
  5
20
102
{ACAD_REACTORS
330
1A
102
}
330
1A
100
AcDbXrecord
280
     1
270
     1
271
     1
  0
XRECORD
  5
1D
102
{ACAD_REACTORS
330
1A
102
}
330
1A
100
AcDbXrecord
280
     1
270
     1
271
     1
  0
XRECORD
  5
14
102
{ACAD_REACTORS
330
12
102
}
330
12
100
AcDbXrecord
280
     1
270
     1
271
     1
  0
XRECORD
  5
13
102
{ACAD_REACTORS
330
12
102
}
330
12
100
AcDbXrecord
280
     1
270
     1
271
     1
  0
XRECORD
  5
17
102
{ACAD_REACTORS
330
12
102
}
330
12
100
AcDbXrecord
280
     1
270
     1
271
     1
  0
XRECORD
  5
16
102
{ACAD_REACTORS
330
12
102
}
330
12
100
AcDbXrecord
280
     1
270
     1
271
     1
  0
XRECORD
  5
18
102
{ACAD_REACTORS
330
12
102
}
330
12
100
AcDbXrecord
280
     1
270
     1
271
     1
  0
XRECORD
  5
15
102
{ACAD_REACTORS
330
12
102
}
330
12
100
AcDbXrecord
280
     1
270
     1
271
     1
  0
XRECORD
  5
24
102
{ACAD_REACTORS
330
22
102
}
330
22
100
AcDbXrecord
280
     1
270
     1
271
     1
  0
XRECORD
  5
23
102
{ACAD_REACTORS
330
22
102
}
330
22
100
AcDbXrecord
280
     1
270
     1
271
     1
  0
XRECORD
  5
27
102
{ACAD_REACTORS
330
22
102
}
330
22
100
AcDbXrecord
280
     1
270
     1
271
     1
  0
XRECORD
  5
26
102
{ACAD_REACTORS
330
22
102
}
330
22
100
AcDbXrecord
280
     1
270
     1
271
     1
  0
XRECORD
  5
28
102
{ACAD_REACTORS
330
22
102
}
330
22
100
AcDbXrecord
280
     1
270
     1
271
     1
  0
XRECORD
  5
25
102
{ACAD_REACTORS
330
22
102
}
330
22
100
AcDbXrecord
280
     1
270
     1
271
     1
  0
CELLSTYLEMAP
  5
31B
102
{ACAD_REACTORS
330
31A
102
}
330
31A
100
AcDbCellStyleMap
 90
        3
300
CELLSTYLE
  1
TABLEFORMAT_BEGIN
 90
        5
170
     1
 91
        0
 92
    32768
 62
   257
 93
        1
300
CONTENTFORMAT
  1
CONTENTFORMAT_BEGIN
 90
        0
 91
        0
 92
      512
 93
        0
300

 40
0.0
140
1.0
 94
        5
 62
     0
340
55
144
0.25
309
CONTENTFORMAT_END
171
     0
 94
        0
309
TABLEFORMAT_END
  1
CELLSTYLE_BEGIN
 90
        1
 91
        1
300
_TITLE
309
CELLSTYLE_END
300
CELLSTYLE
  1
TABLEFORMAT_BEGIN
 90
        5
170
     1
 91
        0
 92
        0
 62
   257
 93
        1
300
CONTENTFORMAT
  1
CONTENTFORMAT_BEGIN
 90
        0
 91
        0
 92
      512
 93
        0
300

 40
0.0
140
1.0
 94
        5
 62
     0
340
55
144
0.18
309
CONTENTFORMAT_END
171
     0
 94
        0
309
TABLEFORMAT_END
  1
CELLSTYLE_BEGIN
 90
        2
 91
        1
300
_HEADER
309
CELLSTYLE_END
300
CELLSTYLE
  1
TABLEFORMAT_BEGIN
 90
        5
170
     1
 91
        0
 92
        0
 62
   257
 93
        1
300
CONTENTFORMAT
  1
CONTENTFORMAT_BEGIN
 90
        0
 91
        0
 92
      512
 93
        0
300

 40
0.0
140
1.0
 94
        2
 62
     0
340
55
144
0.18
309
CONTENTFORMAT_END
171
     0
 94
        0
309
TABLEFORMAT_END
  1
CELLSTYLE_BEGIN
 90
        3
 91
        2
300
_DATA
309
CELLSTYLE_END
  0
ENDSEC
  0
EOF
