  0
SECTION
  2
HEADER
  9
$ACADVER
  1
AC1032
  9
$ACADMAINTVER
 90
      155
  9
$DWGCODEPAGE
  3
ANSI_1251
  9
$REQUIREDVERSIONS
160
                 0
  9
$INSBASE
 10
0.0
 20
0.0
 30
0.0
  9
$EXTMIN
 10
1.000000000000000E+20
 20
1.000000000000000E+20
 30
1.000000000000000E+20
  9
$EXTMAX
 10
-1.000000000000000E+20
 20
-1.000000000000000E+20
 30
-1.000000000000000E+20
  9
$LIMMIN
 10
0.0
 20
0.0
  9
$LIMMAX
 10
12.0
 20
9.0
  9
$ORTHOMODE
 70
     0
  9
$REGENMODE
 70
     1
  9
$FILLMODE
 70
     1
  9
$QTEXTMODE
 70
     0
  9
$MIRRTEXT
 70
     0
  9
$LTSCALE
 40
1.0
  9
$ATTMODE
 70
     1
  9
$TEXTSIZE
 40
0.2
  9
$TRACEWID
 40
0.05
  9
$TEXTSTYLE
  7
Standard
  9
$CLAYER
  8
0
  9
$CELTYPE
  6
ByLayer
  9
$CECOLOR
 62
   256
  9
$CELTSCALE
 40
1.0
  9
$DISPSILH
 70
     0
  9
$DIMSCALE
 40
1.0
  9
$DIMASZ
 40
0.18
  9
$DIMEXO
 40
0.0625
  9
$DIMDLI
 40
0.38
  9
$DIMRND
 40
0.0
  9
$DIMDLE
 40
0.0
  9
$DIMEXE
 40
0.18
  9
$DIMTP
 40
0.0
  9
$DIMTM
 40
0.0
  9
$DIMTXT
 40
0.18
  9
$DIMCEN
 40
0.09
  9
$DIMTSZ
 40
0.0
  9
$DIMTOL
 70
     0
  9
$DIMLIM
 70
     0
  9
$DIMTIH
 70
     1
  9
$DIMTOH
 70
     1
  9
$DIMSE1
 70
     0
  9
$DIMSE2
 70
     0
  9
$DIMTAD
 70
     0
  9
$DIMZIN
 70
     0
  9
$DIMBLK
  1

  9
$DIMASO
 70
     1
  9
$DIMSHO
 70
     1
  9
$DIMPOST
  1

  9
$DIMAPOST
  1

  9
$DIMALT
 70
     0
  9
$DIMALTD
 70
     2
  9
$DIMALTF
 40
25.4
  9
$DIMLFAC
 40
1.0
  9
$DIMTOFL
 70
     0
  9
$DIMTVP
 40
0.0
  9
$DIMTIX
 70
     0
  9
$DIMSOXD
 70
     0
  9
$DIMSAH
 70
     0
  9
$DIMBLK1
  1

  9
$DIMBLK2
  1

  9
$DIMSTYLE
  2
Standard
  9
$DIMCLRD
 70
     0
  9
$DIMCLRE
 70
     0
  9
$DIMCLRT
 70
     0
  9
$DIMTFAC
 40
1.0
  9
$DIMGAP
 40
0.09
  9
$DIMJUST
 70
     0
  9
$DIMSD1
 70
     0
  9
$DIMSD2
 70
     0
  9
$DIMTOLJ
 70
     1
  9
$DIMTZIN
 70
     0
  9
$DIMALTZ
 70
     0
  9
$DIMALTTZ
 70
     0
  9
$DIMUPT
 70
     0
  9
$DIMDEC
 70
     4
  9
$DIMTDEC
 70
     4
  9
$DIMALTU
 70
     2
  9
$DIMALTTD
 70
     2
  9
$DIMTXSTY
  7
Standard
  9
$DIMAUNIT
 70
     0
  9
$DIMADEC
 70
     0
  9
$DIMALTRND
 40
0.0
  9
$DIMAZIN
 70
     0
  9
$DIMDSEP
 70
    46
  9
$DIMATFIT
 70
     3
  9
$DIMFRAC
 70
     0
  9
$DIMLDRBLK
  1

  9
$DIMLUNIT
 70
     2
  9
$DIMLWD
 70
    -2
  9
$DIMLWE
 70
    -2
  9
$DIMTMOVE
 70
     0
  9
$DIMFXL
 40
1.0
  9
$DIMFXLON
 70
     0
  9
$DIMJOGANG
 40
0.7853981633974483
  9
$DIMTFILL
 70
     0
  9
$DIMTFILLCLR
 70
     0
  9
$DIMARCSYM
 70
     0
  9
$DIMLTYPE
  6

  9
$DIMLTEX1
  6

  9
$DIMLTEX2
  6

  9
$DIMTXTDIRECTION
 70
     0
  9
$LUNITS
 70
     2
  9
$LUPREC
 70
     4
  9
$SKETCHINC
 40
0.1
  9
$FILLETRAD
 40
0.0
  9
$AUNITS
 70
     0
  9
$AUPREC
 70
     0
  9
$MENU
  1
.
  9
$ELEVATION
 40
0.0
  9
$PELEVATION
 40
0.0
  9
$THICKNESS
 40
0.0
  9
$LIMCHECK
 70
     0
  9
$CHAMFERA
 40
0.0
  9
$CHAMFERB
 40
0.0
  9
$CHAMFERC
 40
0.0
  9
$CHAMFERD
 40
0.0
  9
$SKPOLY
 70
     0
  9
$TDCREATE
 40
2460539.668622685
  9
$TDUCREATE
 40
2460539.543622685
  9
$TDUPDATE
 40
2460539.668622685
  9
$TDUUPDATE
 40
2460539.543622685
  9
$TDINDWG
 40
0.0000000000
  9
$TDUSRTIMER
 40
0.0000000000
  9
$USRTIMER
 70
     1
  9
$ANGBASE
 50
0.0
  9
$ANGDIR
 70
     0
  9
$PDMODE
 70
     0
  9
$PDSIZE
 40
0.0
  9
$PLINEWID
 40
0.0
  9
$SPLFRAME
 70
     0
  9
$SPLINETYPE
 70
     6
  9
$SPLINESEGS
 70
     8
  9
$HANDSEED
  5
361
  9
$SURFTAB1
 70
     6
  9
$SURFTAB2
 70
     6
  9
$SURFTYPE
 70
     6
  9
$SURFU
 70
     6
  9
$SURFV
 70
     6
  9
$UCSBASE
  2

  9
$UCSNAME
  2

  9
$UCSORG
 10
0.0
 20
0.0
 30
0.0
  9
$UCSXDIR
 10
1.0
 20
0.0
 30
0.0
  9
$UCSYDIR
 10
0.0
 20
1.0
 30
0.0
  9
$UCSORTHOREF
  2

  9
$UCSORTHOVIEW
 70
     0
  9
$UCSORGTOP
 10
0.0
 20
0.0
 30
0.0
  9
$UCSORGBOTTOM
 10
0.0
 20
0.0
 30
0.0
  9
$UCSORGLEFT
 10
0.0
 20
0.0
 30
0.0
  9
$UCSORGRIGHT
 10
0.0
 20
0.0
 30
0.0
  9
$UCSORGFRONT
 10
0.0
 20
0.0
 30
0.0
  9
$UCSORGBACK
 10
0.0
 20
0.0
 30
0.0
  9
$PUCSBASE
  2

  9
$PUCSNAME
  2

  9
$PUCSORG
 10
0.0
 20
0.0
 30
0.0
  9
$PUCSXDIR
 10
1.0
 20
0.0
 30
0.0
  9
$PUCSYDIR
 10
0.0
 20
1.0
 30
0.0
  9
$PUCSORTHOREF
  2

  9
$PUCSORTHOVIEW
 70
     0
  9
$PUCSORGTOP
 10
0.0
 20
0.0
 30
0.0
  9
$PUCSORGBOTTOM
 10
0.0
 20
0.0
 30
0.0
  9
$PUCSORGLEFT
 10
0.0
 20
0.0
 30
0.0
  9
$PUCSORGRIGHT
 10
0.0
 20
0.0
 30
0.0
  9
$PUCSORGFRONT
 10
0.0
 20
0.0
 30
0.0
  9
$PUCSORGBACK
 10
0.0
 20
0.0
 30
0.0
  9
$USERI1
 70
     0
  9
$USERI2
 70
     0
  9
$USERI3
 70
     0
  9
$USERI4
 70
     0
  9
$USERI5
 70
     0
  9
$USERR1
 40
0.0
  9
$USERR2
 40
0.0
  9
$USERR3
 40
0.0
  9
$USERR4
 40
0.0
  9
$USERR5
 40
0.0
  9
$WORLDVIEW
 70
     1
  9
$SHADEDGE
 70
     3
  9
$SHADEDIF
 70
    70
  9
$TILEMODE
 70
     1
  9
$MAXACTVP
 70
    64
  9
$PINSBASE
 10
0.0
 20
0.0
 30
0.0
  9
$PLIMCHECK
 70
     0
  9
$PEXTMIN
 10
1.000000000000000E+20
 20
1.000000000000000E+20
 30
1.000000000000000E+20
  9
$PEXTMAX
 10
-1.000000000000000E+20
 20
-1.000000000000000E+20
 30
-1.000000000000000E+20
  9
$PLIMMIN
 10
0.0
 20
0.0
  9
$PLIMMAX
 10
12.0
 20
9.0
  9
$UNITMODE
 70
     0
  9
$VISRETAIN
 70
     1
  9
$PLINEGEN
 70
     0
  9
$PSLTSCALE
 70
     1
  9
$TREEDEPTH
 70
  3020
  9
$CMLSTYLE
  2
Standard
  9
$CMLJUST
 70
     0
  9
$CMLSCALE
 40
1.0
  9
$PROXYGRAPHICS
 70
     1
  9
$MEASUREMENT
 70
     0
  9
$CELWEIGHT
370
    -1
  9
$ENDCAPS
280
     0
  9
$JOINSTYLE
280
     0
  9
$LWDISPLAY
290
     1
  9
$INSUNITS
 70
     4
  9
$HYPERLINKBASE
  1

  9
$STYLESHEET
  1

  9
$XEDIT
290
     1
  9
$CEPSNTYPE
380
     0
  9
$PSTYLEMODE
290
     1
  9
$FINGERPRINTGUID
  2
{7BB8B0A9-EDF1-FB4D-A37B-CDFE13C31232}
  9
$VERSIONGUID
  2
{2F49704F-1CE8-5E46-9142-E01E0F2E6BFA}
  9
$EXTNAMES
290
     1
  9
$PSVPSCALE
 40
0.0
  9
$OLESTARTUP
290
     0
  9
$SORTENTS
280
   127
  9
$INDEXCTL
280
     0
  9
$HIDETEXT
280
     1
  9
$XCLIPFRAME
280
     2
  9
$HALOGAP
280
     0
  9
$OBSCOLOR
 70
   257
  9
$OBSLTYPE
280
     0
  9
$INTERSECTIONDISPLAY
280
     0
  9
$INTERSECTIONCOLOR
 70
   257
  9
$DIMASSOC
280
     2
  9
$PROJECTNAME
  1

  9
$CAMERADISPLAY
290
     0
  9
$LENSLENGTH
 40
50.0
  9
$CAMERAHEIGHT
 40
0.0
  9
$STEPSPERSEC
 40
2.0
  9
$STEPSIZE
 40
6.0
  9
$3DDWFPREC
 40
2.0
  9
$PSOLWIDTH
 40
0.25
  9
$PSOLHEIGHT
 40
4.0
  9
$LOFTANG1
 40
1.570796326794896
  9
$LOFTANG2
 40
1.570796326794896
  9
$LOFTMAG1
 40
0.0
  9
$LOFTMAG2
 40
0.0
  9
$LOFTPARAM
 70
     7
  9
$LOFTNORMALS
280
     1
  9
$LATITUDE
 40
37.795
  9
$LONGITUDE
 40
-122.394
  9
$NORTHDIRECTION
 40
0.0
  9
$TIMEZONE
 70
 -8000
  9
$LIGHTGLYPHDISPLAY
280
     1
  9
$TILEMODELIGHTSYNCH
280
     1
  9
$CMATERIAL
347
11
  9
$SOLIDHIST
280
     0
  9
$SHOWHIST
280
     1
  9
$DWFFRAME
280
     2
  9
$DGNFRAME
280
     0
  9
$REALWORLDSCALE
290
     1
  9
$INTERFERECOLOR
 62
     1
  9
$INTERFEREOBJVS
345
33
  9
$INTERFEREVPVS
346
30
  9
$CSHADOW
280
     0
  9
$SHADOWPLANELOCATION
 40
0.0
  0
ENDSEC
  0
SECTION
  2
CLASSES
  0
CLASS
  1
ACDBDICTIONARYWDFLT
  2
AcDbDictionaryWithDefault
  3
ObjectDBX Classes
 90
        0
 91
        1
280
     0
281
     0
  0
CLASS
  1
MATERIAL
  2
AcDbMaterial
  3
ObjectDBX Classes
 90
     1153
 91
        3
280
     0
281
     0
  0
CLASS
  1
VISUALSTYLE
  2
AcDbVisualStyle
  3
ObjectDBX Classes
 90
     4095
 91
       24
280
     0
281
     0
  0
CLASS
  1
SCALE
  2
AcDbScale
  3
ObjectDBX Classes
 90
     1153
 91
       17
280
     0
281
     0
  0
CLASS
  1
TABLESTYLE
  2
AcDbTableStyle
  3
ObjectDBX Classes
 90
     4095
 91
        1
280
     0
281
     0
  0
CLASS
  1
MLEADERSTYLE
  2
AcDbMLeaderStyle
  3
ACDB_MLEADERSTYLE_CLASS
 90
     4095
 91
        1
280
     0
281
     0
  0
CLASS
  1
ACDBSECTIONVIEWSTYLE
  2
AcDbSectionViewStyle
  3
ObjectDBX Classes
 90
     1025
 91
        1
280
     0
281
     0
  0
CLASS
  1
ACDBDETAILVIEWSTYLE
  2
AcDbDetailViewStyle
  3
ObjectDBX Classes
 90
     1025
 91
        1
280
     0
281
     0
  0
CLASS
  1
DICTIONARYVAR
  2
AcDbDictionaryVar
  3
ObjectDBX Classes
 90
        0
 91
        5
280
     0
281
     0
  0
CLASS
  1
CELLSTYLEMAP
  2
AcDbCellStyleMap
  3
ObjectDBX Classes
 90
     1152
 91
        1
280
     0
281
     0
  0
ENDSEC
  0
SECTION
  2
TABLES
  0
TABLE
  2
VPORT
  5
8
330
0
100
AcDbSymbolTable
 70
     1
  0
VPORT
  5
57
330
8
100
AcDbSymbolTableRecord
100
AcDbViewportTableRecord
  2
*Active
 70
     0
 10
0.0
 20
0.0
 11
1.0
 21
1.0
 12
0.0
 22
0.0
 13
0.0
 23
0.0
 14
1.0
 24
1.0
 15
0.0
 25
0.0
 16
0.0
 26
0.0
 36
1.0
 17
105.6535468009907
 27
-147.9782796564918
 37
0.0
 40
214.172459946457
 41
1.00113195111493
 42
50.0
 43
0.0
 44
0.0
 50
0.0
 51
0.0
 71
     0
 72
   100
 73
     1
 74
     0
 75
     1
 76
     0
 77
     0
 78
     0
281
     0
 65
     1
110
0.0
120
0.0
130
0.0
111
1.0
121
0.0
131
0.0
112
0.0
122
1.0
132
0.0
 79
     0
146
0.0
 60
     3
 61
     5
292
     1
282
     1
141
0.0
142
0.0
 63
   250
421
  3355443
  0
ENDTAB
  0
TABLE
  2
LTYPE
  5
5
330
0
100
AcDbSymbolTable
 70
     1
  0
LTYPE
  5
5B
330
5
100
AcDbSymbolTableRecord
100
AcDbLinetypeTableRecord
  2
ByBlock
 70
     0
  3

 72
    65
 73
     0
 40
0.0
  0
LTYPE
  5
5C
330
5
100
AcDbSymbolTableRecord
100
AcDbLinetypeTableRecord
  2
ByLayer
 70
     0
  3

 72
    65
 73
     0
 40
0.0
  0
LTYPE
  5
5D
330
5
100
AcDbSymbolTableRecord
100
AcDbLinetypeTableRecord
  2
Continuous
 70
     0
  3
Solid line
 72
    65
 73
     0
 40
0.0
  0
ENDTAB
  0
TABLE
  2
LAYER
  5
2
330
0
100
AcDbSymbolTable
 70
     4
  0
LAYER
  5
54
330
2
100
AcDbSymbolTableRecord
100
AcDbLayerTableRecord
  2
0
 70
     0
 62
     7
  6
Continuous
370
    -3
390
F
347
21
348
0
  0
LAYER
  5
78
330
2
100
AcDbSymbolTableRecord
100
AcDbLayerTableRecord
  2
Слой 3
 70
     4
 62
     7
  6
Continuous
370
     0
390
F
347
21
348
0
  0
LAYER
  5
7A
330
2
100
AcDbSymbolTableRecord
100
AcDbLayerTableRecord
  2
Слой 1
 70
     0
 62
     7
  6
Continuous
370
     0
390
F
347
21
348
0
  0
LAYER
  5
314
330
2
100
AcDbSymbolTableRecord
100
AcDbLayerTableRecord
  2
Слой 2
 70
     0
 62
     7
  6
Continuous
370
     0
390
F
347
21
348
0
  0
ENDTAB
  0
TABLE
  2
STYLE
  5
3
330
0
100
AcDbSymbolTable
 70
     2
  0
STYLE
  5
55
330
3
100
AcDbSymbolTableRecord
100
AcDbTextStyleTableRecord
  2
Standard
 70
     0
 40
0.0
 41
1.0
 50
0.0
 71
     0
 42
0.2
  3
txt
  4

  0
STYLE
  5
5A
330
3
100
AcDbSymbolTableRecord
100
AcDbTextStyleTableRecord
  2
Annotative
 70
     0
 40
0.0
 41
1.0
 50
0.0
 71
     0
 42
0.2
  3
txt
  4

1001
AcadAnnotative
1000
AnnotativeData
1002
{
1070
     1
1070
     1
1002
}
  0
ENDTAB
  0
TABLE
  2
VIEW
  5
6
330
0
100
AcDbSymbolTable
 70
     0
  0
ENDTAB
  0
TABLE
  2
UCS
  5
7
330
0
100
AcDbSymbolTable
 70
     0
  0
ENDTAB
  0
TABLE
  2
APPID
  5
9
330
0
100
AcDbSymbolTable
 70
     2
  0
APPID
  5
56
330
9
100
AcDbSymbolTableRecord
100
AcDbRegAppTableRecord
  2
ACAD
 70
     0
  0
APPID
  5
5E
330
9
100
AcDbSymbolTableRecord
100
AcDbRegAppTableRecord
  2
AcadAnnotative
 70
     0
  0
ENDTAB
  0
TABLE
  2
DIMSTYLE
  5
A
330
0
100
AcDbSymbolTable
 70
     2
100
AcDbDimStyleTable
 71
     0
  0
DIMSTYLE
105
58
330
A
100
AcDbSymbolTableRecord
100
AcDbDimStyleTableRecord
  2
Standard
 70
     0
340
55
  0
DIMSTYLE
105
59
330
A
100
AcDbSymbolTableRecord
100
AcDbDimStyleTableRecord
  2
Annotative
 70
     0
340
55
1001
AcadAnnotative
1000
AnnotativeData
1002
{
1070
     1
1070
     1
1002
}
  0
ENDTAB
  0
TABLE
  2
BLOCK_RECORD
  5
1
330
0
100
AcDbSymbolTable
 70
    10
  0
BLOCK_RECORD
  5
70
330
1
100
AcDbSymbolTableRecord
100
AcDbBlockTableRecord
  2
*Model_Space
340
73
 70
     0
280
     1
281
     0
  0
BLOCK_RECORD
  5
6C
330
1
100
AcDbSymbolTableRecord
100
AcDbBlockTableRecord
  2
*Paper_Space
340
6F
 70
     0
280
     1
281
     0
  0
BLOCK_RECORD
  5
74
330
1
100
AcDbSymbolTableRecord
100
AcDbBlockTableRecord
  2
*Paper_Space0
340
77
 70
     0
280
     1
281
     0
  0
BLOCK_RECORD
  5
90
330
1
100
AcDbSymbolTableRecord
100
AcDbBlockTableRecord
  2
Block_0
340
0
102
{BLKREFS
331
91
102
}
 70
     0
280
     1
281
     0
  0
BLOCK_RECORD
  5
DC
330
1
100
AcDbSymbolTableRecord
100
AcDbBlockTableRecord
  2
Block_1
340
0
102
{BLKREFS
331
DD
102
}
 70
     0
280
     1
281
     0
  0
BLOCK_RECORD
  5
315
330
1
100
AcDbSymbolTableRecord
100
AcDbBlockTableRecord
  2
Block_2
340
0
102
{BLKREFS
331
316
102
}
 70
     0
280
     1
281
     0
  0
BLOCK_RECORD
  5
319
330
1
100
AcDbSymbolTableRecord
100
AcDbBlockTableRecord
  2
Block_3
340
0
102
{BLKREFS
331
31A
102
}
 70
     0
280
     1
281
     0
  0
BLOCK_RECORD
  5
31D
330
1
100
AcDbSymbolTableRecord
100
AcDbBlockTableRecord
  2
Block_4
340
0
102
{BLKREFS
331
31E
102
}
 70
     0
280
     1
281
     0
  0
BLOCK_RECORD
  5
33C
330
1
100
AcDbSymbolTableRecord
100
AcDbBlockTableRecord
  2
Block_5
340
0
102
{BLKREFS
331
33D
102
}
 70
     0
280
     1
281
     0
  0
BLOCK_RECORD
  5
342
330
1
100
AcDbSymbolTableRecord
100
AcDbBlockTableRecord
  2
Block_6
340
0
102
{BLKREFS
331
343
102
}
 70
     0
280
     1
281
     0
  0
BLOCK_RECORD
  5
349
330
1
100
AcDbSymbolTableRecord
100
AcDbBlockTableRecord
  2
Block_7
340
0
102
{BLKREFS
331
34A
102
}
 70
     0
280
     1
281
     0
  0
BLOCK_RECORD
  5
350
330
1
100
AcDbSymbolTableRecord
100
AcDbBlockTableRecord
  2
Block_8
340
0
102
{BLKREFS
331
351
102
}
 70
     0
280
     1
281
     0
  0
ENDTAB
  0
ENDSEC
  0
SECTION
  2
BLOCKS
  0
BLOCK
  5
71
330
70
100
AcDbEntity
  8
0
100
AcDbBlockBegin
  2
*Model_Space
 70
     0
 10
0.0
 20
0.0
 30
0.0
  3
*Model_Space
  1

  0
ENDBLK
  5
72
330
70
100
AcDbEntity
  8
0
100
AcDbBlockEnd
  0
BLOCK
  5
6D
330
6C
100
AcDbEntity
 67
     1
  8
0
100
AcDbBlockBegin
  2
*Paper_Space
 70
     0
 10
0.0
 20
0.0
 30
0.0
  3
*Paper_Space
  1

  0
ENDBLK
  5
6E
330
6C
100
AcDbEntity
 67
     1
  8
0
100
AcDbBlockEnd
  0
BLOCK
  5
75
330
74
100
AcDbEntity
 67
     1
  8
0
100
AcDbBlockBegin
  2
*Paper_Space0
 70
     0
 10
0.0
 20
0.0
 30
0.0
  3
*Paper_Space0
  1

  0
ENDBLK
  5
76
330
74
100
AcDbEntity
 67
     1
  8
0
100
AcDbBlockEnd
  0
BLOCK
  5
92
330
90
100
AcDbEntity
  8
0
100
AcDbBlockBegin
  2
Block_0
 70
     0
 10
0.0
 20
0.0
 30
0.0
  3
Block_0
  1

  0
LINE
  5
94
330
90
100
AcDbEntity
  8
Слой 1
 62
   250
420
  3947579
370
    25
100
AcDbLine
 10
32.93277476436279
 20
-175.1360985500837
 30
0.0
 11
32.67257030729012
 21
-184.6305727885455
 31
0.0
  0
LINE
  5
95
330
90
100
AcDbEntity
  8
Слой 1
 62
   250
420
  3947579
370
    25
100
AcDbLine
 10
32.93277476436279
 20
-174.8193051718291
 30
0.0
 11
33.70701298957714
 21
-145.2743431235449
 31
0.0
  0
LINE
  5
96
330
90
100
AcDbEntity
  8
Слой 1
 62
   250
420
  3947579
370
    25
100
AcDbLine
 10
33.93693170297228
 20
-174.8193051718291
 30
0.0
 11
33.93693170297228
 21
-175.1360985500837
 31
0.0
  0
LINE
  5
97
330
90
100
AcDbEntity
  8
Слой 1
 62
   250
420
  3947579
370
    25
100
AcDbLine
 10
47.6185908923983
 20
-144.5837843898711
 30
0.0
 11
48.02224677500486
 21
-132.0497305244613
 31
0.0
  0
LINE
  5
98
330
90
100
AcDbEntity
  8
Слой 1
 62
   250
420
  3947579
370
    25
100
AcDbLine
 10
66.15048669872606
 20
-183.9404153516163
 30
0.0
 11
64.02900713965071
 21
-182.1919046347252
 31
0.0
  0
LINE
  5
99
330
90
100
AcDbEntity
  8
Слой 1
 62
   250
420
  3947579
370
    25
100
AcDbLine
 10
43.75039067201327
 20
-169.1135542445158
 30
0.0
 11
43.67494447128384
 21
-169.0569714035869
 31
0.0
  0
LINE
  5
9A
330
90
100
AcDbEntity
  8
Слой 1
 62
   250
420
  3947579
370
    25
100
AcDbLine
 10
43.67494447128384
 20
-169.0569714035869
 30
0.0
 11
43.67494447128384
 21
-171.0919836748011
 31
0.0
  0
LINE
  5
9B
330
90
100
AcDbEntity
  8
Слой 1
 62
   250
420
  3947579
370
    25
100
AcDbLine
 10
50.43103048189185
 20
-175.1360985500837
 30
0.0
 11
50.43103048189185
 21
-174.8193051718291
 31
0.0
  0
LINE
  5
9C
330
90
100
AcDbEntity
  8
Слой 1
 62
   250
420
  3947579
370
    25
100
AcDbLine
 10
32.67257030729012
 20
-184.6305727885455
 30
0.0
 11
66.15048669872606
 21
-184.6305727885455
 31
0.0
  0
LINE
  5
9D
330
90
100
AcDbEntity
  8
Слой 1
 62
   250
420
  3947579
370
    25
100
AcDbLine
 10
104.5057485181823
 20
-184.6305727885455
 30
0.0
 11
134.6846864592121
 21
-184.6305727885455
 31
0.0
  0
LINE
  5
9E
330
90
100
AcDbEntity
  8
Слой 1
 62
   250
420
  3947579
370
    25
100
AcDbLine
 10
63.62813601323854
 20
-180.2405688149248
 30
0.0
 11
67.72845237959704
 21
-181.3881802191947
 31
0.0
  0
LINE
  5
9F
330
90
100
AcDbEntity
  8
Слой 1
 62
   250
420
  3947579
370
    25
100
AcDbLine
 10
51.85989248597562
 20
-171.0354008338729
 30
0.0
 11
51.93534679396921
 21
-171.0919836748011
 31
0.0
  0
LINE
  5
A0
330
90
100
AcDbEntity
  8
Слой 1
 62
   250
420
  3947579
370
    25
100
AcDbLine
 10
55.70843532245611
 20
-174.8193051718291
 30
0.0
 11
55.70843532245611
 21
-175.1360985500837
 31
0.0
  0
LINE
  5
A1
330
90
100
AcDbEntity
  8
Слой 1
 62
   250
420
  3947579
370
    25
100
AcDbLine
 10
64.02900713965071
 20
-182.1919046347252
 30
0.0
 11
63.56876841611629
 21
-182.1919046347252
 31
0.0
  0
LINE
  5
A2
330
90
100
AcDbEntity
  8
Слой 1
 62
   250
420
  3947579
370
    25
100
AcDbLine
 10
103.7319146298393
 20
-180.2405688149248
 30
0.0
 11
70.85767926709175
 21
-180.2405688149248
 31
0.0
  0
LINE
  5
A3
330
90
100
AcDbEntity
  8
Слой 1
 62
   250
420
  3947579
370
    25
100
AcDbLine
 10
51.93534679396921
 20
-171.0919836748011
 30
0.0
 11
51.93534679396921
 21
-169.0569714035869
 31
0.0
  0
LINE
  5
A4
330
90
100
AcDbEntity
  8
Слой 1
 62
   250
420
  3947579
370
    25
100
AcDbLine
 10
58.03394387467346
 20
-131.4759369828344
 30
0.0
 11
58.32044542899676
 21
-120.8338513401017
 31
0.0
  0
LINE
  5
A5
330
90
100
AcDbEntity
  8
Слой 1
 62
   250
420
  3947579
370
    25
100
AcDbLine
 10
134.4272728385881
 20
-175.1360985500837
 30
0.0
 11
32.93277476436279
 21
-175.1360985500837
 31
0.0
  0
LINE
  5
A6
330
90
100
AcDbEntity
  8
Слой 1
 62
   250
420
  3947579
370
    25
100
AcDbLine
 10
32.93277476436279
 20
-174.8193051718291
 30
0.0
 11
134.4272728385881
 21
-174.8193051718291
 31
0.0
  0
LINE
  5
A7
330
90
100
AcDbEntity
  8
Слой 1
 62
   250
420
  3947579
370
    25
100
AcDbLine
 10
123.0790293271422
 20
-171.0919836748011
 30
0.0
 11
114.7191543739828
 21
-171.0919836748011
 31
0.0
  0
LINE
  5
A8
330
90
100
AcDbEntity
  8
Слой 1
 62
   250
420
  3947579
370
    25
100
AcDbLine
 10
43.67494447128384
 20
-171.0919836748011
 30
0.0
 11
51.93534679396921
 21
-171.0919836748011
 31
0.0
  0
LINE
  5
A9
330
90
100
AcDbEntity
  8
Слой 1
 62
   250
420
  3947579
370
    25
100
AcDbLine
 10
66.15048669872606
 20
-184.6305727885455
 30
0.0
 11
66.15048669872606
 21
-183.9404153516163
 31
0.0
  0
LINE
  5
AA
330
90
100
AcDbEntity
  8
Слой 1
 62
   250
420
  3947579
370
    25
100
AcDbLine
 10
63.56876841611629
 20
-182.1919046347252
 30
0.0
 11
63.62813601323854
 21
-180.2405688149248
 31
0.0
  0
LINE
  5
AB
330
90
100
AcDbEntity
  8
Слой 1
 62
   250
420
  3947579
370
    25
100
AcDbLine
 10
51.93534679396921
 20
-169.0569714035869
 30
0.0
 11
43.67494447128384
 21
-169.0569714035869
 31
0.0
  0
LINE
  5
AC
330
90
100
AcDbEntity
  8
Слой 1
 62
   250
420
  3947579
370
    25
100
AcDbLine
 10
114.7191543739828
 20
-169.0569714035869
 30
0.0
 11
123.0790293271422
 21
-169.0569714035869
 31
0.0
  0
LINE
  5
AD
330
90
100
AcDbEntity
  8
Слой 1
 62
   250
420
  3947579
370
    25
100
AcDbLine
 10
75.64815307037981
 20
-174.8193051718291
 30
0.0
 11
75.6752466808651
 21
-175.1360985500837
 31
0.0
  0
LINE
  5
AE
330
90
100
AcDbEntity
  8
Слой 1
 62
   250
420
  3947579
370
    25
100
AcDbLine
 10
75.7916044959137
 20
-175.1360985500837
 30
0.0
 11
75.76172004898033
 21
-174.8193051718291
 31
0.0
  0
LINE
  5
AF
330
90
100
AcDbEntity
  8
Слой 1
 62
   250
420
  3947579
370
    25
100
AcDbLine
 10
43.75039067201327
 20
-171.0354008338729
 30
0.0
 11
43.67494447128384
 21
-171.0919836748011
 31
0.0
  0
LINE
  5
B0
330
90
100
AcDbEntity
  8
Слой 1
 62
   250
420
  3947579
370
    25
100
AcDbLine
 10
51.85989248597562
 20
-169.1135542445158
 30
0.0
 11
51.93534679396921
 21
-169.0569714035869
 31
0.0
  0
LINE
  5
B1
330
90
100
AcDbEntity
  8
Слой 1
 62
   250
420
  3947579
370
    25
100
AcDbLine
 10
33.93693170297228
 20
-145.0440231134059
 30
0.0
 11
47.6185908923983
 21
-144.5837843898711
 31
0.0
  0
LINE
  5
B2
330
90
100
AcDbEntity
  8
Слой 1
 62
   250
420
  3947579
370
    25
100
AcDbLine
 10
119.7386689142317
 20
-144.5837843898711
 30
0.0
 11
133.4231189401049
 21
-145.0440231134059
 31
0.0
  0
LINE
  5
B3
330
90
100
AcDbEntity
  8
Слой 1
 62
   250
420
  3947579
370
    25
100
AcDbLine
 10
114.7960294655582
 20
-169.1135542445158
 30
0.0
 11
114.7191543739828
 21
-169.0569714035869
 31
0.0
  0
LINE
  5
B4
330
90
100
AcDbEntity
  8
Слой 1
 62
   250
420
  3947579
370
    25
100
AcDbLine
 10
91.56844006691043
 20
-175.1360985500837
 30
0.0
 11
91.56844006691043
 21
-174.8193051718291
 31
0.0
  0
LINE
  5
B5
330
90
100
AcDbEntity
  8
Слой 1
 62
   250
420
  3947579
370
    25
100
AcDbLine
 10
91.68200704551095
 20
-174.8193051718291
 30
0.0
 11
91.68200704551095
 21
-175.1360985500837
 31
0.0
  0
LINE
  5
B6
330
90
100
AcDbEntity
  8
Слой 1
 62
   250
420
  3947579
370
    25
100
AcDbLine
 10
123.0021542355668
 20
-171.0354008338729
 30
0.0
 11
123.0790293271422
 21
-171.0919836748011
 31
0.0
  0
LINE
  5
B7
330
90
100
AcDbEntity
  8
Слой 1
 62
   250
420
  3947579
370
    25
100
AcDbLine
 10
104.5057485181823
 20
-184.6305727885455
 30
0.0
 11
103.7319146298393
 21
-180.2405688149248
 31
0.0
  0
LINE
  5
B8
330
90
100
AcDbEntity
  8
Слой 1
 62
   250
420
  3947579
370
    25
100
AcDbLine
 10
68.302258081732
 20
-181.3311960815224
 30
0.0
 11
70.85767926709175
 21
-180.2405688149248
 31
0.0
  0
LINE
  5
B9
330
90
100
AcDbEntity
  8
Слой 1
 62
   250
420
  3947579
370
    25
100
AcDbLine
 10
48.25216548839999
 20
-131.8198118110662
 30
0.0
 11
58.03394387467346
 21
-131.4759369828344
 31
0.0
  0
LINE
  5
BA
330
90
100
AcDbEntity
  8
Слой 1
 62
   250
420
  3947579
370
    25
100
AcDbLine
 10
109.2966236182148
 20
-131.4759369828344
 30
0.0
 11
119.108280371168
 21
-131.8198118110662
 31
0.0
  0
LINE
  5
BB
330
90
100
AcDbEntity
  8
Слой 1
 62
   250
420
  3947579
370
    25
100
AcDbLine
 10
109.039599133827
 20
-120.8338513401017
 30
0.0
 11
109.2966236182148
 21
-131.4759369828344
 31
0.0
  0
LINE
  5
BC
330
90
100
AcDbEntity
  8
Слой 1
 62
   250
420
  3947579
370
    25
100
AcDbLine
 10
114.7191543739828
 20
-171.0919836748011
 30
0.0
 11
114.7191543739828
 21
-169.0569714035869
 31
0.0
  0
LINE
  5
BD
330
90
100
AcDbEntity
  8
Слой 1
 62
   250
420
  3947579
370
    25
100
AcDbLine
 10
119.3381990845634
 20
-132.0497305244613
 30
0.0
 11
119.7386689142317
 21
-144.5837843898711
 31
0.0
  0
LINE
  5
BE
330
90
100
AcDbEntity
  8
Слой 1
 62
   250
420
  3947579
370
    25
100
AcDbLine
 10
123.0790293271422
 20
-169.0569714035869
 30
0.0
 11
123.0790293271422
 21
-171.0919836748011
 31
0.0
  0
LINE
  5
BF
330
90
100
AcDbEntity
  8
Слой 1
 62
   250
420
  3947579
370
    25
100
AcDbLine
 10
114.7960294655582
 20
-171.0354008338729
 30
0.0
 11
114.7191543739828
 21
-171.0919836748011
 31
0.0
  0
LINE
  5
C0
330
90
100
AcDbEntity
  8
Слой 1
 62
   250
420
  3947579
370
    25
100
AcDbLine
 10
123.0021542355668
 20
-169.1135542445158
 30
0.0
 11
123.0790293271422
 21
-169.0569714035869
 31
0.0
  0
LINE
  5
C1
330
90
100
AcDbEntity
  8
Слой 1
 62
   250
420
  3947579
370
    25
100
AcDbLine
 10
60.58617900709402
 20
-118.6251018996774
 30
0.0
 11
106.7710807995354
 21
-118.6251018996774
 31
0.0
  0
LINE
  5
C2
330
90
100
AcDbEntity
  8
Слой 1
 62
   250
420
  3947579
370
    25
100
AcDbLine
 10
133.4231189401049
 20
-175.1360985500837
 30
0.0
 11
133.3932284129188
 21
-174.8193051718291
 31
0.0
  0
LINE
  5
C3
330
90
100
AcDbEntity
  8
Слой 1
 62
   250
420
  3947579
370
    25
100
AcDbLine
 10
133.6534389502445
 20
-145.2743431235449
 30
0.0
 11
134.4272728385881
 21
-174.8193051718291
 31
0.0
  0
LINE
  5
C4
330
90
100
AcDbEntity
  8
Слой 1
 62
   250
420
  3947579
370
    25
100
AcDbLine
 10
134.6846864592121
 20
-184.6305727885455
 30
0.0
 11
134.4272728385881
 21
-175.1360985500837
 31
0.0
  0
SPLINE
  5
C5
330
90
100
AcDbEntity
  8
Слой 1
 62
   250
420
  3947579
370
    25
100
AcDbSpline
210
0.0
220
0.0
230
1.0
 70
     8
 71
     3
 72
     8
 73
     4
 74
     0
 42
0.0000000001
 43
0.0000000001
 40
0.0
 40
0.0
 40
0.0
 40
0.0
 40
1.0
 40
1.0
 40
1.0
 40
1.0
 10
108.9830162928988
 20
-120.8338513401017
 30
0.0
 10
108.9738594308274
 20
-119.6232728285194
 30
0.0
 10
107.9936009293844
 20
-118.6402417313892
 30
0.0
 10
106.7742668524739
 20
-118.6251018996774
 30
0.0
  0
SPLINE
  5
C6
330
90
100
AcDbEntity
  8
Слой 1
 62
   250
420
  3947579
370
    25
100
AcDbSpline
210
0.0
220
0.0
230
1.0
 70
     8
 71
     3
 72
    11
 73
     7
 74
     0
 42
0.0000000001
 43
0.0000000001
 40
0.0
 40
0.0
 40
0.0
 40
0.0
 40
1.0
 40
1.0
 40
1.0
 40
2.0
 40
2.0
 40
2.0
 40
2.0
 10
60.58617900709402
 20
-118.6251018996774
 30
0.0
 10
60.59494065267533
 20
-118.6251018996774
 30
0.0
 10
60.58020211770742
 20
-118.6251018996774
 30
0.0
 10
60.54393948464328
 20
-118.6251018996774
 30
0.0
 10
59.32181457128503
 20
-118.6251018996774
 30
0.0
 10
58.32960837132191
 20
-119.6113190497459
 30
0.0
 10
58.32044542899676
 20
-120.8338513401017
 30
0.0
  0
LINE
  5
C7
330
90
100
AcDbEntity
  8
Слой 1
 62
   250
420
  3947579
370
    25
100
AcDbLine
 10
67.72845237959704
 20
-181.3881802191947
 30
0.0
 11
67.81532096420275
 21
-181.3881802191947
 31
0.0
  0
LINE
  5
C8
330
90
100
AcDbEntity
  8
Слой 1
 62
   250
420
  3947579
370
    25
100
AcDbLine
 10
67.81532096420275
 20
-181.3881802191947
 30
0.0
 11
67.90218954880815
 21
-181.4180585858747
 31
0.0
  0
LINE
  5
C9
330
90
100
AcDbEntity
  8
Слой 1
 62
   250
420
  3947579
370
    25
100
AcDbLine
 10
67.90218954880815
 20
-181.4180585858747
 30
0.0
 11
67.98865683667002
 21
-181.4180585858747
 31
0.0
  0
LINE
  5
CA
330
90
100
AcDbEntity
  8
Слой 1
 62
   250
420
  3947579
370
    25
100
AcDbLine
 10
67.98865683667002
 20
-181.4180585858747
 30
0.0
 11
68.07552542127573
 21
-181.4180585858747
 31
0.0
  0
LINE
  5
CB
330
90
100
AcDbEntity
  8
Слой 1
 62
   250
420
  3947579
370
    25
100
AcDbLine
 10
68.07552542127573
 20
-181.4180585858747
 30
0.0
 11
68.15880665619842
 21
-181.3881802191947
 31
0.0
  0
LINE
  5
CC
330
90
100
AcDbEntity
  8
Слой 1
 62
   250
420
  3947579
370
    25
100
AcDbLine
 10
68.15880665619842
 20
-181.3881802191947
 30
0.0
 11
68.21578471361708
 21
-181.3610744482024
 31
0.0
  0
LINE
  5
CD
330
90
100
AcDbEntity
  8
Слой 1
 62
   250
420
  3947579
370
    25
100
AcDbLine
 10
68.21578471361708
 20
-181.3610744482024
 30
0.0
 11
68.302258081732
 21
-181.3311960815224
 31
0.0
  0
SPLINE
  5
CE
330
90
100
AcDbEntity
  8
Слой 1
 62
   250
420
  3947579
370
    25
100
AcDbSpline
210
0.0
220
0.0
230
1.0
 70
     8
 71
     3
 72
    11
 73
     7
 74
     0
 42
0.0000000001
 43
0.0000000001
 40
0.0
 40
0.0
 40
0.0
 40
0.0
 40
1.0
 40
1.0
 40
1.0
 40
2.0
 40
2.0
 40
2.0
 40
2.0
 10
133.5936578958704
 20
-145.2651741009663
 30
0.0
 10
133.5936578958704
 20
-145.2592032918328
 30
0.0
 10
133.5936578958704
 20
-145.2532203221928
 30
0.0
 10
133.5936578958704
 20
-145.2444525963581
 30
0.0
 10
133.5936578958704
 20
-145.1456363132329
 30
0.0
 10
133.5187491702919
 20
-145.0591629451176
 30
0.0
 10
133.4203220234038
 20
-145.0472091663447
 30
0.0
  0
SPLINE
  5
CF
330
90
100
AcDbEntity
  8
Слой 1
 62
   250
420
  3947579
370
    25
100
AcDbSpline
210
0.0
220
0.0
230
1.0
 70
     8
 71
     3
 72
    14
 73
    10
 74
     0
 42
0.0000000001
 43
0.0000000001
 40
0.0
 40
0.0
 40
0.0
 40
0.0
 40
1.0
 40
1.0
 40
1.0
 40
2.0
 40
2.0
 40
2.0
 40
3.0
 40
3.0
 40
3.0
 40
3.0
 10
48.24897943546177
 20
-131.8226087277679
 30
0.0
 10
48.24021170962677
 20
-131.8198118110662
 30
0.0
 10
48.23104268704793
 20
-131.8198118110662
 30
0.0
 10
48.2222810414663
 20
-131.8198118110662
 30
0.0
 10
48.10871406286641
 20
-131.8198118110662
 30
0.0
 10
48.02224677500486
 20
-131.9094712321203
 30
0.0
 10
48.02224677500486
 20
-132.0198521577816
 30
0.0
 10
48.02224677500486
 20
-132.0290211803608
 30
0.0
 10
48.02224677500486
 20
-132.0377767456884
 30
0.0
 10
48.02503153119924
 20
-132.0469457682669
 30
0.0
  0
SPLINE
  5
D0
330
90
100
AcDbEntity
  8
Слой 1
 62
   250
420
  3947579
370
    25
100
AcDbSpline
210
0.0
220
0.0
230
1.0
 70
     8
 71
     3
 72
    11
 73
     7
 74
     0
 42
0.0000000001
 43
0.0000000001
 40
0.0
 40
0.0
 40
0.0
 40
0.0
 40
1.0
 40
1.0
 40
1.0
 40
2.0
 40
2.0
 40
2.0
 40
2.0
 10
119.284413160337
 20
-132.040974959134
 30
0.0
 10
119.284413160337
 20
-132.0349919894937
 30
0.0
 10
119.284413160337
 20
-132.0290211803608
 30
0.0
 10
119.284413160337
 20
-132.0198521577816
 30
0.0
 10
119.284413160337
 20
-131.9214250108932
 30
0.0
 10
119.2094922742511
 20
-131.8345625065411
 30
0.0
 10
119.1110772878697
 20
-131.8226087277679
 30
0.0
  0
SPLINE
  5
D1
330
90
100
AcDbEntity
  8
Слой 1
 62
   250
420
  3947579
370
    25
100
AcDbSpline
210
0.0
220
0.0
230
1.0
 70
     8
 71
     3
 72
    14
 73
    10
 74
     0
 42
0.0000000001
 43
0.0000000001
 40
0.0
 40
0.0
 40
0.0
 40
0.0
 40
1.0
 40
1.0
 40
1.0
 40
2.0
 40
2.0
 40
2.0
 40
3.0
 40
3.0
 40
3.0
 40
3.0
 10
33.93374565003373
 20
-145.0472091663447
 30
0.0
 10
33.92497792419906
 20
-145.0440231134059
 30
0.0
 10
33.91581194174674
 20
-145.0440231134059
 30
0.0
 10
33.90704725603891
 20
-145.0440231134059
 30
0.0
 10
33.79348027743869
 20
-145.0440231134059
 30
0.0
 10
33.70701298957714
 20
-145.1336825344593
 30
0.0
 10
33.70701298957714
 20
-145.2444525963581
 30
0.0
 10
33.70701298957714
 20
-145.2532203221928
 30
0.0
 10
33.70701298957714
 20
-145.262389344772
 30
0.0
 10
33.70980078589837
 20
-145.2711570706063
 30
0.0
  0
ENDBLK
  5
93
330
90
100
AcDbEntity
  8
0
100
AcDbBlockEnd
  0
BLOCK
  5
DE
330
DC
100
AcDbEntity
  8
0
100
AcDbBlockBegin
  2
Block_1
 70
     0
 10
0.0
 20
0.0
 30
0.0
  3
Block_1
  1

  0
LINE
  5
E0
330
DC
100
AcDbEntity
  8
Слой 1
 62
   250
420
  3947579
370
    25
100
AcDbLine
 10
134.7111474256504
 20
-184.5464625104654
 30
0.0
 11
137.4328765762122
 21
-184.5464625104654
 31
0.0
  0
LINE
  5
E1
330
DC
100
AcDbEntity
  8
Слой 1
 62
   250
420
  3947579
370
    25
100
AcDbLine
 10
134.5555633648504
 20
-179.5228762864625
 30
0.0
 11
137.4328765762122
 21
-179.5228762864625
 31
0.0
  0
LINE
  5
E2
330
DC
100
AcDbEntity
  8
Слой 1
 62
   250
420
  3947579
370
    25
100
AcDbLine
 10
137.5884606370115
 20
-179.6747366066768
 30
0.0
 11
137.6646591015717
 21
-182.0165629131274
 31
0.0
  0
LINE
  5
E3
330
DC
100
AcDbEntity
  8
Слой 1
 62
   250
420
  3947579
370
    25
100
AcDbLine
 10
136.9730352660795
 20
-179.599074751022
 30
0.0
 11
136.9730352660795
 21
-179.5228762864625
 31
0.0
  0
LINE
  5
E4
330
DC
100
AcDbEntity
  8
Слой 1
 62
   250
420
  3947579
370
    25
100
AcDbLine
 10
137.5884606370115
 20
-184.394602190251
 30
0.0
 11
137.6646591015717
 21
-182.0165629131274
 31
0.0
  0
LINE
  5
E5
330
DC
100
AcDbEntity
  8
Слой 1
 62
   250
420
  3947579
370
    25
100
AcDbLine
 10
155.5537495667415
 20
-119.1072341553132
 30
0.0
 11
156.1292057046635
 21
-118.5317617565153
 31
0.0
  0
LINE
  5
E6
330
DC
100
AcDbEntity
  8
Слой 1
 62
   250
420
  3947579
370
    25
100
AcDbLine
 10
159.3144999059443
 20
-123.4034876603032
 30
0.0
 11
159.1983484692503
 21
-123.5191187489681
 31
0.0
  0
LINE
  5
E7
330
DC
100
AcDbEntity
  8
Слой 1
 62
   250
420
  3947579
370
    25
100
AcDbLine
 10
177.3414207766466
 20
-184.7782450358236
 30
0.0
 11
172.050359404642
 21
-184.7782450358236
 31
0.0
  0
LINE
  5
E8
330
DC
100
AcDbEntity
  8
Слой 1
 62
   250
420
  3947579
370
    25
100
AcDbLine
 10
154.750754992076
 20
-184.6620935991303
 30
0.0
 11
194.6053163056935
 21
-184.6620935991303
 31
0.0
  0
LINE
  5
E9
330
DC
100
AcDbEntity
  8
Слой 1
 62
   250
420
  3947579
370
    25
100
AcDbLine
 10
172.050359404642
 20
-184.7782450358236
 30
0.0
 11
171.742378414723
 21
-184.6620935991303
 31
0.0
  0
LINE
  5
EA
330
DC
100
AcDbEntity
  8
Слой 1
 62
   250
420
  3947579
370
    25
100
AcDbLine
 10
157.548145998292
 20
-124.3626029046744
 30
0.0
 11
157.6637770869569
 21
-124.2107425844603
 31
0.0
  0
LINE
  5
EB
330
DC
100
AcDbEntity
  8
Слой 1
 62
   250
420
  3947579
370
    25
100
AcDbLine
 10
163.0747298971179
 20
-123.4034876603032
 30
0.0
 11
162.959098808453
 21
-123.5191187489681
 31
0.0
  0
LINE
  5
EC
330
DC
100
AcDbEntity
  8
Слой 1
 62
   250
420
  3947579
370
    25
100
AcDbLine
 10
155.4018892465284
 20
-132.6108996931868
 30
0.0
 11
155.9773453844497
 21
-132.0753965273992
 31
0.0
  0
LINE
  5
ED
330
DC
100
AcDbEntity
  8
Слой 1
 62
   250
420
  3947579
370
    25
100
AcDbLine
 10
155.4375818691719
 20
-132.0354435552645
 30
0.0
 11
155.9773453844497
 21
-131.4999403894773
 31
0.0
  0
LINE
  5
EE
330
DC
100
AcDbEntity
  8
Слой 1
 62
   250
420
  3947579
370
    25
100
AcDbLine
 10
166.7949906552809
 20
-123.4034876603032
 30
0.0
 11
166.6793758274917
 21
-123.5191187489681
 31
0.0
  0
LINE
  5
EF
330
DC
100
AcDbEntity
  8
Слой 1
 62
   250
420
  3947579
370
    25
100
AcDbLine
 10
157.587578622398
 20
-131.4200181843315
 30
0.0
 11
157.4719475337325
 21
-131.4999403894773
 31
0.0
  0
LINE
  5
F0
330
DC
100
AcDbEntity
  8
Слой 1
 62
   250
420
  3947579
370
    25
100
AcDbLine
 10
170.5520172538981
 20
-123.4034876603032
 30
0.0
 11
170.4395895577891
 21
-123.5191187489681
 31
0.0
  0
LINE
  5
F1
330
DC
100
AcDbEntity
  8
Слой 1
 62
   250
420
  3947579
370
    25
100
AcDbLine
 10
160.8085817071979
 20
-131.4999403894773
 30
0.0
 11
160.9647023769032
 21
-131.4200181843315
 31
0.0
  0
LINE
  5
F2
330
DC
100
AcDbEntity
  8
Слой 1
 62
   250
420
  3947579
370
    25
100
AcDbLine
 10
155.0182464009546
 20
-175.150960925818
 30
0.0
 11
194.3735337803341
 21
-175.150960925818
 31
0.0
  0
LINE
  5
F3
330
DC
100
AcDbEntity
  8
Слой 1
 62
   250
420
  3947579
370
    25
100
AcDbLine
 10
155.0182464009546
 20
-174.8035473117936
 30
0.0
 11
194.3735337803341
 21
-174.8035473117936
 31
0.0
  0
LINE
  5
F4
330
DC
100
AcDbEntity
  8
Слой 1
 62
   250
420
  3947579
370
    25
100
AcDbLine
 10
157.3957653300492
 20
-140.2837403437766
 30
0.0
 11
157.5119167667432
 21
-140.1276196740717
 31
0.0
  0
LINE
  5
F5
330
DC
100
AcDbEntity
  8
Слой 1
 62
   250
420
  3947579
370
    25
100
AcDbLine
 10
160.8847801717575
 20
-134.9127567666263
 30
0.0
 11
160.7728728236781
 21
-135.0283878552912
 31
0.0
  0
LINE
  5
F6
330
DC
100
AcDbEntity
  8
Слой 1
 62
   250
420
  3947579
370
    25
100
AcDbLine
 10
174.2722942729367
 20
-123.4034876603032
 30
0.0
 11
174.1603869248574
 21
-123.5191187489681
 31
0.0
  0
LINE
  5
F7
330
DC
100
AcDbEntity
  8
Слой 1
 62
   250
420
  3947579
370
    25
100
AcDbLine
 10
164.5693320464006
 20
-131.4999403894773
 30
0.0
 11
164.721192366615
 21
-131.4200181843315
 31
0.0
  0
LINE
  5
F8
330
DC
100
AcDbEntity
  8
Слой 1
 62
   250
420
  3947579
370
    25
100
AcDbLine
 10
168.289592804563
 20
-131.4999403894773
 30
0.0
 11
168.4414531247774
 21
-131.4200181843315
 31
0.0
  0
LINE
  5
F9
330
DC
100
AcDbEntity
  8
Слой 1
 62
   250
420
  3947579
370
    25
100
AcDbLine
 10
155.8212247147451
 20
-174.8035473117936
 30
0.0
 11
155.8212247147451
 21
-175.150960925818
 31
0.0
  0
LINE
  5
FA
330
DC
100
AcDbEntity
  8
Слой 1
 62
   250
420
  3947579
370
    25
100
AcDbLine
 10
155.0182464009546
 20
-174.8035473117936
 30
0.0
 11
155.5537495667415
 21
-119.1072341553132
 31
0.0
  0
LINE
  5
FB
330
DC
100
AcDbEntity
  8
Слой 1
 62
   250
420
  3947579
370
    25
100
AcDbLine
 10
156.2048675603183
 20
-174.8035473117936
 30
0.0
 11
156.2048675603183
 21
-175.150960925818
 31
0.0
  0
LINE
  5
FC
330
DC
100
AcDbEntity
  8
Слой 1
 62
   250
420
  3947579
370
    25
100
AcDbLine
 10
156.6684326110366
 20
-175.150960925818
 30
0.0
 11
156.6684326110366
 21
-174.8035473117936
 31
0.0
  0
LINE
  5
FD
330
DC
100
AcDbEntity
  8
Слой 1
 62
   250
420
  3947579
370
    25
100
AcDbLine
 10
155.0182464009546
 20
-175.150960925818
 30
0.0
 11
154.750754992076
 21
-184.6620935991303
 31
0.0
  0
LINE
  5
FE
330
DC
100
AcDbEntity
  8
Слой 1
 62
   250
420
  3947579
370
    25
100
AcDbLine
 10
155.2857215489575
 20
-145.191175131084
 30
0.0
 11
155.8611939477558
 21
-144.6157027322864
 31
0.0
  0
LINE
  5
FF
330
DC
100
AcDbEntity
  8
Слой 1
 62
   250
420
  3947579
370
    25
100
AcDbLine
 10
164.6449939020548
 20
-134.9127567666263
 30
0.0
 11
164.4931335818411
 21
-135.0283878552912
 31
0.0
  0
LINE
  5
100
330
DC
100
AcDbEntity
  8
Слой 1
 62
   250
420
  3947579
370
    25
100
AcDbLine
 10
178.0325080032341
 20
-123.4034876603032
 30
0.0
 11
177.9168931754449
 21
-123.5191187489681
 31
0.0
  0
LINE
  5
101
330
DC
100
AcDbEntity
  8
Слой 1
 62
   250
420
  3947579
370
    25
100
AcDbLine
 10
172.050359404642
 20
-131.4999403894773
 30
0.0
 11
172.2022197248564
 21
-131.4200181843315
 31
0.0
  0
LINE
  5
102
330
DC
100
AcDbEntity
  8
Слой 1
 62
   250
420
  3947579
370
    25
100
AcDbLine
 10
171.0512911881362
 20
-171.890004868883
 30
0.0
 11
166.4113478097077
 21
-171.890004868883
 31
0.0
  0
LINE
  5
103
330
DC
100
AcDbEntity
  8
Слой 1
 62
   250
420
  3947579
370
    25
100
AcDbLine
 10
165.4122795932012
 20
-171.8143430132289
 30
0.0
 11
160.7728728236781
 21
-171.8143430132289
 31
0.0
  0
LINE
  5
104
330
DC
100
AcDbEntity
  8
Слой 1
 62
   250
420
  3947579
370
    25
100
AcDbLine
 10
171.0150619565867
 20
-170.8152747967224
 30
0.0
 11
166.4875462742673
 21
-170.8152747967224
 31
0.0
  0
LINE
  5
105
330
DC
100
AcDbEntity
  8
Слой 1
 62
   250
420
  3947579
370
    25
100
AcDbLine
 10
165.3366177375471
 20
-170.8152747967224
 30
0.0
 11
160.8085817071979
 21
-170.8152747967224
 31
0.0
  0
LINE
  5
106
330
DC
100
AcDbEntity
  8
Слой 1
 62
   250
420
  3947579
370
    25
100
AcDbLine
 10
160.8847801717575
 20
-170.7390763321628
 30
0.0
 11
165.296664765412
 21
-170.7390763321628
 31
0.0
  0
LINE
  5
107
330
DC
100
AcDbEntity
  8
Слой 1
 62
   250
420
  3947579
370
    25
100
AcDbLine
 10
166.5237755058161
 20
-170.7390763321628
 30
0.0
 11
170.9356600994706
 21
-170.7390763321628
 31
0.0
  0
LINE
  5
108
330
DC
100
AcDbEntity
  8
Слой 1
 62
   250
420
  3947579
370
    25
100
AcDbLine
 10
160.8847801717575
 20
-165.2924146384813
 30
0.0
 11
160.8085817071979
 21
-165.2524616663469
 31
0.0
  0
LINE
  5
109
330
DC
100
AcDbEntity
  8
Слой 1
 62
   250
420
  3947579
370
    25
100
AcDbLine
 10
165.296664765412
 20
-170.7390763321628
 30
0.0
 11
165.3366177375471
 21
-170.8152747967224
 31
0.0
  0
LINE
  5
10A
330
DC
100
AcDbEntity
  8
Слой 1
 62
   250
420
  3947579
370
    25
100
AcDbLine
 10
158.6628453034627
 20
-162.9506045929077
 30
0.0
 11
157.3201034743944
 21
-160.0370621499965
 31
0.0
  0
LINE
  5
10B
330
DC
100
AcDbEntity
  8
Слой 1
 62
   250
420
  3947579
370
    25
100
AcDbLine
 10
157.2039357768242
 20
-159.4216367790639
 30
0.0
 11
158.8903674793313
 21
-163.0662356815727
 31
0.0
  0
LINE
  5
10C
330
DC
100
AcDbEntity
  8
Слой 1
 62
   250
420
  3947579
370
    25
100
AcDbLine
 10
160.3892299781049
 20
-163.0662356815727
 30
0.0
 11
157.2439050098349
 21
-156.2006336942633
 31
0.0
  0
LINE
  5
10D
330
DC
100
AcDbEntity
  8
Слой 1
 62
   250
420
  3947579
370
    25
100
AcDbLine
 10
157.3201034743944
 20
-160.0370621499965
 30
0.0
 11
157.2039357768242
 21
-159.4216367790639
 31
0.0
  0
LINE
  5
10E
330
DC
100
AcDbEntity
  8
Слой 1
 62
   250
420
  3947579
370
    25
100
AcDbLine
 10
158.8903674793313
 20
-156.7004279765311
 30
0.0
 11
158.8903674793313
 21
-155.3576861474627
 31
0.0
  0
LINE
  5
10F
330
DC
100
AcDbEntity
  8
Слой 1
 62
   250
420
  3947579
370
    25
100
AcDbLine
 10
158.8546585958115
 20
-151.2132929626868
 30
0.0
 11
158.8147056236771
 21
-148.3002708678052
 31
0.0
  0
LINE
  5
110
330
DC
100
AcDbEntity
  8
Слой 1
 62
   250
420
  3947579
370
    25
100
AcDbLine
 10
159.0464881490366
 20
-159.7296177689829
 30
0.0
 11
159.0065189160259
 21
-155.625177556342
 31
0.0
  0
LINE
  5
111
330
DC
100
AcDbEntity
  8
Слой 1
 62
   250
420
  3947579
370
    25
100
AcDbLine
 10
158.9702896844764
 20
-151.4813047195945
 30
0.0
 11
158.9702896844764
 21
-148.3002708678052
 31
0.0
  0
LINE
  5
112
330
DC
100
AcDbEntity
  8
Слой 1
 62
   250
420
  3947579
370
    25
100
AcDbLine
 10
159.0464881490366
 20
-151.8287183336188
 30
0.0
 11
159.0464881490366
 21
-148.2603016347945
 31
0.0
  0
LINE
  5
113
330
DC
100
AcDbEntity
  8
Слой 1
 62
   250
420
  3947579
370
    25
100
AcDbLine
 10
159.0821807716801
 20
-159.9970929169858
 30
0.0
 11
159.0821807716801
 21
-155.5852083233313
 31
0.0
  0
LINE
  5
114
330
DC
100
AcDbEntity
  8
Слой 1
 62
   250
420
  3947579
370
    25
100
AcDbLine
 10
159.2740103249051
 20
-148.2603016347945
 30
0.0
 11
159.2740103249051
 21
-152.3642214994064
 31
0.0
  0
LINE
  5
115
330
DC
100
AcDbEntity
  8
Слой 1
 62
   250
420
  3947579
370
    25
100
AcDbLine
 10
159.3144999059443
 20
-160.5368564322643
 30
0.0
 11
159.3144999059443
 21
-156.0487733740496
 31
0.0
  0
LINE
  5
116
330
DC
100
AcDbEntity
  8
Слой 1
 62
   250
420
  3947579
370
    25
100
AcDbLine
 10
157.6637770869569
 20
-123.5191187489681
 30
0.0
 11
157.6637770869569
 21
-124.2107425844603
 31
0.0
  0
LINE
  5
117
330
DC
100
AcDbEntity
  8
Слой 1
 62
   250
420
  3947579
370
    25
100
AcDbLine
 10
157.3957653300492
 20
-140.2837403437766
 30
0.0
 11
157.4357183021836
 21
-135.5239217880677
 31
0.0
  0
LINE
  5
118
330
DC
100
AcDbEntity
  8
Слой 1
 62
   250
420
  3947579
370
    25
100
AcDbLine
 10
157.1645031527195
 20
-163.0662356815727
 30
0.0
 11
157.2039357768242
 21
-159.4216367790639
 31
0.0
  0
LINE
  5
119
330
DC
100
AcDbEntity
  8
Слой 1
 62
   250
420
  3947579
370
    25
100
AcDbLine
 10
157.2439050098349
 20
-156.2006336942633
 30
0.0
 11
157.2801342413843
 21
-151.4450754880456
 31
0.0
  0
LINE
  5
11A
330
DC
100
AcDbEntity
  8
Слой 1
 62
   250
420
  3947579
370
    25
100
AcDbLine
 10
157.4719475337325
 20
-131.4999403894773
 30
0.0
 11
157.5119167667432
 21
-127.5473604970498
 31
0.0
  0
LINE
  5
11B
330
DC
100
AcDbEntity
  8
Слой 1
 62
   250
420
  3947579
370
    25
100
AcDbLine
 10
157.548145998292
 20
-124.3626029046744
 30
0.0
 11
157.548145998292
 21
-123.4034876603032
 31
0.0
  0
LINE
  5
11C
330
DC
100
AcDbEntity
  8
Слой 1
 62
   250
420
  3947579
370
    25
100
AcDbLine
 10
157.3201034743944
 20
-148.2603016347945
 30
0.0
 11
157.3201034743944
 21
-148.1841194311107
 31
0.0
  0
LINE
  5
11D
330
DC
100
AcDbEntity
  8
Слой 1
 62
   250
420
  3947579
370
    25
100
AcDbLine
 10
157.627547855408
 20
-128.1990150995313
 30
0.0
 11
157.587578622398
 21
-131.4200181843315
 31
0.0
  0
LINE
  5
11E
330
DC
100
AcDbEntity
  8
Слой 1
 62
   250
420
  3947579
370
    25
100
AcDbLine
 10
157.548145998292
 20
-136.1393471590004
 30
0.0
 11
157.5119167667432
 21
-140.1276196740717
 31
0.0
  0
LINE
  5
11F
330
DC
100
AcDbEntity
  8
Слой 1
 62
   250
420
  3947579
370
    25
100
AcDbLine
 10
157.3957653300492
 20
-152.0967300905278
 30
0.0
 11
157.3557960970385
 21
-156.0487733740496
 31
0.0
  0
LINE
  5
120
330
DC
100
AcDbEntity
  8
Слой 1
 62
   250
420
  3947579
370
    25
100
AcDbLine
 10
157.3201034743944
 20
-160.0370621499965
 30
0.0
 11
157.2801342413843
 21
-162.9506045929077
 31
0.0
  0
LINE
  5
121
330
DC
100
AcDbEntity
  8
Слой 1
 62
   250
420
  3947579
370
    25
100
AcDbLine
 10
157.3201034743944
 20
-148.2203486626602
 30
0.0
 11
157.3201034743944
 21
-148.2603016347945
 31
0.0
  0
LINE
  5
122
330
DC
100
AcDbEntity
  8
Слой 1
 62
   250
420
  3947579
370
    25
100
AcDbLine
 10
155.2857215489575
 20
-145.8822623576712
 30
0.0
 11
155.8611939477558
 21
-145.3467591918836
 31
0.0
  0
LINE
  5
123
330
DC
100
AcDbEntity
  8
Слой 1
 62
   250
420
  3947579
370
    25
100
AcDbLine
 10
168.3657912691232
 20
-134.9127567666263
 30
0.0
 11
168.2496398324286
 21
-135.0283878552912
 31
0.0
  0
LINE
  5
124
330
DC
100
AcDbEntity
  8
Слой 1
 62
   250
420
  3947579
370
    25
100
AcDbLine
 10
181.7533053703018
 20
-123.4034876603032
 30
0.0
 11
181.6371539336079
 21
-123.5191187489681
 31
0.0
  0
LINE
  5
125
330
DC
100
AcDbEntity
  8
Слой 1
 62
   250
420
  3947579
370
    25
100
AcDbLine
 10
175.7706201628044
 20
-131.4999403894773
 30
0.0
 11
175.9224804830187
 21
-131.4200181843315
 31
0.0
  0
LINE
  5
126
330
DC
100
AcDbEntity
  8
Слой 1
 62
   250
420
  3947579
370
    25
100
AcDbLine
 10
179.5313867628834
 20
-131.4999403894773
 30
0.0
 11
179.6832470830978
 21
-131.4200181843315
 31
0.0
  0
LINE
  5
127
330
DC
100
AcDbEntity
  8
Слой 1
 62
   250
420
  3947579
370
    25
100
AcDbLine
 10
158.8903674793313
 20
-163.0662356815727
 30
0.0
 11
158.6628453034627
 21
-162.9506045929077
 31
0.0
  0
LINE
  5
128
330
DC
100
AcDbEntity
  8
Слой 1
 62
   250
420
  3947579
370
    25
100
AcDbLine
 10
162.6111648463997
 20
-163.0662356815727
 30
0.0
 11
162.3831060616257
 21
-162.9506045929077
 31
0.0
  0
LINE
  5
129
330
DC
100
AcDbEntity
  8
Слой 1
 62
   250
420
  3947579
370
    25
100
AcDbLine
 10
166.5237755058161
 20
-165.2924146384813
 30
0.0
 11
166.4875462742673
 21
-165.2524616663469
 31
0.0
  0
LINE
  5
12A
330
DC
100
AcDbEntity
  8
Слой 1
 62
   250
420
  3947579
370
    25
100
AcDbLine
 10
170.9356600994706
 20
-170.7390763321628
 30
0.0
 11
171.0150619565867
 21
-170.8152747967224
 31
0.0
  0
LINE
  5
12B
330
DC
100
AcDbEntity
  8
Слой 1
 62
   250
420
  3947579
370
    25
100
AcDbLine
 10
160.4648918337591
 20
-163.026266448562
 30
0.0
 11
159.3144999059443
 21
-160.5368564322643
 31
0.0
  0
LINE
  5
12C
330
DC
100
AcDbEntity
  8
Слой 1
 62
   250
420
  3947579
370
    25
100
AcDbLine
 10
157.3557960970385
 20
-156.0487733740496
 30
0.0
 11
159.0464881490366
 21
-159.7296177689829
 31
0.0
  0
LINE
  5
12D
330
DC
100
AcDbEntity
  8
Слой 1
 62
   250
420
  3947579
370
    25
100
AcDbLine
 10
162.3436734375204
 20
-162.8744061283476
 30
0.0
 11
162.3831060616257
 21
-162.9506045929077
 31
0.0
  0
LINE
  5
12E
330
DC
100
AcDbEntity
  8
Слой 1
 62
   250
420
  3947579
370
    25
100
AcDbLine
 10
159.0065189160259
 20
-155.625177556342
 30
0.0
 11
157.3957653300492
 21
-152.0967300905278
 31
0.0
  0
LINE
  5
12F
330
DC
100
AcDbEntity
  8
Слой 1
 62
   250
420
  3947579
370
    25
100
AcDbLine
 10
157.2801342413843
 20
-151.4450754880456
 30
0.0
 11
162.6111648463997
 21
-163.0662356815727
 31
0.0
  0
LINE
  5
130
330
DC
100
AcDbEntity
  8
Слой 1
 62
   250
420
  3947579
370
    25
100
AcDbLine
 10
159.3144999059443
 20
-156.0487733740496
 30
0.0
 11
162.0756616806121
 21
-162.1470896702119
 31
0.0
  0
LINE
  5
131
330
DC
100
AcDbEntity
  8
Слой 1
 62
   250
420
  3947579
370
    25
100
AcDbLine
 10
159.0821807716801
 20
-159.9970929169858
 30
0.0
 11
159.0464881490366
 21
-159.7296177689829
 31
0.0
  0
LINE
  5
132
330
DC
100
AcDbEntity
  8
Слой 1
 62
   250
420
  3947579
370
    25
100
AcDbLine
 10
159.0464881490366
 20
-151.8287183336188
 30
0.0
 11
158.9702896844764
 21
-151.4813047195945
 31
0.0
  0
LINE
  5
133
330
DC
100
AcDbEntity
  8
Слой 1
 62
   250
420
  3947579
370
    25
100
AcDbLine
 10
157.3957653300492
 20
-152.0967300905278
 30
0.0
 11
157.2801342413843
 21
-151.4450754880456
 31
0.0
  0
LINE
  5
134
330
DC
100
AcDbEntity
  8
Слой 1
 62
   250
420
  3947579
370
    25
100
AcDbLine
 10
160.8085817071979
 20
-165.2524616663469
 30
0.0
 11
160.7728728236781
 21
-164.2171642182923
 31
0.0
  0
LINE
  5
135
330
DC
100
AcDbEntity
  8
Слой 1
 62
   250
420
  3947579
370
    25
100
AcDbLine
 10
160.7728728236781
 20
-171.8143430132289
 30
0.0
 11
160.7728728236781
 21
-164.2171642182923
 31
0.0
  0
LINE
  5
136
330
DC
100
AcDbEntity
  8
Слой 1
 62
   250
420
  3947579
370
    25
100
AcDbLine
 10
160.8847801717575
 20
-165.2924146384813
 30
0.0
 11
160.8847801717575
 21
-170.7390763321628
 31
0.0
  0
LINE
  5
137
330
DC
100
AcDbEntity
  8
Слой 1
 62
   250
420
  3947579
370
    25
100
AcDbLine
 10
162.1513235362663
 20
-148.2603016347945
 30
0.0
 11
162.1513235362663
 21
-150.4460072715398
 31
0.0
  0
LINE
  5
138
330
DC
100
AcDbEntity
  8
Слой 1
 62
   250
420
  3947579
370
    25
100
AcDbLine
 10
162.1156309136228
 20
-154.0506369410379
 30
0.0
 11
162.1156309136228
 21
-158.462521534693
 31
0.0
  0
LINE
  5
139
330
DC
100
AcDbEntity
  8
Слой 1
 62
   250
420
  3947579
370
    25
100
AcDbLine
 10
162.0756616806121
 20
-163.026266448562
 30
0.0
 11
162.0756616806121
 21
-162.1470896702119
 31
0.0
  0
LINE
  5
13A
330
DC
100
AcDbEntity
  8
Слой 1
 62
   250
420
  3947579
370
    25
100
AcDbLine
 10
160.7728728236781
 20
-171.8143430132289
 30
0.0
 11
160.8085817071979
 21
-170.8152747967224
 31
0.0
  0
LINE
  5
13B
330
DC
100
AcDbEntity
  8
Слой 1
 62
   250
420
  3947579
370
    25
100
AcDbLine
 10
172.1260212602962
 20
-134.9127567666263
 30
0.0
 11
171.9741609400825
 21
-135.0283878552912
 31
0.0
  0
LINE
  5
13C
330
DC
100
AcDbEntity
  8
Слой 1
 62
   250
420
  3947579
370
    25
100
AcDbLine
 10
185.5135353614755
 20
-123.4034876603032
 30
0.0
 11
185.3979042728106
 21
-123.5191187489681
 31
0.0
  0
LINE
  5
13D
330
DC
100
AcDbEntity
  8
Слой 1
 62
   250
420
  3947579
370
    25
100
AcDbLine
 10
183.2516475210458
 20
-131.4999403894773
 30
0.0
 11
183.4035078412601
 21
-131.4200181843315
 31
0.0
  0
LINE
  5
13E
330
DC
100
AcDbEntity
  8
Слой 1
 62
   250
420
  3947579
370
    25
100
AcDbLine
 10
159.3901617615991
 20
-144.6157027322864
 30
0.0
 11
159.5420220818128
 21
-144.5395042677268
 31
0.0
  0
LINE
  5
13F
330
DC
100
AcDbEntity
  8
Слой 1
 62
   250
420
  3947579
370
    25
100
AcDbLine
 10
165.2204663008531
 20
-166.0954092131482
 30
0.0
 11
165.296664765412
 21
-166.0954092131482
 31
0.0
  0
LINE
  5
140
330
DC
100
AcDbEntity
  8
Слой 1
 62
   250
420
  3947579
370
    25
100
AcDbLine
 10
166.5237755058161
 20
-166.0954092131482
 30
0.0
 11
169.7485023312022
 21
-166.0954092131482
 31
0.0
  0
LINE
  5
141
330
DC
100
AcDbEntity
  8
Слой 1
 62
   250
420
  3947579
370
    25
100
AcDbLine
 10
170.9356600994706
 20
-165.2924146384813
 30
0.0
 11
166.5237755058161
 21
-165.2924146384813
 31
0.0
  0
LINE
  5
142
330
DC
100
AcDbEntity
  8
Слой 1
 62
   250
420
  3947579
370
    25
100
AcDbLine
 10
165.296664765412
 20
-165.2924146384813
 30
0.0
 11
160.8847801717575
 21
-165.2924146384813
 31
0.0
  0
LINE
  5
143
330
DC
100
AcDbEntity
  8
Слой 1
 62
   250
420
  3947579
370
    25
100
AcDbLine
 10
160.8085817071979
 20
-165.2524616663469
 30
0.0
 11
165.3366177375471
 21
-165.2524616663469
 31
0.0
  0
LINE
  5
144
330
DC
100
AcDbEntity
  8
Слой 1
 62
   250
420
  3947579
370
    25
100
AcDbLine
 10
166.4875462742673
 20
-165.2524616663469
 30
0.0
 11
171.0150619565867
 21
-165.2524616663469
 31
0.0
  0
LINE
  5
145
330
DC
100
AcDbEntity
  8
Слой 1
 62
   250
420
  3947579
370
    25
100
AcDbLine
 10
160.7728728236781
 20
-164.2171642182923
 30
0.0
 11
165.4122795932012
 21
-164.2171642182923
 31
0.0
  0
LINE
  5
146
330
DC
100
AcDbEntity
  8
Слой 1
 62
   250
420
  3947579
370
    25
100
AcDbLine
 10
166.4113478097077
 20
-164.2171642182923
 30
0.0
 11
171.0512911881362
 21
-164.2171642182923
 31
0.0
  0
LINE
  5
147
330
DC
100
AcDbEntity
  8
Слой 1
 62
   250
420
  3947579
370
    25
100
AcDbLine
 10
166.3719151856024
 20
-163.0662356815727
 30
0.0
 11
166.1438726617041
 21
-162.9506045929077
 31
0.0
  0
LINE
  5
148
330
DC
100
AcDbEntity
  8
Слой 1
 62
   250
420
  3947579
370
    25
100
AcDbLine
 10
162.1156309136228
 20
-158.462521534693
 30
0.0
 11
159.2740103249051
 21
-152.3642214994064
 31
0.0
  0
LINE
  5
149
330
DC
100
AcDbEntity
  8
Слой 1
 62
   250
420
  3947579
370
    25
100
AcDbLine
 10
164.1100273451733
 20
-163.0662356815727
 30
0.0
 11
157.3201034743944
 21
-148.2603016347945
 31
0.0
  0
LINE
  5
14A
330
DC
100
AcDbEntity
  8
Слой 1
 62
   250
420
  3947579
370
    25
100
AcDbLine
 10
157.5119167667432
 20
-148.3002708678052
 30
0.0
 11
158.9702896844764
 21
-151.4813047195945
 31
0.0
  0
LINE
  5
14B
330
DC
100
AcDbEntity
  8
Слой 1
 62
   250
420
  3947579
370
    25
100
AcDbLine
 10
162.3831060616257
 20
-158.8861336132769
 30
0.0
 11
164.2613510564816
 21
-162.9506045929077
 31
0.0
  0
LINE
  5
14C
330
DC
100
AcDbEntity
  8
Слой 1
 62
   250
420
  3947579
370
    25
100
AcDbLine
 10
162.3074442059715
 20
-162.6426236029888
 30
0.0
 11
162.3436734375204
 21
-162.8744061283476
 31
0.0
  0
LINE
  5
14D
330
DC
100
AcDbEntity
  8
Слой 1
 62
   250
420
  3947579
370
    25
100
AcDbLine
 10
162.3436734375204
 20
-154.5504474841813
 30
0.0
 11
162.4193352931746
 21
-154.857891865195
 31
0.0
  0
LINE
  5
14E
330
DC
100
AcDbEntity
  8
Слой 1
 62
   250
420
  3947579
370
    25
100
AcDbLine
 10
157.548145998292
 20
-136.1393471590004
 30
0.0
 11
157.4357183021836
 21
-135.5239217880677
 31
0.0
  0
LINE
  5
14F
330
DC
100
AcDbEntity
  8
Слой 1
 62
   250
420
  3947579
370
    25
100
AcDbLine
 10
157.627547855408
 20
-128.1990150995313
 30
0.0
 11
157.5119167667432
 21
-127.5473604970498
 31
0.0
  0
LINE
  5
150
330
DC
100
AcDbEntity
  8
Слой 1
 62
   250
420
  3947579
370
    25
100
AcDbLine
 10
165.4122795932012
 20
-171.8143430132289
 30
0.0
 11
165.3366177375471
 21
-170.8152747967224
 31
0.0
  0
LINE
  5
151
330
DC
100
AcDbEntity
  8
Слой 1
 62
   250
420
  3947579
370
    25
100
AcDbLine
 10
163.1503917527727
 20
-148.3359634904487
 30
0.0
 11
163.1503917527727
 21
-152.4041744715414
 31
0.0
  0
LINE
  5
152
330
DC
100
AcDbEntity
  8
Слой 1
 62
   250
420
  3947579
370
    25
100
AcDbLine
 10
163.1503917527727
 20
-156.4686454511716
 30
0.0
 11
163.1503917527727
 21
-156.7004279765311
 31
0.0
  0
LINE
  5
153
330
DC
100
AcDbEntity
  8
Слой 1
 62
   250
420
  3947579
370
    25
100
AcDbLine
 10
163.5702638298941
 20
-160.4207049955697
 30
0.0
 11
163.5702638298941
 21
-157.387791462533
 31
0.0
  0
LINE
  5
154
330
DC
100
AcDbEntity
  8
Слой 1
 62
   250
420
  3947579
370
    25
100
AcDbLine
 10
162.3074442059715
 20
-162.6426236029888
 30
0.0
 11
162.3074442059715
 21
-162.9905738259185
 31
0.0
  0
LINE
  5
155
330
DC
100
AcDbEntity
  8
Слой 1
 62
   250
420
  3947579
370
    25
100
AcDbLine
 10
162.3831060616257
 20
-148.2603016347945
 30
0.0
 11
162.3436734375204
 21
-150.9058323207968
 31
0.0
  0
LINE
  5
156
330
DC
100
AcDbEntity
  8
Слой 1
 62
   250
420
  3947579
370
    25
100
AcDbLine
 10
162.3436734375204
 20
-154.5504474841813
 30
0.0
 11
162.3074442059715
 21
-158.8861336132769
 31
0.0
  0
LINE
  5
157
330
DC
100
AcDbEntity
  8
Слой 1
 62
   250
420
  3947579
370
    25
100
AcDbLine
 10
162.3436734375204
 20
-162.8744061283476
 30
0.0
 11
162.3436734375204
 21
-162.9506045929077
 31
0.0
  0
LINE
  5
158
330
DC
100
AcDbEntity
  8
Слой 1
 62
   250
420
  3947579
370
    25
100
AcDbLine
 10
162.4593045261853
 20
-148.3002708678052
 30
0.0
 11
162.4193352931746
 21
-150.869603089248
 31
0.0
  0
LINE
  5
159
330
DC
100
AcDbEntity
  8
Слой 1
 62
   250
420
  3947579
370
    25
100
AcDbLine
 10
162.4193352931746
 20
-154.857891865195
 30
0.0
 11
162.3831060616257
 21
-158.8861336132769
 31
0.0
  0
LINE
  5
15A
330
DC
100
AcDbEntity
  8
Слой 1
 62
   250
420
  3947579
370
    25
100
AcDbLine
 10
157.2439050098349
 20
-156.2006336942633
 30
0.0
 11
157.3557960970385
 21
-156.0487733740496
 31
0.0
  0
LINE
  5
15B
330
DC
100
AcDbEntity
  8
Слой 1
 62
   250
420
  3947579
370
    25
100
AcDbLine
 10
159.505792850264
 20
-148.1841194311107
 30
0.0
 11
159.4658236172539
 21
-148.2603016347945
 31
0.0
  0
LINE
  5
15C
330
DC
100
AcDbEntity
  8
Слой 1
 62
   250
420
  3947579
370
    25
100
AcDbLine
 10
175.8468186273645
 20
-134.9127567666263
 30
0.0
 11
175.7311875386997
 21
-135.0283878552912
 31
0.0
  0
LINE
  5
15D
330
DC
100
AcDbEntity
  8
Слой 1
 62
   250
420
  3947579
370
    25
100
AcDbLine
 10
189.2343327285439
 20
-123.4034876603032
 30
0.0
 11
189.1187016398783
 21
-123.5191187489681
 31
0.0
  0
LINE
  5
15E
330
DC
100
AcDbEntity
  8
Слой 1
 62
   250
420
  3947579
370
    25
100
AcDbLine
 10
163.2665431894667
 20
-148.1841194311107
 30
0.0
 11
163.1109591286668
 21
-148.3002708678052
 31
0.0
  0
LINE
  5
15F
330
DC
100
AcDbEntity
  8
Слой 1
 62
   250
420
  3947579
370
    25
100
AcDbLine
 10
158.9702896844764
 20
-148.3002708678052
 30
0.0
 11
159.0464881490366
 21
-148.2603016347945
 31
0.0
  0
LINE
  5
160
330
DC
100
AcDbEntity
  8
Слой 1
 62
   250
420
  3947579
370
    25
100
AcDbLine
 10
187.0081375107576
 20
-131.4999403894773
 30
0.0
 11
187.1642581804629
 21
-131.4200181843315
 31
0.0
  0
LINE
  5
161
330
DC
100
AcDbEntity
  8
Слой 1
 62
   250
420
  3947579
370
    25
100
AcDbLine
 10
163.1109591286668
 20
-144.6157027322864
 30
0.0
 11
163.2665431894667
 21
-144.5395042677268
 31
0.0
  0
LINE
  5
162
330
DC
100
AcDbEntity
  8
Слой 1
 62
   250
420
  3947579
370
    25
100
AcDbLine
 10
190.7289348778259
 20
-131.4999403894773
 30
0.0
 11
190.8845189386252
 21
-131.4200181843315
 31
0.0
  0
LINE
  5
163
330
DC
100
AcDbEntity
  8
Слой 1
 62
   250
420
  3947579
370
    25
100
AcDbLine
 10
192.2272770285699
 20
-163.0662356815727
 30
0.0
 11
190.3090628007032
 21
-163.0662356815727
 31
0.0
  0
LINE
  5
164
330
DC
100
AcDbEntity
  8
Слой 1
 62
   250
420
  3947579
370
    25
100
AcDbLine
 10
188.8107206499593
 20
-163.0662356815727
 30
0.0
 11
186.5488328095302
 21
-163.0662356815727
 31
0.0
  0
LINE
  5
165
330
DC
100
AcDbEntity
  8
Слой 1
 62
   250
420
  3947579
370
    25
100
AcDbLine
 10
185.0542306602475
 20
-163.0662356815727
 30
0.0
 11
182.8280354424618
 21
-163.0662356815727
 31
0.0
  0
LINE
  5
166
330
DC
100
AcDbEntity
  8
Слой 1
 62
   250
420
  3947579
370
    25
100
AcDbLine
 10
181.3334332931798
 20
-163.0662356815727
 30
0.0
 11
179.0678217121645
 21
-163.0662356815727
 31
0.0
  0
LINE
  5
167
330
DC
100
AcDbEntity
  8
Слой 1
 62
   250
420
  3947579
370
    25
100
AcDbLine
 10
177.5732033020061
 20
-163.0662356815727
 30
0.0
 11
175.3475446931265
 21
-163.0662356815727
 31
0.0
  0
LINE
  5
168
330
DC
100
AcDbEntity
  8
Слой 1
 62
   250
420
  3947579
370
    25
100
AcDbLine
 10
173.8524059349384
 20
-163.0662356815727
 30
0.0
 11
171.5905180945086
 21
-163.0662356815727
 31
0.0
  0
LINE
  5
169
330
DC
100
AcDbEntity
  8
Слой 1
 62
   250
420
  3947579
370
    25
100
AcDbLine
 10
170.092192204641
 20
-163.0662356815727
 30
0.0
 11
167.8659969868554
 21
-163.0662356815727
 31
0.0
  0
LINE
  5
16A
330
DC
100
AcDbEntity
  8
Слой 1
 62
   250
420
  3947579
370
    25
100
AcDbLine
 10
166.3719151856024
 20
-163.0662356815727
 30
0.0
 11
164.1100273451733
 21
-163.0662356815727
 31
0.0
  0
LINE
  5
16B
330
DC
100
AcDbEntity
  8
Слой 1
 62
   250
420
  3947579
370
    25
100
AcDbLine
 10
162.6111648463997
 20
-163.0662356815727
 30
0.0
 11
160.3892299781049
 21
-163.0662356815727
 31
0.0
  0
LINE
  5
16C
330
DC
100
AcDbEntity
  8
Слой 1
 62
   250
420
  3947579
370
    25
100
AcDbLine
 10
158.8903674793313
 20
-163.0662356815727
 30
0.0
 11
157.1645031527195
 21
-163.0662356815727
 31
0.0
  0
LINE
  5
16D
330
DC
100
AcDbEntity
  8
Слой 1
 62
   250
420
  3947579
370
    25
100
AcDbLine
 10
162.0756616806121
 20
-163.026266448562
 30
0.0
 11
160.4648918337591
 21
-163.026266448562
 31
0.0
  0
LINE
  5
16E
330
DC
100
AcDbEntity
  8
Слой 1
 62
   250
420
  3947579
370
    25
100
AcDbLine
 10
190.4252142373978
 20
-162.9506045929077
 30
0.0
 11
192.111645939905
 21
-162.9506045929077
 31
0.0
  0
LINE
  5
16F
330
DC
100
AcDbEntity
  8
Слой 1
 62
   250
420
  3947579
370
    25
100
AcDbLine
 10
157.2801342413843
 20
-162.9506045929077
 30
0.0
 11
158.6628453034627
 21
-162.9506045929077
 31
0.0
  0
LINE
  5
170
330
DC
100
AcDbEntity
  8
Слой 1
 62
   250
420
  3947579
370
    25
100
AcDbLine
 10
162.3436734375204
 20
-162.9506045929077
 30
0.0
 11
162.3831060616257
 21
-162.9506045929077
 31
0.0
  0
LINE
  5
171
330
DC
100
AcDbEntity
  8
Слой 1
 62
   250
420
  3947579
370
    25
100
AcDbLine
 10
164.2613510564816
 20
-162.9506045929077
 30
0.0
 11
166.1438726617041
 21
-162.9506045929077
 31
0.0
  0
LINE
  5
172
330
DC
100
AcDbEntity
  8
Слой 1
 62
   250
420
  3947579
370
    25
100
AcDbLine
 10
167.98214842355
 20
-162.9506045929077
 30
0.0
 11
169.8641334198671
 21
-162.9506045929077
 31
0.0
  0
LINE
  5
173
330
DC
100
AcDbEntity
  8
Слой 1
 62
   250
420
  3947579
370
    25
100
AcDbLine
 10
171.742378414723
 20
-162.9506045929077
 30
0.0
 11
173.6206234095789
 21
-162.9506045929077
 31
0.0
  0
LINE
  5
174
330
DC
100
AcDbEntity
  8
Слой 1
 62
   250
420
  3947579
370
    25
100
AcDbLine
 10
175.4631757817914
 20
-162.9506045929077
 30
0.0
 11
177.3414207766466
 21
-162.9506045929077
 31
0.0
  0
LINE
  5
175
330
DC
100
AcDbEntity
  8
Слой 1
 62
   250
420
  3947579
370
    25
100
AcDbLine
 10
179.2234057729644
 20
-162.9506045929077
 30
0.0
 11
181.1016507678203
 21
-162.9506045929077
 31
0.0
  0
LINE
  5
176
330
DC
100
AcDbEntity
  8
Слой 1
 62
   250
420
  3947579
370
    25
100
AcDbLine
 10
182.9442031400321
 20
-162.9506045929077
 30
0.0
 11
184.822448134888
 21
-162.9506045929077
 31
0.0
  0
LINE
  5
177
330
DC
100
AcDbEntity
  8
Слой 1
 62
   250
420
  3947579
370
    25
100
AcDbLine
 10
186.7049534792355
 20
-162.9506045929077
 30
0.0
 11
188.5826781260617
 21
-162.9506045929077
 31
0.0
  0
LINE
  5
178
330
DC
100
AcDbEntity
  8
Слой 1
 62
   250
420
  3947579
370
    25
100
AcDbLine
 10
169.8641334198671
 20
-162.9506045929077
 30
0.0
 11
170.092192204641
 21
-163.0662356815727
 31
0.0
  0
LINE
  5
179
330
DC
100
AcDbEntity
  8
Слой 1
 62
   250
420
  3947579
370
    25
100
AcDbLine
 10
173.6206234095789
 20
-162.9506045929077
 30
0.0
 11
173.8524059349384
 21
-163.0662356815727
 31
0.0
  0
LINE
  5
17A
330
DC
100
AcDbEntity
  8
Слой 1
 62
   250
420
  3947579
370
    25
100
AcDbLine
 10
162.1513235362663
 20
-150.4460072715398
 30
0.0
 11
161.1165626971169
 21
-148.2603016347945
 31
0.0
  0
LINE
  5
17B
330
DC
100
AcDbEntity
  8
Слой 1
 62
   250
420
  3947579
370
    25
100
AcDbLine
 10
166.1438726617041
 20
-162.9506045929077
 30
0.0
 11
162.4193352931746
 21
-154.857891865195
 31
0.0
  0
LINE
  5
17C
330
DC
100
AcDbEntity
  8
Слой 1
 62
   250
420
  3947579
370
    25
100
AcDbLine
 10
159.505792850264
 20
-148.1841194311107
 30
0.0
 11
166.3719151856024
 21
-163.0662356815727
 31
0.0
  0
LINE
  5
17D
330
DC
100
AcDbEntity
  8
Слой 1
 62
   250
420
  3947579
370
    25
100
AcDbLine
 10
167.8659969868554
 20
-163.0662356815727
 30
0.0
 11
161.0403642325574
 21
-148.1841194311107
 31
0.0
  0
LINE
  5
17E
330
DC
100
AcDbEntity
  8
Слой 1
 62
   250
420
  3947579
370
    25
100
AcDbLine
 10
162.4193352931746
 20
-150.869603089248
 30
0.0
 11
167.98214842355
 21
-162.9506045929077
 31
0.0
  0
LINE
  5
17F
330
DC
100
AcDbEntity
  8
Слой 1
 62
   250
420
  3947579
370
    25
100
AcDbLine
 10
159.3901617615991
 20
-144.6157027322864
 30
0.0
 11
157.3957653300492
 21
-140.2837403437766
 31
0.0
  0
LINE
  5
180
330
DC
100
AcDbEntity
  8
Слой 1
 62
   250
420
  3947579
370
    25
100
AcDbLine
 10
157.5119167667432
 20
-140.1276196740717
 30
0.0
 11
159.5420220818128
 21
-144.5395042677268
 31
0.0
  0
LINE
  5
181
330
DC
100
AcDbEntity
  8
Слой 1
 62
   250
420
  3947579
370
    25
100
AcDbLine
 10
159.4658236172539
 20
-148.2603016347945
 30
0.0
 11
162.1156309136228
 21
-154.0506369410379
 31
0.0
  0
LINE
  5
182
330
DC
100
AcDbEntity
  8
Слой 1
 62
   250
420
  3947579
370
    25
100
AcDbLine
 10
166.4113478097077
 20
-164.2171642182923
 30
0.0
 11
166.4875462742673
 21
-165.2524616663469
 31
0.0
  0
LINE
  5
183
330
DC
100
AcDbEntity
  8
Слой 1
 62
   250
420
  3947579
370
    25
100
AcDbLine
 10
165.2204663008531
 20
-170.7390763321628
 30
0.0
 11
165.2204663008531
 21
-166.0954092131482
 31
0.0
  0
LINE
  5
184
330
DC
100
AcDbEntity
  8
Слой 1
 62
   250
420
  3947579
370
    25
100
AcDbLine
 10
165.296664765412
 20
-170.7390763321628
 30
0.0
 11
165.296664765412
 21
-165.2924146384813
 31
0.0
  0
LINE
  5
185
330
DC
100
AcDbEntity
  8
Слой 1
 62
   250
420
  3947579
370
    25
100
AcDbLine
 10
165.4122795932012
 20
-164.2171642182923
 30
0.0
 11
165.4122795932012
 21
-171.8143430132289
 31
0.0
  0
LINE
  5
186
330
DC
100
AcDbEntity
  8
Слой 1
 62
   250
420
  3947579
370
    25
100
AcDbLine
 10
166.4113478097077
 20
-171.890004868883
 30
0.0
 11
166.4113478097077
 21
-164.2171642182923
 31
0.0
  0
LINE
  5
187
330
DC
100
AcDbEntity
  8
Слой 1
 62
   250
420
  3947579
370
    25
100
AcDbLine
 10
166.5237755058161
 20
-165.2924146384813
 30
0.0
 11
166.5237755058161
 21
-170.7390763321628
 31
0.0
  0
LINE
  5
188
330
DC
100
AcDbEntity
  8
Слой 1
 62
   250
420
  3947579
370
    25
100
AcDbLine
 10
165.4122795932012
 20
-164.2171642182923
 30
0.0
 11
165.3366177375471
 21
-165.2524616663469
 31
0.0
  0
LINE
  5
189
330
DC
100
AcDbEntity
  8
Слой 1
 62
   250
420
  3947579
370
    25
100
AcDbLine
 10
191.8436341829966
 20
-123.4034876603032
 30
0.0
 11
191.7280030943318
 21
-123.5191187489681
 31
0.0
  0
LINE
  5
18A
330
DC
100
AcDbEntity
  8
Слой 1
 62
   250
420
  3947579
370
    25
100
AcDbLine
 10
179.6070486185376
 20
-134.9127567666263
 30
0.0
 11
179.451448296862
 21
-135.0283878552912
 31
0.0
  0
LINE
  5
18B
330
DC
100
AcDbEntity
  8
Слой 1
 62
   250
420
  3947579
370
    25
100
AcDbLine
 10
166.9868202085053
 20
-148.1841194311107
 30
0.0
 11
166.8711891198405
 21
-148.3002708678052
 31
0.0
  0
LINE
  5
18C
330
DC
100
AcDbEntity
  8
Слой 1
 62
   250
420
  3947579
370
    25
100
AcDbLine
 10
166.8711891198405
 20
-144.6157027322864
 30
0.0
 11
167.0230494400542
 21
-144.5395042677268
 31
0.0
  0
LINE
  5
18D
330
DC
100
AcDbEntity
  8
Слой 1
 62
   250
420
  3947579
370
    25
100
AcDbLine
 10
170.5914498780034
 20
-144.6157027322864
 30
0.0
 11
170.7433101982172
 21
-144.5395042677268
 31
0.0
  0
LINE
  5
18E
330
DC
100
AcDbEntity
  8
Слой 1
 62
   250
420
  3947579
370
    25
100
AcDbLine
 10
163.5702638298941
 20
-160.4207049955697
 30
0.0
 11
164.9529748919745
 21
-160.4207049955697
 31
0.0
  0
LINE
  5
18F
330
DC
100
AcDbEntity
  8
Слой 1
 62
   250
420
  3947579
370
    25
100
AcDbLine
 10
166.8312198868297
 20
-160.4207049955697
 30
0.0
 11
168.7132048831475
 21
-160.4207049955697
 31
0.0
  0
LINE
  5
190
330
DC
100
AcDbEntity
  8
Слой 1
 62
   250
420
  3947579
370
    25
100
AcDbLine
 10
170.5914498780034
 20
-160.4207049955697
 30
0.0
 11
171.4749032667201
 21
-160.4207049955697
 31
0.0
  0
LINE
  5
191
330
DC
100
AcDbEntity
  8
Слой 1
 62
   250
420
  3947579
370
    25
100
AcDbLine
 10
174.8877196438688
 20
-160.4207049955697
 30
0.0
 11
176.190492239927
 21
-160.4207049955697
 31
0.0
  0
LINE
  5
192
330
DC
100
AcDbEntity
  8
Слой 1
 62
   250
420
  3947579
370
    25
100
AcDbLine
 10
178.0724772362448
 20
-160.4207049955697
 30
0.0
 11
179.9150296084566
 21
-160.4207049955697
 31
0.0
  0
LINE
  5
193
330
DC
100
AcDbEntity
  8
Слой 1
 62
   250
420
  3947579
370
    25
100
AcDbLine
 10
181.7932746033125
 20
-160.4207049955697
 30
0.0
 11
182.8280354424618
 21
-160.4207049955697
 31
0.0
  0
LINE
  5
194
330
DC
100
AcDbEntity
  8
Слой 1
 62
   250
420
  3947579
370
    25
100
AcDbLine
 10
177.3414207766466
 20
-162.9506045929077
 30
0.0
 11
177.5732033020061
 21
-163.0662356815727
 31
0.0
  0
LINE
  5
195
330
DC
100
AcDbEntity
  8
Слой 1
 62
   250
420
  3947579
370
    25
100
AcDbLine
 10
181.3334332931798
 20
-163.0662356815727
 30
0.0
 11
181.1016507678203
 21
-162.9506045929077
 31
0.0
  0
LINE
  5
196
330
DC
100
AcDbEntity
  8
Слой 1
 62
   250
420
  3947579
370
    25
100
AcDbLine
 10
157.3201034743944
 20
-148.2203486626602
 30
0.0
 11
157.3201034743944
 21
-148.1841194311107
 31
0.0
  0
LINE
  5
197
330
DC
100
AcDbEntity
  8
Слой 1
 62
   250
420
  3947579
370
    25
100
AcDbLine
 10
161.3840378451198
 20
-144.5395042677268
 30
0.0
 11
157.548145998292
 21
-136.1393471590004
 31
0.0
  0
LINE
  5
198
330
DC
100
AcDbEntity
  8
Слой 1
 62
   250
420
  3947579
370
    25
100
AcDbLine
 10
157.4357183021836
 20
-135.5239217880677
 30
0.0
 11
161.6158203704793
 21
-144.6157027322864
 31
0.0
  0
LINE
  5
199
330
DC
100
AcDbEntity
  8
Слой 1
 62
   250
420
  3947579
370
    25
100
AcDbLine
 10
169.8641334198671
 20
-162.9506045929077
 30
0.0
 11
163.1109591286668
 21
-148.3002708678052
 31
0.0
  0
LINE
  5
19A
330
DC
100
AcDbEntity
  8
Слой 1
 62
   250
420
  3947579
370
    25
100
AcDbLine
 10
163.2665431894667
 20
-148.1841194311107
 30
0.0
 11
170.092192204641
 21
-163.0662356815727
 31
0.0
  0
LINE
  5
19B
330
DC
100
AcDbEntity
  8
Слой 1
 62
   250
420
  3947579
370
    25
100
AcDbLine
 10
171.5905180945086
 20
-163.0662356815727
 30
0.0
 11
164.7611615996257
 21
-148.1841194311107
 31
0.0
  0
LINE
  5
19C
330
DC
100
AcDbEntity
  8
Слой 1
 62
   250
420
  3947579
370
    25
100
AcDbLine
 10
164.9929441249845
 20
-148.3002708678052
 30
0.0
 11
171.742378414723
 21
-162.9506045929077
 31
0.0
  0
LINE
  5
19D
330
DC
100
AcDbEntity
  8
Слой 1
 62
   250
420
  3947579
370
    25
100
AcDbLine
 10
163.1109591286668
 20
-144.6157027322864
 30
0.0
 11
158.6628453034627
 21
-134.9127567666263
 31
0.0
  0
LINE
  5
19E
330
DC
100
AcDbEntity
  8
Слой 1
 62
   250
420
  3947579
370
    25
100
AcDbLine
 10
158.8903674793313
 20
-135.0283878552912
 30
0.0
 11
163.2665431894667
 21
-144.5395042677268
 31
0.0
  0
LINE
  5
19F
330
DC
100
AcDbEntity
  8
Слой 1
 62
   250
420
  3947579
370
    25
100
AcDbLine
 10
168.7894033477071
 20
-156.5842765398365
 30
0.0
 11
168.7894033477071
 21
-152.5160655587451
 31
0.0
  0
LINE
  5
1A0
330
DC
100
AcDbEntity
  8
Слой 1
 62
   250
420
  3947579
370
    25
100
AcDbLine
 10
168.7894033477071
 20
-148.4521311880193
 30
0.0
 11
168.7894033477071
 21
-148.3002708678052
 31
0.0
  0
LINE
  5
1A1
330
DC
100
AcDbEntity
  8
Слой 1
 62
   250
420
  3947579
370
    25
100
AcDbLine
 10
169.7485023312022
 20
-166.0954092131482
 30
0.0
 11
169.7485023312022
 21
-170.7390763321628
 31
0.0
  0
LINE
  5
1A2
330
DC
100
AcDbEntity
  8
Слой 1
 62
   250
420
  3947579
370
    25
100
AcDbLine
 10
166.4113478097077
 20
-171.890004868883
 30
0.0
 11
166.4875462742673
 21
-170.8152747967224
 31
0.0
  0
LINE
  5
1A3
330
DC
100
AcDbEntity
  8
Слой 1
 62
   250
420
  3947579
370
    25
100
AcDbLine
 10
183.3278459856059
 20
-134.9127567666263
 30
0.0
 11
183.2116782880357
 21
-135.0283878552912
 31
0.0
  0
LINE
  5
1A4
330
DC
100
AcDbEntity
  8
Слой 1
 62
   250
420
  3947579
370
    25
100
AcDbLine
 10
170.7433101982172
 20
-148.1841194311107
 30
0.0
 11
170.5914498780034
 21
-148.3002708678052
 31
0.0
  0
LINE
  5
1A5
330
DC
100
AcDbEntity
  8
Слой 1
 62
   250
420
  3947579
370
    25
100
AcDbLine
 10
174.3522164780818
 20
-144.6157027322864
 30
0.0
 11
174.5040767982962
 21
-144.5395042677268
 31
0.0
  0
LINE
  5
1A6
330
DC
100
AcDbEntity
  8
Слой 1
 62
   250
420
  3947579
370
    25
100
AcDbLine
 10
162.4193352931746
 20
-150.869603089248
 30
0.0
 11
162.3436734375204
 21
-150.9058323207968
 31
0.0
  0
LINE
  5
1A7
330
DC
100
AcDbEntity
  8
Слой 1
 62
   250
420
  3947579
370
    25
100
AcDbLine
 10
158.8903674793313
 20
-156.7004279765311
 30
0.0
 11
159.0065189160259
 21
-156.7004279765311
 31
0.0
  0
LINE
  5
1A8
330
DC
100
AcDbEntity
  8
Слой 1
 62
   250
420
  3947579
370
    25
100
AcDbLine
 10
162.3831060616257
 20
-156.7004279765311
 30
0.0
 11
163.2265902173316
 21
-156.7004279765311
 31
0.0
  0
LINE
  5
1A9
330
DC
100
AcDbEntity
  8
Слой 1
 62
   250
420
  3947579
370
    25
100
AcDbLine
 10
165.1048352121882
 20
-156.7004279765311
 30
0.0
 11
166.9868202085053
 21
-156.7004279765311
 31
0.0
  0
LINE
  5
1AA
330
DC
100
AcDbEntity
  8
Слой 1
 62
   250
420
  3947579
370
    25
100
AcDbLine
 10
168.8650652033612
 20
-156.7004279765311
 30
0.0
 11
170.7076175755737
 21
-156.7004279765311
 31
0.0
  0
LINE
  5
1AB
330
DC
100
AcDbEntity
  8
Слой 1
 62
   250
420
  3947579
370
    25
100
AcDbLine
 10
172.585862570429
 20
-156.7004279765311
 30
0.0
 11
173.0451672716563
 21
-156.7004279765311
 31
0.0
  0
LINE
  5
1AC
330
DC
100
AcDbEntity
  8
Слой 1
 62
   250
420
  3947579
370
    25
100
AcDbLine
 10
185.0542306602475
 20
-163.0662356815727
 30
0.0
 11
184.822448134888
 21
-162.9506045929077
 31
0.0
  0
LINE
  5
1AD
330
DC
100
AcDbEntity
  8
Слой 1
 62
   250
420
  3947579
370
    25
100
AcDbLine
 10
165.1448044451983
 20
-144.5395042677268
 30
0.0
 11
160.7728728236781
 21
-135.0283878552912
 31
0.0
  0
LINE
  5
1AE
330
DC
100
AcDbEntity
  8
Слой 1
 62
   250
420
  3947579
370
    25
100
AcDbLine
 10
160.8847801717575
 20
-134.9127567666263
 30
0.0
 11
165.3765869705578
 21
-144.6157027322864
 31
0.0
  0
LINE
  5
1AF
330
DC
100
AcDbEntity
  8
Слой 1
 62
   250
420
  3947579
370
    25
100
AcDbLine
 10
173.6206234095789
 20
-162.9506045929077
 30
0.0
 11
166.8711891198405
 21
-148.3002708678052
 31
0.0
  0
LINE
  5
1B0
330
DC
100
AcDbEntity
  8
Слой 1
 62
   250
420
  3947579
370
    25
100
AcDbLine
 10
166.9868202085053
 20
-148.1841194311107
 30
0.0
 11
173.8524059349384
 21
-163.0662356815727
 31
0.0
  0
LINE
  5
1B1
330
DC
100
AcDbEntity
  8
Слой 1
 62
   250
420
  3947579
370
    25
100
AcDbLine
 10
159.0821807716801
 20
-131.4200181843315
 30
0.0
 11
157.627547855408
 21
-128.1990150995313
 31
0.0
  0
LINE
  5
1B2
330
DC
100
AcDbEntity
  8
Слой 1
 62
   250
420
  3947579
370
    25
100
AcDbLine
 10
157.5119167667432
 20
-127.5473604970498
 30
0.0
 11
159.3144999059443
 21
-131.4999403894773
 31
0.0
  0
LINE
  5
1B3
330
DC
100
AcDbEntity
  8
Слой 1
 62
   250
420
  3947579
370
    25
100
AcDbLine
 10
171.0512911881362
 20
-171.890004868883
 30
0.0
 11
171.0150619565867
 21
-170.8152747967224
 31
0.0
  0
LINE
  5
1B4
330
DC
100
AcDbEntity
  8
Слой 1
 62
   250
420
  3947579
370
    25
100
AcDbLine
 10
172.3578037856557
 20
-175.150960925818
 30
0.0
 11
172.3578037856557
 21
-174.8035473117936
 31
0.0
  0
LINE
  5
1B5
330
DC
100
AcDbEntity
  8
Слой 1
 62
   250
420
  3947579
370
    25
100
AcDbLine
 10
170.9356600994706
 20
-170.7390763321628
 30
0.0
 11
170.9356600994706
 21
-165.2924146384813
 31
0.0
  0
LINE
  5
1B6
330
DC
100
AcDbEntity
  8
Слой 1
 62
   250
420
  3947579
370
    25
100
AcDbLine
 10
171.0512911881362
 20
-164.2171642182923
 30
0.0
 11
171.0512911881362
 21
-171.890004868883
 31
0.0
  0
LINE
  5
1B7
330
DC
100
AcDbEntity
  8
Слой 1
 62
   250
420
  3947579
370
    25
100
AcDbLine
 10
171.4749032667201
 20
-160.4207049955697
 30
0.0
 11
171.4749032667201
 21
-158.3469067069038
 31
0.0
  0
LINE
  5
1B8
330
DC
100
AcDbEntity
  8
Слой 1
 62
   250
420
  3947579
370
    25
100
AcDbLine
 10
171.0150619565867
 20
-165.2524616663469
 30
0.0
 11
171.0512911881362
 21
-164.2171642182923
 31
0.0
  0
LINE
  5
1B9
330
DC
100
AcDbEntity
  8
Слой 1
 62
   250
420
  3947579
370
    25
100
AcDbLine
 10
157.1645031527195
 20
-163.0662356815727
 30
0.0
 11
157.2801342413843
 21
-162.9506045929077
 31
0.0
  0
LINE
  5
1BA
330
DC
100
AcDbEntity
  8
Слой 1
 62
   250
420
  3947579
370
    25
100
AcDbLine
 10
187.0880597159033
 20
-134.9127567666263
 30
0.0
 11
186.9324756551034
 21
-135.0283878552912
 31
0.0
  0
LINE
  5
1BB
330
DC
100
AcDbEntity
  8
Слой 1
 62
   250
420
  3947579
370
    25
100
AcDbLine
 10
174.4641075652855
 20
-148.1841194311107
 30
0.0
 11
174.3522164780818
 21
-148.3002708678052
 31
0.0
  0
LINE
  5
1BC
330
DC
100
AcDbEntity
  8
Слой 1
 62
   250
420
  3947579
370
    25
100
AcDbLine
 10
178.0724772362448
 20
-144.6157027322864
 30
0.0
 11
178.2243375564586
 21
-144.5395042677268
 31
0.0
  0
LINE
  5
1BD
330
DC
100
AcDbEntity
  8
Слой 1
 62
   250
420
  3947579
370
    25
100
AcDbLine
 10
181.8289672259566
 20
-144.6157027322864
 30
0.0
 11
181.9850878956613
 21
-144.5395042677268
 31
0.0
  0
LINE
  5
1BE
330
DC
100
AcDbEntity
  8
Слой 1
 62
   250
420
  3947579
370
    25
100
AcDbLine
 10
159.0065189160259
 20
-155.625177556342
 30
0.0
 11
159.0821807716801
 21
-155.5852083233313
 31
0.0
  0
LINE
  5
1BF
330
DC
100
AcDbEntity
  8
Слой 1
 62
   250
420
  3947579
370
    25
100
AcDbLine
 10
157.5119167667432
 20
-148.3002708678052
 30
0.0
 11
157.3201034743944
 21
-148.2203486626602
 31
0.0
  0
LINE
  5
1C0
330
DC
100
AcDbEntity
  8
Слой 1
 62
   250
420
  3947579
370
    25
100
AcDbLine
 10
161.0403642325574
 20
-148.1841194311107
 30
0.0
 11
161.1165626971169
 21
-148.2603016347945
 31
0.0
  0
LINE
  5
1C1
330
DC
100
AcDbEntity
  8
Слой 1
 62
   250
420
  3947579
370
    25
100
AcDbLine
 10
188.8107206499593
 20
-163.0662356815727
 30
0.0
 11
188.5826781260617
 21
-162.9506045929077
 31
0.0
  0
LINE
  5
1C2
330
DC
100
AcDbEntity
  8
Слой 1
 62
   250
420
  3947579
370
    25
100
AcDbLine
 10
162.3831060616257
 20
-148.2603016347945
 30
0.0
 11
162.4593045261853
 21
-148.3002708678052
 31
0.0
  0
LINE
  5
1C3
330
DC
100
AcDbEntity
  8
Слой 1
 62
   250
420
  3947579
370
    25
100
AcDbLine
 10
160.8085817071979
 20
-131.4999403894773
 30
0.0
 11
157.548145998292
 21
-124.3626029046744
 31
0.0
  0
LINE
  5
1C4
330
DC
100
AcDbEntity
  8
Слой 1
 62
   250
420
  3947579
370
    25
100
AcDbLine
 10
157.6637770869569
 20
-124.2107425844603
 30
0.0
 11
160.9647023769032
 21
-131.4200181843315
 31
0.0
  0
LINE
  5
1C5
330
DC
100
AcDbEntity
  8
Слой 1
 62
   250
420
  3947579
370
    25
100
AcDbLine
 10
168.8650652033612
 20
-144.5395042677268
 30
0.0
 11
164.4931335818411
 21
-135.0283878552912
 31
0.0
  0
LINE
  5
1C6
330
DC
100
AcDbEntity
  8
Слой 1
 62
   250
420
  3947579
370
    25
100
AcDbLine
 10
175.3475446931265
 20
-163.0662356815727
 30
0.0
 11
168.5219119388285
 21
-148.1841194311107
 31
0.0
  0
LINE
  5
1C7
330
DC
100
AcDbEntity
  8
Слой 1
 62
   250
420
  3947579
370
    25
100
AcDbLine
 10
168.7494341146964
 20
-148.3002708678052
 30
0.0
 11
175.4631757817914
 21
-162.9506045929077
 31
0.0
  0
LINE
  5
1C8
330
DC
100
AcDbEntity
  8
Слой 1
 62
   250
420
  3947579
370
    25
100
AcDbLine
 10
177.3414207766466
 20
-162.9506045929077
 30
0.0
 11
170.5914498780034
 21
-148.3002708678052
 31
0.0
  0
LINE
  5
1C9
330
DC
100
AcDbEntity
  8
Слой 1
 62
   250
420
  3947579
370
    25
100
AcDbLine
 10
166.8711891198405
 20
-144.6157027322864
 30
0.0
 11
162.3831060616257
 21
-134.9127567666263
 31
0.0
  0
LINE
  5
1CA
330
DC
100
AcDbEntity
  8
Слой 1
 62
   250
420
  3947579
370
    25
100
AcDbLine
 10
162.651117818534
 20
-135.0283878552912
 30
0.0
 11
167.0230494400542
 21
-144.5395042677268
 31
0.0
  0
LINE
  5
1CB
330
DC
100
AcDbEntity
  8
Слой 1
 62
   250
420
  3947579
370
    25
100
AcDbLine
 10
162.8429473717591
 20
-131.4200181843315
 30
0.0
 11
159.1983484692503
 21
-123.5191187489681
 31
0.0
  0
LINE
  5
1CC
330
DC
100
AcDbEntity
  8
Слой 1
 62
   250
420
  3947579
370
    25
100
AcDbLine
 10
172.625815542564
 20
-174.8035473117936
 30
0.0
 11
172.625815542564
 21
-175.150960925818
 31
0.0
  0
LINE
  5
1CD
330
DC
100
AcDbEntity
  8
Слой 1
 62
   250
420
  3947579
370
    25
100
AcDbLine
 10
174.8877196438688
 20
-160.4207049955697
 30
0.0
 11
174.8877196438688
 21
-157.6195739878912
 31
0.0
  0
LINE
  5
1CE
330
DC
100
AcDbEntity
  8
Слой 1
 62
   250
420
  3947579
370
    25
100
AcDbLine
 10
174.8877196438688
 20
-153.5551030082616
 30
0.0
 11
174.8877196438688
 21
-149.4868920271689
 31
0.0
  0
LINE
  5
1CF
330
DC
100
AcDbEntity
  8
Слой 1
 62
   250
420
  3947579
370
    25
100
AcDbLine
 10
173.0451672716563
 20
-156.7004279765311
 30
0.0
 11
173.0451672716563
 21
-153.6313014728212
 31
0.0
  0
LINE
  5
1D0
330
DC
100
AcDbEntity
  8
Слой 1
 62
   250
420
  3947579
370
    25
100
AcDbLine
 10
173.0851202437914
 20
-149.6430126968742
 30
0.0
 11
173.1250894768021
 21
-148.3002708678052
 31
0.0
  0
LINE
  5
1D1
330
DC
100
AcDbEntity
  8
Слой 1
 62
   250
420
  3947579
370
    25
100
AcDbLine
 10
172.4340022502152
 20
-175.150960925818
 30
0.0
 11
172.4340022502152
 21
-174.8035473117936
 31
0.0
  0
LINE
  5
1D2
330
DC
100
AcDbEntity
  8
Слой 1
 62
   250
420
  3947579
370
    25
100
AcDbLine
 10
160.3892299781049
 20
-163.0662356815727
 30
0.0
 11
160.4648918337591
 21
-163.026266448562
 31
0.0
  0
LINE
  5
1D3
330
DC
100
AcDbEntity
  8
Слой 1
 62
   250
420
  3947579
370
    25
100
AcDbLine
 10
190.808857082971
 20
-134.9127567666263
 30
0.0
 11
190.6927056462771
 21
-135.0283878552912
 31
0.0
  0
LINE
  5
1D4
330
DC
100
AcDbEntity
  8
Слой 1
 62
   250
420
  3947579
370
    25
100
AcDbLine
 10
178.2243375564586
 20
-148.1841194311107
 30
0.0
 11
178.0724772362448
 21
-148.3002708678052
 31
0.0
  0
LINE
  5
1D5
330
DC
100
AcDbEntity
  8
Слой 1
 62
   250
420
  3947579
370
    25
100
AcDbLine
 10
185.5540249425152
 20
-144.6157027322864
 30
0.0
 11
185.7058852627296
 21
-144.5395042677268
 31
0.0
  0
LINE
  5
1D6
330
DC
100
AcDbEntity
  8
Слой 1
 62
   250
420
  3947579
370
    25
100
AcDbLine
 10
164.7611615996257
 20
-148.1841194311107
 30
0.0
 11
164.9929441249845
 21
-148.3002708678052
 31
0.0
  0
LINE
  5
1D7
330
DC
100
AcDbEntity
  8
Слой 1
 62
   250
420
  3947579
370
    25
100
AcDbLine
 10
164.6449939020548
 20
-134.9127567666263
 30
0.0
 11
169.0968477287207
 21
-144.6157027322864
 31
0.0
  0
LINE
  5
1D8
330
DC
100
AcDbEntity
  8
Слой 1
 62
   250
420
  3947579
370
    25
100
AcDbLine
 10
164.5693320464006
 20
-131.4999403894773
 30
0.0
 11
160.8485346793323
 21
-123.4034876603032
 31
0.0
  0
LINE
  5
1D9
330
DC
100
AcDbEntity
  8
Слой 1
 62
   250
420
  3947579
370
    25
100
AcDbLine
 10
161.0765934641062
 20
-123.5191187489681
 30
0.0
 11
164.721192366615
 21
-131.4200181843315
 31
0.0
  0
LINE
  5
1DA
330
DC
100
AcDbEntity
  8
Слой 1
 62
   250
420
  3947579
370
    25
100
AcDbLine
 10
170.7433101982172
 20
-148.1841194311107
 30
0.0
 11
177.5732033020061
 21
-163.0662356815727
 31
0.0
  0
LINE
  5
1DB
330
DC
100
AcDbEntity
  8
Слой 1
 62
   250
420
  3947579
370
    25
100
AcDbLine
 10
179.0678217121645
 20
-163.0662356815727
 30
0.0
 11
172.2421726969908
 21
-148.1841194311107
 31
0.0
  0
LINE
  5
1DC
330
DC
100
AcDbEntity
  8
Слой 1
 62
   250
420
  3947579
370
    25
100
AcDbLine
 10
172.4696948728593
 20
-148.3002708678052
 30
0.0
 11
179.2234057729644
 21
-162.9506045929077
 31
0.0
  0
LINE
  5
1DD
330
DC
100
AcDbEntity
  8
Слой 1
 62
   250
420
  3947579
370
    25
100
AcDbLine
 10
170.5914498780034
 20
-144.6157027322864
 30
0.0
 11
166.1438726617041
 21
-134.9127567666263
 31
0.0
  0
LINE
  5
1DE
330
DC
100
AcDbEntity
  8
Слой 1
 62
   250
420
  3947579
370
    25
100
AcDbLine
 10
166.3719151856024
 20
-135.0283878552912
 30
0.0
 11
170.7433101982172
 21
-144.5395042677268
 31
0.0
  0
LINE
  5
1DF
330
DC
100
AcDbEntity
  8
Слой 1
 62
   250
420
  3947579
370
    25
100
AcDbLine
 10
159.3144999059443
 20
-123.4034876603032
 30
0.0
 11
163.0347606641079
 21
-131.4999403894773
 31
0.0
  0
LINE
  5
1E0
330
DC
100
AcDbEntity
  8
Слой 1
 62
   250
420
  3947579
370
    25
100
AcDbLine
 10
176.7302557552049
 20
-174.8035473117936
 30
0.0
 11
176.7302557552049
 21
-175.150960925818
 31
0.0
  0
LINE
  5
1E1
330
DC
100
AcDbEntity
  8
Слой 1
 62
   250
420
  3947579
370
    25
100
AcDbLine
 10
177.0377001362185
 20
-174.8035473117936
 30
0.0
 11
177.0377001362185
 21
-175.150960925818
 31
0.0
  0
LINE
  5
1E2
330
DC
100
AcDbEntity
  8
Слой 1
 62
   250
420
  3947579
370
    25
100
AcDbLine
 10
191.8798634145455
 20
-129.1581303439027
 30
0.0
 11
191.7679723273419
 21
-129.3099744032408
 31
0.0
  0
LINE
  5
1E3
330
DC
100
AcDbEntity
  8
Слой 1
 62
   250
420
  3947579
370
    25
100
AcDbLine
 10
164.2613510564816
 20
-162.9506045929077
 30
0.0
 11
164.1100273451733
 21
-163.0662356815727
 31
0.0
  0
LINE
  5
1E4
330
DC
100
AcDbEntity
  8
Слой 1
 62
   250
420
  3947579
370
    25
100
AcDbLine
 10
181.9451349235269
 20
-148.1841194311107
 30
0.0
 11
181.8289672259566
 21
-148.3002708678052
 31
0.0
  0
LINE
  5
1E5
330
DC
100
AcDbEntity
  8
Слой 1
 62
   250
420
  3947579
370
    25
100
AcDbLine
 10
162.3436734375204
 20
-162.9506045929077
 30
0.0
 11
162.3074442059715
 21
-162.9905738259185
 31
0.0
  0
LINE
  5
1E6
330
DC
100
AcDbEntity
  8
Слой 1
 62
   250
420
  3947579
370
    25
100
AcDbLine
 10
189.309994584198
 20
-144.6157027322864
 30
0.0
 11
189.4661152539027
 21
-144.5395042677268
 31
0.0
  0
LINE
  5
1E7
330
DC
100
AcDbEntity
  8
Слой 1
 62
   250
420
  3947579
370
    25
100
AcDbLine
 10
162.3831060616257
 20
-158.8861336132769
 30
0.0
 11
162.3074442059715
 21
-158.8861336132769
 31
0.0
  0
LINE
  5
1E8
330
DC
100
AcDbEntity
  8
Слой 1
 62
   250
420
  3947579
370
    25
100
AcDbLine
 10
181.2178022045149
 20
-151.0214634094617
 30
0.0
 11
183.0960634602465
 21
-151.0214634094617
 31
0.0
  0
LINE
  5
1E9
330
DC
100
AcDbEntity
  8
Слой 1
 62
   250
420
  3947579
370
    25
100
AcDbLine
 10
184.9385995715826
 20
-151.0214634094617
 30
0.0
 11
186.8163242184088
 21
-151.0214634094617
 31
0.0
  0
LINE
  5
1EA
330
DC
100
AcDbEntity
  8
Слой 1
 62
   250
420
  3947579
370
    25
100
AcDbLine
 10
161.6158203704793
 20
-144.6157027322864
 30
0.0
 11
161.3840378451198
 21
-144.5395042677268
 31
0.0
  0
LINE
  5
1EB
330
DC
100
AcDbEntity
  8
Слой 1
 62
   250
420
  3947579
370
    25
100
AcDbLine
 10
168.5219119388285
 20
-148.1841194311107
 30
0.0
 11
168.7494341146964
 21
-148.3002708678052
 31
0.0
  0
LINE
  5
1EC
330
DC
100
AcDbEntity
  8
Слой 1
 62
   250
420
  3947579
370
    25
100
AcDbLine
 10
172.4696948728593
 20
-148.3002708678052
 30
0.0
 11
172.2421726969908
 21
-148.1841194311107
 31
0.0
  0
LINE
  5
1ED
330
DC
100
AcDbEntity
  8
Слой 1
 62
   250
420
  3947579
370
    25
100
AcDbLine
 10
172.625815542564
 20
-144.5395042677268
 30
0.0
 11
168.2496398324286
 21
-135.0283878552912
 31
0.0
  0
LINE
  5
1EE
330
DC
100
AcDbEntity
  8
Слой 1
 62
   250
420
  3947579
370
    25
100
AcDbLine
 10
168.3657912691232
 20
-134.9127567666263
 30
0.0
 11
172.8533377184325
 21
-144.6157027322864
 31
0.0
  0
LINE
  5
1EF
330
DC
100
AcDbEntity
  8
Слой 1
 62
   250
420
  3947579
370
    25
100
AcDbLine
 10
168.289592804563
 20
-131.4999403894773
 30
0.0
 11
164.5693320464006
 21
-123.4034876603032
 31
0.0
  0
LINE
  5
1F0
330
DC
100
AcDbEntity
  8
Слой 1
 62
   250
420
  3947579
370
    25
100
AcDbLine
 10
164.8011145717601
 20
-123.5191187489681
 30
0.0
 11
168.4414531247774
 21
-131.4200181843315
 31
0.0
  0
LINE
  5
1F1
330
DC
100
AcDbEntity
  8
Слой 1
 62
   250
420
  3947579
370
    25
100
AcDbLine
 10
181.1016507678203
 20
-162.9506045929077
 30
0.0
 11
174.3522164780818
 21
-148.3002708678052
 31
0.0
  0
LINE
  5
1F2
330
DC
100
AcDbEntity
  8
Слой 1
 62
   250
420
  3947579
370
    25
100
AcDbLine
 10
174.4641075652855
 20
-148.1841194311107
 30
0.0
 11
181.3334332931798
 21
-163.0662356815727
 31
0.0
  0
LINE
  5
1F3
330
DC
100
AcDbEntity
  8
Слой 1
 62
   250
420
  3947579
370
    25
100
AcDbLine
 10
182.8280354424618
 20
-163.0662356815727
 30
0.0
 11
175.9986789475783
 21
-148.1841194311107
 31
0.0
  0
LINE
  5
1F4
330
DC
100
AcDbEntity
  8
Слой 1
 62
   250
420
  3947579
370
    25
100
AcDbLine
 10
176.2304614729377
 20
-148.3002708678052
 30
0.0
 11
182.9442031400321
 21
-162.9506045929077
 31
0.0
  0
LINE
  5
1F5
330
DC
100
AcDbEntity
  8
Слой 1
 62
   250
420
  3947579
370
    25
100
AcDbLine
 10
174.3522164780818
 20
-144.6157027322864
 30
0.0
 11
169.8641334198671
 21
-134.9127567666263
 31
0.0
  0
LINE
  5
1F6
330
DC
100
AcDbEntity
  8
Слой 1
 62
   250
420
  3947579
370
    25
100
AcDbLine
 10
170.1321451767754
 20
-135.0283878552912
 30
0.0
 11
174.5040767982962
 21
-144.5395042677268
 31
0.0
  0
LINE
  5
1F7
330
DC
100
AcDbEntity
  8
Слой 1
 62
   250
420
  3947579
370
    25
100
AcDbLine
 10
166.5632081299214
 20
-131.4200181843315
 30
0.0
 11
162.959098808453
 21
-123.5191187489681
 31
0.0
  0
LINE
  5
1F8
330
DC
100
AcDbEntity
  8
Слой 1
 62
   250
420
  3947579
370
    25
100
AcDbLine
 10
163.0747298971179
 20
-123.4034876603032
 30
0.0
 11
166.7949906552809
 21
-131.4999403894773
 31
0.0
  0
LINE
  5
1F9
330
DC
100
AcDbEntity
  8
Слой 1
 62
   250
420
  3947579
370
    25
100
AcDbLine
 10
180.066889928671
 20
-148.3002708678052
 30
0.0
 11
180.066889928671
 21
-148.5677622766842
 31
0.0
  0
LINE
  5
1FA
330
DC
100
AcDbEntity
  8
Слой 1
 62
   250
420
  3947579
370
    25
100
AcDbLine
 10
160.8085817071979
 20
-170.8152747967224
 30
0.0
 11
160.8847801717575
 21
-170.7390763321628
 31
0.0
  0
LINE
  5
1FB
330
DC
100
AcDbEntity
  8
Слой 1
 62
   250
420
  3947579
370
    25
100
AcDbLine
 10
165.3366177375471
 20
-165.2524616663469
 30
0.0
 11
165.296664765412
 21
-165.2924146384813
 31
0.0
  0
LINE
  5
1FC
330
DC
100
AcDbEntity
  8
Слой 1
 62
   250
420
  3947579
370
    25
100
AcDbLine
 10
167.8659969868554
 20
-163.0662356815727
 30
0.0
 11
167.98214842355
 21
-162.9506045929077
 31
0.0
  0
LINE
  5
1FD
330
DC
100
AcDbEntity
  8
Слой 1
 62
   250
420
  3947579
370
    25
100
AcDbLine
 10
185.7058852627296
 20
-148.1841194311107
 30
0.0
 11
185.5540249425152
 21
-148.3002708678052
 31
0.0
  0
LINE
  5
1FE
330
DC
100
AcDbEntity
  8
Слой 1
 62
   250
420
  3947579
370
    25
100
AcDbLine
 10
191.9597856196906
 20
-148.3002708678052
 30
0.0
 11
191.1924999285448
 21
-148.3002708678052
 31
0.0
  0
LINE
  5
1FF
330
DC
100
AcDbEntity
  8
Слой 1
 62
   250
420
  3947579
370
    25
100
AcDbLine
 10
185.5540249425152
 20
-148.3002708678052
 30
0.0
 11
183.7114888311791
 21
-148.3002708678052
 31
0.0
  0
LINE
  5
200
330
DC
100
AcDbEntity
  8
Слой 1
 62
   250
420
  3947579
370
    25
100
AcDbLine
 10
181.8289672259566
 20
-148.3002708678052
 30
0.0
 11
179.9507222311007
 21
-148.3002708678052
 31
0.0
  0
LINE
  5
201
330
DC
100
AcDbEntity
  8
Слой 1
 62
   250
420
  3947579
370
    25
100
AcDbLine
 10
178.0724772362448
 20
-148.3002708678052
 30
0.0
 11
176.2304614729377
 21
-148.3002708678052
 31
0.0
  0
LINE
  5
202
330
DC
100
AcDbEntity
  8
Слой 1
 62
   250
420
  3947579
370
    25
100
AcDbLine
 10
174.3522164780818
 20
-148.3002708678052
 30
0.0
 11
172.4696948728593
 21
-148.3002708678052
 31
0.0
  0
LINE
  5
203
330
DC
100
AcDbEntity
  8
Слой 1
 62
   250
420
  3947579
370
    25
100
AcDbLine
 10
170.5914498780034
 20
-148.3002708678052
 30
0.0
 11
168.7494341146964
 21
-148.3002708678052
 31
0.0
  0
LINE
  5
204
330
DC
100
AcDbEntity
  8
Слой 1
 62
   250
420
  3947579
370
    25
100
AcDbLine
 10
166.8711891198405
 20
-148.3002708678052
 30
0.0
 11
164.9929441249845
 21
-148.3002708678052
 31
0.0
  0
LINE
  5
205
330
DC
100
AcDbEntity
  8
Слой 1
 62
   250
420
  3947579
370
    25
100
AcDbLine
 10
163.1109591286668
 20
-148.3002708678052
 30
0.0
 11
162.4593045261853
 21
-148.3002708678052
 31
0.0
  0
LINE
  5
206
330
DC
100
AcDbEntity
  8
Слой 1
 62
   250
420
  3947579
370
    25
100
AcDbLine
 10
158.9702896844764
 20
-148.3002708678052
 30
0.0
 11
157.5119167667432
 21
-148.3002708678052
 31
0.0
  0
LINE
  5
207
330
DC
100
AcDbEntity
  8
Слой 1
 62
   250
420
  3947579
370
    25
100
AcDbLine
 10
187.4317495893421
 20
-148.3002708678052
 30
0.0
 11
189.309994584198
 21
-148.3002708678052
 31
0.0
  0
LINE
  5
208
330
DC
100
AcDbEntity
  8
Слой 1
 62
   250
420
  3947579
370
    25
100
AcDbLine
 10
159.4658236172539
 20
-148.2603016347945
 30
0.0
 11
159.2740103249051
 21
-148.2603016347945
 31
0.0
  0
LINE
  5
209
330
DC
100
AcDbEntity
  8
Слой 1
 62
   250
420
  3947579
370
    25
100
AcDbLine
 10
161.1165626971169
 20
-148.2603016347945
 30
0.0
 11
162.1513235362663
 21
-148.2603016347945
 31
0.0
  0
LINE
  5
20A
330
DC
100
AcDbEntity
  8
Слой 1
 62
   250
420
  3947579
370
    25
100
AcDbLine
 10
157.3201034743944
 20
-148.1841194311107
 30
0.0
 11
159.505792850264
 21
-148.1841194311107
 31
0.0
  0
LINE
  5
20B
330
DC
100
AcDbEntity
  8
Слой 1
 62
   250
420
  3947579
370
    25
100
AcDbLine
 10
161.0403642325574
 20
-148.1841194311107
 30
0.0
 11
163.2665431894667
 21
-148.1841194311107
 31
0.0
  0
LINE
  5
20C
330
DC
100
AcDbEntity
  8
Слой 1
 62
   250
420
  3947579
370
    25
100
AcDbLine
 10
164.7611615996257
 20
-148.1841194311107
 30
0.0
 11
166.9868202085053
 21
-148.1841194311107
 31
0.0
  0
LINE
  5
20D
330
DC
100
AcDbEntity
  8
Слой 1
 62
   250
420
  3947579
370
    25
100
AcDbLine
 10
168.5219119388285
 20
-148.1841194311107
 30
0.0
 11
170.7433101982172
 21
-148.1841194311107
 31
0.0
  0
LINE
  5
20E
330
DC
100
AcDbEntity
  8
Слой 1
 62
   250
420
  3947579
370
    25
100
AcDbLine
 10
172.2421726969908
 20
-148.1841194311107
 30
0.0
 11
174.4641075652855
 21
-148.1841194311107
 31
0.0
  0
LINE
  5
20F
330
DC
100
AcDbEntity
  8
Слой 1
 62
   250
420
  3947579
370
    25
100
AcDbLine
 10
175.9986789475783
 20
-148.1841194311107
 30
0.0
 11
178.2243375564586
 21
-148.1841194311107
 31
0.0
  0
LINE
  5
210
330
DC
100
AcDbEntity
  8
Слой 1
 62
   250
420
  3947579
370
    25
100
AcDbLine
 10
179.7232000552322
 20
-148.1841194311107
 30
0.0
 11
181.9451349235269
 21
-148.1841194311107
 31
0.0
  0
LINE
  5
211
330
DC
100
AcDbEntity
  8
Слой 1
 62
   250
420
  3947579
370
    25
100
AcDbLine
 10
183.4797063058197
 20
-148.1841194311107
 30
0.0
 11
185.7058852627296
 21
-148.1841194311107
 31
0.0
  0
LINE
  5
212
330
DC
100
AcDbEntity
  8
Слой 1
 62
   250
420
  3947579
370
    25
100
AcDbLine
 10
187.1999670639827
 20
-148.1841194311107
 30
0.0
 11
189.426146020892
 21
-148.1841194311107
 31
0.0
  0
LINE
  5
213
330
DC
100
AcDbEntity
  8
Слой 1
 62
   250
420
  3947579
370
    25
100
AcDbLine
 10
190.9607174031854
 20
-148.1841194311107
 30
0.0
 11
192.0716929677706
 21
-148.1841194311107
 31
0.0
  0
LINE
  5
214
330
DC
100
AcDbEntity
  8
Слой 1
 62
   250
420
  3947579
370
    25
100
AcDbLine
 10
165.3765869705578
 20
-144.6157027322864
 30
0.0
 11
165.1448044451983
 21
-144.5395042677268
 31
0.0
  0
LINE
  5
215
330
DC
100
AcDbEntity
  8
Слой 1
 62
   250
420
  3947579
370
    25
100
AcDbLine
 10
169.0968477287207
 20
-144.6157027322864
 30
0.0
 11
168.8650652033612
 21
-144.5395042677268
 31
0.0
  0
LINE
  5
216
330
DC
100
AcDbEntity
  8
Слой 1
 62
   250
420
  3947579
370
    25
100
AcDbLine
 10
176.2304614729377
 20
-148.3002708678052
 30
0.0
 11
175.9986789475783
 21
-148.1841194311107
 31
0.0
  0
LINE
  5
217
330
DC
100
AcDbEntity
  8
Слой 1
 62
   250
420
  3947579
370
    25
100
AcDbLine
 10
179.9507222311007
 20
-148.3002708678052
 30
0.0
 11
179.7232000552322
 21
-148.1841194311107
 31
0.0
  0
LINE
  5
218
330
DC
100
AcDbEntity
  8
Слой 1
 62
   250
420
  3947579
370
    25
100
AcDbLine
 10
192.111645939905
 20
-162.9506045929077
 30
0.0
 11
192.2272770285699
 21
-163.0662356815727
 31
0.0
  0
LINE
  5
219
330
DC
100
AcDbEntity
  8
Слой 1
 62
   250
420
  3947579
370
    25
100
AcDbLine
 10
176.3466129096317
 20
-144.5395042677268
 30
0.0
 11
171.9741609400825
 21
-135.0283878552912
 31
0.0
  0
LINE
  5
21A
330
DC
100
AcDbEntity
  8
Слой 1
 62
   250
420
  3947579
370
    25
100
AcDbLine
 10
172.1260212602962
 20
-134.9127567666263
 30
0.0
 11
176.5741350855002
 21
-144.6157027322864
 31
0.0
  0
LINE
  5
21B
330
DC
100
AcDbEntity
  8
Слой 1
 62
   250
420
  3947579
370
    25
100
AcDbLine
 10
184.822448134888
 20
-162.9506045929077
 30
0.0
 11
178.0724772362448
 21
-148.3002708678052
 31
0.0
  0
LINE
  5
21C
330
DC
100
AcDbEntity
  8
Слой 1
 62
   250
420
  3947579
370
    25
100
AcDbLine
 10
178.2243375564586
 20
-148.1841194311107
 30
0.0
 11
185.0542306602475
 21
-163.0662356815727
 31
0.0
  0
LINE
  5
21D
330
DC
100
AcDbEntity
  8
Слой 1
 62
   250
420
  3947579
370
    25
100
AcDbLine
 10
170.3239747300005
 20
-131.4200181843315
 30
0.0
 11
166.6793758274917
 21
-123.5191187489681
 31
0.0
  0
LINE
  5
21E
330
DC
100
AcDbEntity
  8
Слой 1
 62
   250
420
  3947579
370
    25
100
AcDbLine
 10
166.7949906552809
 20
-123.4034876603032
 30
0.0
 11
170.5157880223493
 21
-131.4999403894773
 31
0.0
  0
LINE
  5
21F
330
DC
100
AcDbEntity
  8
Слой 1
 62
   250
420
  3947579
370
    25
100
AcDbLine
 10
191.9597856196906
 20
-137.4421360159343
 30
0.0
 11
191.8798634145455
 21
-137.5982566856393
 31
0.0
  0
LINE
  5
220
330
DC
100
AcDbEntity
  8
Слой 1
 62
   250
420
  3947579
370
    25
100
AcDbLine
 10
166.4875462742673
 20
-170.8152747967224
 30
0.0
 11
166.5237755058161
 21
-170.7390763321628
 31
0.0
  0
LINE
  5
221
330
DC
100
AcDbEntity
  8
Слой 1
 62
   250
420
  3947579
370
    25
100
AcDbLine
 10
171.0150619565867
 20
-165.2524616663469
 30
0.0
 11
170.9356600994706
 21
-165.2924146384813
 31
0.0
  0
LINE
  5
222
330
DC
100
AcDbEntity
  8
Слой 1
 62
   250
420
  3947579
370
    25
100
AcDbLine
 10
189.426146020892
 20
-148.1841194311107
 30
0.0
 11
189.309994584198
 21
-148.3002708678052
 31
0.0
  0
LINE
  5
223
330
DC
100
AcDbEntity
  8
Слой 1
 62
   250
420
  3947579
370
    25
100
AcDbLine
 10
171.5905180945086
 20
-163.0662356815727
 30
0.0
 11
171.742378414723
 21
-162.9506045929077
 31
0.0
  0
LINE
  5
224
330
DC
100
AcDbEntity
  8
Слой 1
 62
   250
420
  3947579
370
    25
100
AcDbLine
 10
193.5305862335329
 20
-145.3467591918836
 30
0.0
 11
155.8611939477558
 21
-145.3467591918836
 31
0.0
  0
LINE
  5
225
330
DC
100
AcDbEntity
  8
Слой 1
 62
   250
420
  3947579
370
    25
100
AcDbLine
 10
189.309994584198
 20
-144.6157027322864
 30
0.0
 11
187.8153924349153
 21
-144.6157027322864
 31
0.0
  0
LINE
  5
226
330
DC
100
AcDbEntity
  8
Слой 1
 62
   250
420
  3947579
370
    25
100
AcDbLine
 10
185.5540249425152
 20
-144.6157027322864
 30
0.0
 11
184.0551624437416
 21
-144.6157027322864
 31
0.0
  0
LINE
  5
227
330
DC
100
AcDbEntity
  8
Слой 1
 62
   250
420
  3947579
370
    25
100
AcDbLine
 10
181.8289672259566
 20
-144.6157027322864
 30
0.0
 11
180.3343650766739
 21
-144.6157027322864
 31
0.0
  0
LINE
  5
228
330
DC
100
AcDbEntity
  8
Слой 1
 62
   250
420
  3947579
370
    25
100
AcDbLine
 10
178.0724772362448
 20
-144.6157027322864
 30
0.0
 11
176.5741350855002
 21
-144.6157027322864
 31
0.0
  0
LINE
  5
229
330
DC
100
AcDbEntity
  8
Слой 1
 62
   250
420
  3947579
370
    25
100
AcDbLine
 10
174.3522164780818
 20
-144.6157027322864
 30
0.0
 11
172.8533377184325
 21
-144.6157027322864
 31
0.0
  0
LINE
  5
22A
330
DC
100
AcDbEntity
  8
Слой 1
 62
   250
420
  3947579
370
    25
100
AcDbLine
 10
170.5914498780034
 20
-144.6157027322864
 30
0.0
 11
169.0968477287207
 21
-144.6157027322864
 31
0.0
  0
LINE
  5
22B
330
DC
100
AcDbEntity
  8
Слой 1
 62
   250
420
  3947579
370
    25
100
AcDbLine
 10
166.8711891198405
 20
-144.6157027322864
 30
0.0
 11
165.3765869705578
 21
-144.6157027322864
 31
0.0
  0
LINE
  5
22C
330
DC
100
AcDbEntity
  8
Слой 1
 62
   250
420
  3947579
370
    25
100
AcDbLine
 10
163.1109591286668
 20
-144.6157027322864
 30
0.0
 11
161.6158203704793
 21
-144.6157027322864
 31
0.0
  0
LINE
  5
22D
330
DC
100
AcDbEntity
  8
Слой 1
 62
   250
420
  3947579
370
    25
100
AcDbLine
 10
193.5305862335329
 20
-144.6157027322864
 30
0.0
 11
191.5361898019837
 21
-144.6157027322864
 31
0.0
  0
LINE
  5
22E
330
DC
100
AcDbEntity
  8
Слой 1
 62
   250
420
  3947579
370
    25
100
AcDbLine
 10
159.3901617615991
 20
-144.6157027322864
 30
0.0
 11
155.8611939477558
 21
-144.6157027322864
 31
0.0
  0
LINE
  5
22F
330
DC
100
AcDbEntity
  8
Слой 1
 62
   250
420
  3947579
370
    25
100
AcDbLine
 10
191.3044072766242
 20
-144.5395042677268
 30
0.0
 11
189.4661152539027
 21
-144.5395042677268
 31
0.0
  0
LINE
  5
230
330
DC
100
AcDbEntity
  8
Слой 1
 62
   250
420
  3947579
370
    25
100
AcDbLine
 10
187.5836099095558
 20
-144.5395042677268
 30
0.0
 11
185.7058852627296
 21
-144.5395042677268
 31
0.0
  0
LINE
  5
231
330
DC
100
AcDbEntity
  8
Слой 1
 62
   250
420
  3947579
370
    25
100
AcDbLine
 10
183.8271036589684
 20
-144.5395042677268
 30
0.0
 11
181.9850878956613
 21
-144.5395042677268
 31
0.0
  0
LINE
  5
232
330
DC
100
AcDbEntity
  8
Слой 1
 62
   250
420
  3947579
370
    25
100
AcDbLine
 10
180.1068429008054
 20
-144.5395042677268
 30
0.0
 11
178.2243375564586
 21
-144.5395042677268
 31
0.0
  0
LINE
  5
233
330
DC
100
AcDbEntity
  8
Слой 1
 62
   250
420
  3947579
370
    25
100
AcDbLine
 10
176.3466129096317
 20
-144.5395042677268
 30
0.0
 11
174.5040767982962
 21
-144.5395042677268
 31
0.0
  0
LINE
  5
234
330
DC
100
AcDbEntity
  8
Слой 1
 62
   250
420
  3947579
370
    25
100
AcDbLine
 10
172.625815542564
 20
-144.5395042677268
 30
0.0
 11
170.7433101982172
 21
-144.5395042677268
 31
0.0
  0
LINE
  5
235
330
DC
100
AcDbEntity
  8
Слой 1
 62
   250
420
  3947579
370
    25
100
AcDbLine
 10
168.8650652033612
 20
-144.5395042677268
 30
0.0
 11
167.0230494400542
 21
-144.5395042677268
 31
0.0
  0
LINE
  5
236
330
DC
100
AcDbEntity
  8
Слой 1
 62
   250
420
  3947579
370
    25
100
AcDbLine
 10
165.1448044451983
 20
-144.5395042677268
 30
0.0
 11
163.2665431894667
 21
-144.5395042677268
 31
0.0
  0
LINE
  5
237
330
DC
100
AcDbEntity
  8
Слой 1
 62
   250
420
  3947579
370
    25
100
AcDbLine
 10
161.3840378451198
 20
-144.5395042677268
 30
0.0
 11
159.5420220818128
 21
-144.5395042677268
 31
0.0
  0
LINE
  5
238
330
DC
100
AcDbEntity
  8
Слой 1
 62
   250
420
  3947579
370
    25
100
AcDbLine
 10
172.8533377184325
 20
-144.6157027322864
 30
0.0
 11
172.625815542564
 21
-144.5395042677268
 31
0.0
  0
LINE
  5
239
330
DC
100
AcDbEntity
  8
Слой 1
 62
   250
420
  3947579
370
    25
100
AcDbLine
 10
176.5741350855002
 20
-144.6157027322864
 30
0.0
 11
176.3466129096317
 21
-144.5395042677268
 31
0.0
  0
LINE
  5
23A
330
DC
100
AcDbEntity
  8
Слой 1
 62
   250
420
  3947579
370
    25
100
AcDbLine
 10
183.7114888311791
 20
-148.3002708678052
 30
0.0
 11
183.4797063058197
 21
-148.1841194311107
 31
0.0
  0
LINE
  5
23B
330
DC
100
AcDbEntity
  8
Слой 1
 62
   250
420
  3947579
370
    25
100
AcDbLine
 10
157.6637770869569
 20
-123.5191187489681
 30
0.0
 11
157.548145998292
 21
-123.4034876603032
 31
0.0
  0
LINE
  5
23C
330
DC
100
AcDbEntity
  8
Слой 1
 62
   250
420
  3947579
370
    25
100
AcDbLine
 10
172.050359404642
 20
-131.4999403894773
 30
0.0
 11
168.3295620375737
 21
-123.4034876603032
 31
0.0
  0
LINE
  5
23D
330
DC
100
AcDbEntity
  8
Слой 1
 62
   250
420
  3947579
370
    25
100
AcDbLine
 10
168.5576208223476
 20
-123.5191187489681
 30
0.0
 11
172.2022197248564
 21
-131.4200181843315
 31
0.0
  0
LINE
  5
23E
330
DC
100
AcDbEntity
  8
Слой 1
 62
   250
420
  3947579
370
    25
100
AcDbLine
 10
180.1068429008054
 20
-144.5395042677268
 30
0.0
 11
175.7311875386997
 21
-135.0283878552912
 31
0.0
  0
LINE
  5
23F
330
DC
100
AcDbEntity
  8
Слой 1
 62
   250
420
  3947579
370
    25
100
AcDbLine
 10
175.8468186273645
 20
-134.9127567666263
 30
0.0
 11
180.3343650766739
 21
-144.6157027322864
 31
0.0
  0
LINE
  5
240
330
DC
100
AcDbEntity
  8
Слой 1
 62
   250
420
  3947579
370
    25
100
AcDbLine
 10
186.5488328095302
 20
-163.0662356815727
 30
0.0
 11
179.7232000552322
 21
-148.1841194311107
 31
0.0
  0
LINE
  5
241
330
DC
100
AcDbEntity
  8
Слой 1
 62
   250
420
  3947579
370
    25
100
AcDbLine
 10
179.9507222311007
 20
-148.3002708678052
 30
0.0
 11
186.7049534792355
 21
-162.9506045929077
 31
0.0
  0
LINE
  5
242
330
DC
100
AcDbEntity
  8
Слой 1
 62
   250
420
  3947579
370
    25
100
AcDbLine
 10
188.5826781260617
 20
-162.9506045929077
 30
0.0
 11
181.8289672259566
 21
-148.3002708678052
 31
0.0
  0
LINE
  5
243
330
DC
100
AcDbEntity
  8
Слой 1
 62
   250
420
  3947579
370
    25
100
AcDbLine
 10
181.9451349235269
 20
-148.1841194311107
 30
0.0
 11
188.8107206499593
 21
-163.0662356815727
 31
0.0
  0
LINE
  5
244
330
DC
100
AcDbEntity
  8
Слой 1
 62
   250
420
  3947579
370
    25
100
AcDbLine
 10
178.0724772362448
 20
-144.6157027322864
 30
0.0
 11
173.6206234095789
 21
-134.9127567666263
 31
0.0
  0
LINE
  5
245
330
DC
100
AcDbEntity
  8
Слой 1
 62
   250
420
  3947579
370
    25
100
AcDbLine
 10
173.8524059349384
 20
-135.0283878552912
 30
0.0
 11
178.2243375564586
 21
-144.5395042677268
 31
0.0
  0
LINE
  5
246
330
DC
100
AcDbEntity
  8
Слой 1
 62
   250
420
  3947579
370
    25
100
AcDbLine
 10
174.0442354881628
 20
-131.4200181843315
 30
0.0
 11
170.4395895577891
 21
-123.5191187489681
 31
0.0
  0
LINE
  5
247
330
DC
100
AcDbEntity
  8
Слой 1
 62
   250
420
  3947579
370
    25
100
AcDbLine
 10
170.5520172538981
 20
-123.4034876603032
 30
0.0
 11
174.2722942729367
 21
-131.4999403894773
 31
0.0
  0
LINE
  5
248
330
DC
100
AcDbEntity
  8
Слой 1
 62
   250
420
  3947579
370
    25
100
AcDbLine
 10
182.8280354424618
 20
-160.4207049955697
 30
0.0
 11
182.8280354424618
 21
-158.5786892322633
 31
0.0
  0
LINE
  5
249
330
DC
100
AcDbEntity
  8
Слой 1
 62
   250
420
  3947579
370
    25
100
AcDbLine
 10
182.8280354424618
 20
-154.5142019917568
 30
0.0
 11
182.8280354424618
 21
-151.0214634094617
 31
0.0
  0
LINE
  5
24A
330
DC
100
AcDbEntity
  8
Слой 1
 62
   250
420
  3947579
370
    25
100
AcDbLine
 10
192.0716929677706
 20
-148.1841194311107
 30
0.0
 11
191.9597856196906
 21
-148.3002708678052
 31
0.0
  0
LINE
  5
24B
330
DC
100
AcDbEntity
  8
Слой 1
 62
   250
420
  3947579
370
    25
100
AcDbLine
 10
175.3475446931265
 20
-163.0662356815727
 30
0.0
 11
175.4631757817914
 21
-162.9506045929077
 31
0.0
  0
LINE
  5
24C
330
DC
100
AcDbEntity
  8
Слой 1
 62
   250
420
  3947579
370
    25
100
AcDbLine
 10
180.3343650766739
 20
-144.6157027322864
 30
0.0
 11
180.1068429008054
 21
-144.5395042677268
 31
0.0
  0
LINE
  5
24D
330
DC
100
AcDbEntity
  8
Слой 1
 62
   250
420
  3947579
370
    25
100
AcDbLine
 10
184.0551624437416
 20
-144.6157027322864
 30
0.0
 11
183.8271036589684
 21
-144.5395042677268
 31
0.0
  0
LINE
  5
24E
330
DC
100
AcDbEntity
  8
Слой 1
 62
   250
420
  3947579
370
    25
100
AcDbLine
 10
158.8903674793313
 20
-135.0283878552912
 30
0.0
 11
158.6628453034627
 21
-134.9127567666263
 31
0.0
  0
LINE
  5
24F
330
DC
100
AcDbEntity
  8
Слой 1
 62
   250
420
  3947579
370
    25
100
AcDbLine
 10
187.4317495893421
 20
-148.3002708678052
 30
0.0
 11
187.1999670639827
 21
-148.1841194311107
 31
0.0
  0
LINE
  5
250
330
DC
100
AcDbEntity
  8
Слой 1
 62
   250
420
  3947579
370
    25
100
AcDbLine
 10
162.651117818534
 20
-135.0283878552912
 30
0.0
 11
162.3831060616257
 21
-134.9127567666263
 31
0.0
  0
LINE
  5
251
330
DC
100
AcDbEntity
  8
Слой 1
 62
   250
420
  3947579
370
    25
100
AcDbLine
 10
190.9607174031854
 20
-148.1841194311107
 30
0.0
 11
191.1924999285448
 21
-148.3002708678052
 31
0.0
  0
LINE
  5
252
330
DC
100
AcDbEntity
  8
Слой 1
 62
   250
420
  3947579
370
    25
100
AcDbLine
 10
175.7706201628044
 20
-131.4999403894773
 30
0.0
 11
172.050359404642
 21
-123.4034876603032
 31
0.0
  0
LINE
  5
253
330
DC
100
AcDbEntity
  8
Слой 1
 62
   250
420
  3947579
370
    25
100
AcDbLine
 10
172.2778815805106
 20
-123.5191187489681
 30
0.0
 11
175.9224804830187
 21
-131.4200181843315
 31
0.0
  0
LINE
  5
254
330
DC
100
AcDbEntity
  8
Слой 1
 62
   250
420
  3947579
370
    25
100
AcDbLine
 10
190.3090628007032
 20
-163.0662356815727
 30
0.0
 11
183.4797063058197
 21
-148.1841194311107
 31
0.0
  0
LINE
  5
255
330
DC
100
AcDbEntity
  8
Слой 1
 62
   250
420
  3947579
370
    25
100
AcDbLine
 10
190.4252142373978
 20
-162.9506045929077
 30
0.0
 11
183.7114888311791
 21
-148.3002708678052
 31
0.0
  0
LINE
  5
256
330
DC
100
AcDbEntity
  8
Слой 1
 62
   250
420
  3947579
370
    25
100
AcDbLine
 10
181.8289672259566
 20
-144.6157027322864
 30
0.0
 11
177.3414207766466
 21
-134.9127567666263
 31
0.0
  0
LINE
  5
257
330
DC
100
AcDbEntity
  8
Слой 1
 62
   250
420
  3947579
370
    25
100
AcDbLine
 10
177.6131725350168
 20
-135.0283878552912
 30
0.0
 11
181.9850878956613
 21
-144.5395042677268
 31
0.0
  0
LINE
  5
258
330
DC
100
AcDbEntity
  8
Слой 1
 62
   250
420
  3947579
370
    25
100
AcDbLine
 10
187.0081375107576
 20
-159.5777574487692
 30
0.0
 11
187.0481067437683
 21
-162.9506045929077
 31
0.0
  0
LINE
  5
259
330
DC
100
AcDbEntity
  8
Слой 1
 62
   250
420
  3947579
370
    25
100
AcDbLine
 10
186.9724448881141
 20
-155.4733172361276
 30
0.0
 11
186.9724448881141
 21
-151.3294443993807
 31
0.0
  0
LINE
  5
25A
330
DC
100
AcDbEntity
  8
Слой 1
 62
   250
420
  3947579
370
    25
100
AcDbLine
 10
179.0678217121645
 20
-163.0662356815727
 30
0.0
 11
179.2234057729644
 21
-162.9506045929077
 31
0.0
  0
LINE
  5
25B
330
DC
100
AcDbEntity
  8
Слой 1
 62
   250
420
  3947579
370
    25
100
AcDbLine
 10
187.8153924349153
 20
-144.6157027322864
 30
0.0
 11
187.5836099095558
 21
-144.5395042677268
 31
0.0
  0
LINE
  5
25C
330
DC
100
AcDbEntity
  8
Слой 1
 62
   250
420
  3947579
370
    25
100
AcDbLine
 10
191.5361898019837
 20
-144.6157027322864
 30
0.0
 11
191.3044072766242
 21
-144.5395042677268
 31
0.0
  0
LINE
  5
25D
330
DC
100
AcDbEntity
  8
Слой 1
 62
   250
420
  3947579
370
    25
100
AcDbLine
 10
166.3719151856024
 20
-135.0283878552912
 30
0.0
 11
166.1438726617041
 21
-134.9127567666263
 31
0.0
  0
LINE
  5
25E
330
DC
100
AcDbEntity
  8
Слой 1
 62
   250
420
  3947579
370
    25
100
AcDbLine
 10
170.1321451767754
 20
-135.0283878552912
 30
0.0
 11
169.8641334198671
 21
-134.9127567666263
 31
0.0
  0
LINE
  5
25F
330
DC
100
AcDbEntity
  8
Слой 1
 62
   250
420
  3947579
370
    25
100
AcDbLine
 10
183.8271036589684
 20
-144.5395042677268
 30
0.0
 11
179.451448296862
 21
-135.0283878552912
 31
0.0
  0
LINE
  5
260
330
DC
100
AcDbEntity
  8
Слой 1
 62
   250
420
  3947579
370
    25
100
AcDbLine
 10
179.6070486185376
 20
-134.9127567666263
 30
0.0
 11
184.0551624437416
 21
-144.6157027322864
 31
0.0
  0
LINE
  5
261
330
DC
100
AcDbEntity
  8
Слой 1
 62
   250
420
  3947579
370
    25
100
AcDbLine
 10
179.5313867628834
 20
-131.4999403894773
 30
0.0
 11
175.8068493943538
 21
-123.4034876603032
 31
0.0
  0
LINE
  5
262
330
DC
100
AcDbEntity
  8
Слой 1
 62
   250
420
  3947579
370
    25
100
AcDbLine
 10
176.0386319197133
 20
-123.5191187489681
 30
0.0
 11
179.6832470830978
 21
-131.4200181843315
 31
0.0
  0
LINE
  5
263
330
DC
100
AcDbEntity
  8
Слой 1
 62
   250
420
  3947579
370
    25
100
AcDbLine
 10
192.111645939905
 20
-162.5307325157851
 30
0.0
 11
185.5540249425152
 21
-148.3002708678052
 31
0.0
  0
LINE
  5
264
330
DC
100
AcDbEntity
  8
Слой 1
 62
   250
420
  3947579
370
    25
100
AcDbLine
 10
185.7058852627296
 20
-148.1841194311107
 30
0.0
 11
192.2272770285699
 21
-162.3751484549858
 31
0.0
  0
LINE
  5
265
330
DC
100
AcDbEntity
  8
Слой 1
 62
   250
420
  3947579
370
    25
100
AcDbLine
 10
192.1873077955592
 20
-159.0022850499715
 30
0.0
 11
187.1999670639827
 21
-148.1841194311107
 31
0.0
  0
LINE
  5
266
330
DC
100
AcDbEntity
  8
Слой 1
 62
   250
420
  3947579
370
    25
100
AcDbLine
 10
192.0716929677706
 20
-158.3469067069038
 30
0.0
 11
187.4317495893421
 21
-148.3002708678052
 31
0.0
  0
LINE
  5
267
330
DC
100
AcDbEntity
  8
Слой 1
 62
   250
420
  3947579
370
    25
100
AcDbLine
 10
185.5540249425152
 20
-144.6157027322864
 30
0.0
 11
181.1016507678203
 21
-134.9127567666263
 31
0.0
  0
LINE
  5
268
330
DC
100
AcDbEntity
  8
Слой 1
 62
   250
420
  3947579
370
    25
100
AcDbLine
 10
181.3334332931798
 20
-135.0283878552912
 30
0.0
 11
185.7058852627296
 21
-144.5395042677268
 31
0.0
  0
LINE
  5
269
330
DC
100
AcDbEntity
  8
Слой 1
 62
   250
420
  3947579
370
    25
100
AcDbLine
 10
177.8049858273656
 20
-131.4200181843315
 30
0.0
 11
174.1603869248574
 21
-123.5191187489681
 31
0.0
  0
LINE
  5
26A
330
DC
100
AcDbEntity
  8
Слой 1
 62
   250
420
  3947579
370
    25
100
AcDbLine
 10
174.2722942729367
 20
-123.4034876603032
 30
0.0
 11
177.9968153805907
 21
-131.4999403894773
 31
0.0
  0
LINE
  5
26B
330
DC
100
AcDbEntity
  8
Слой 1
 62
   250
420
  3947579
370
    25
100
AcDbLine
 10
189.3861930487576
 20
-160.6887167524787
 30
0.0
 11
189.3861930487576
 21
-156.5842765398365
 31
0.0
  0
LINE
  5
26C
330
DC
100
AcDbEntity
  8
Слой 1
 62
   250
420
  3947579
370
    25
100
AcDbLine
 10
189.3504841652378
 20
-152.4404037030902
 30
0.0
 11
189.309994584198
 21
-148.3002708678052
 31
0.0
  0
LINE
  5
26D
330
DC
100
AcDbEntity
  8
Слой 1
 62
   250
420
  3947579
370
    25
100
AcDbLine
 10
188.0072057272641
 20
-153.6313014728212
 30
0.0
 11
187.967252755129
 21
-157.6195739878912
 31
0.0
  0
LINE
  5
26E
330
DC
100
AcDbEntity
  8
Слой 1
 62
   250
420
  3947579
370
    25
100
AcDbLine
 10
187.9315438716093
 20
-162.9506045929077
 30
0.0
 11
187.967252755129
 21
-161.6478157359732
 31
0.0
  0
LINE
  5
26F
330
DC
100
AcDbEntity
  8
Слой 1
 62
   250
420
  3947579
370
    25
100
AcDbLine
 10
188.0434349588123
 20
-149.6030597247392
 30
0.0
 11
188.0434349588123
 21
-148.3002708678052
 31
0.0
  0
LINE
  5
270
330
DC
100
AcDbEntity
  8
Слой 1
 62
   250
420
  3947579
370
    25
100
AcDbLine
 10
190.4252142373978
 20
-150.7140190284481
 30
0.0
 11
190.3852612652634
 21
-154.7060315449812
 31
0.0
  0
LINE
  5
271
330
DC
100
AcDbEntity
  8
Слой 1
 62
   250
420
  3947579
370
    25
100
AcDbLine
 10
190.3452920322527
 20
-158.730549552477
 30
0.0
 11
190.3090628007032
 21
-162.7225458081339
 31
0.0
  0
LINE
  5
272
330
DC
100
AcDbEntity
  8
Слой 1
 62
   250
420
  3947579
370
    25
100
AcDbLine
 10
192.1516151729157
 20
-154.0506369410379
 30
0.0
 11
192.0354474753461
 21
-154.2067576107431
 31
0.0
  0
LINE
  5
273
330
DC
100
AcDbEntity
  8
Слой 1
 62
   250
420
  3947579
370
    25
100
AcDbLine
 10
182.8280354424618
 20
-163.0662356815727
 30
0.0
 11
182.9442031400321
 21
-162.9506045929077
 31
0.0
  0
LINE
  5
274
330
DC
100
AcDbEntity
  8
Слой 1
 62
   250
420
  3947579
370
    25
100
AcDbLine
 10
159.3144999059443
 20
-131.4999403894773
 30
0.0
 11
159.0821807716801
 21
-131.4200181843315
 31
0.0
  0
LINE
  5
275
330
DC
100
AcDbEntity
  8
Слой 1
 62
   250
420
  3947579
370
    25
100
AcDbLine
 10
163.0347606641079
 20
-131.4999403894773
 30
0.0
 11
162.8429473717591
 21
-131.4200181843315
 31
0.0
  0
LINE
  5
276
330
DC
100
AcDbEntity
  8
Слой 1
 62
   250
420
  3947579
370
    25
100
AcDbLine
 10
173.8524059349384
 20
-135.0283878552912
 30
0.0
 11
173.6206234095789
 21
-134.9127567666263
 31
0.0
  0
LINE
  5
277
330
DC
100
AcDbEntity
  8
Слой 1
 62
   250
420
  3947579
370
    25
100
AcDbLine
 10
187.5836099095558
 20
-144.5395042677268
 30
0.0
 11
183.2116782880357
 21
-135.0283878552912
 31
0.0
  0
LINE
  5
278
330
DC
100
AcDbEntity
  8
Слой 1
 62
   250
420
  3947579
370
    25
100
AcDbLine
 10
183.3278459856059
 20
-134.9127567666263
 30
0.0
 11
187.8153924349153
 21
-144.6157027322864
 31
0.0
  0
LINE
  5
279
330
DC
100
AcDbEntity
  8
Слой 1
 62
   250
420
  3947579
370
    25
100
AcDbLine
 10
192.0354474753461
 20
-154.2067576107431
 30
0.0
 11
189.309994584198
 21
-148.3359634904487
 31
0.0
  0
LINE
  5
27A
330
DC
100
AcDbEntity
  8
Слой 1
 62
   250
420
  3947579
370
    25
100
AcDbLine
 10
189.426146020892
 20
-148.1841194311107
 30
0.0
 11
192.1516151729157
 21
-154.0506369410379
 31
0.0
  0
LINE
  5
27B
330
DC
100
AcDbEntity
  8
Слой 1
 62
   250
420
  3947579
370
    25
100
AcDbLine
 10
181.5257831944339
 20
-131.4200181843315
 30
0.0
 11
177.9168931754449
 21
-123.5191187489681
 31
0.0
  0
LINE
  5
27C
330
DC
100
AcDbEntity
  8
Слой 1
 62
   250
420
  3947579
370
    25
100
AcDbLine
 10
178.0325080032341
 20
-123.4034876603032
 30
0.0
 11
181.7533053703018
 21
-131.4999403894773
 31
0.0
  0
LINE
  5
27D
330
DC
100
AcDbEntity
  8
Слой 1
 62
   250
420
  3947579
370
    25
100
AcDbLine
 10
192.0716929677706
 20
-158.3469067069038
 30
0.0
 11
192.0354474753461
 21
-154.2067576107431
 31
0.0
  0
LINE
  5
27E
330
DC
100
AcDbEntity
  8
Слой 1
 62
   250
420
  3947579
370
    25
100
AcDbLine
 10
191.9954945032104
 20
-150.0623644259666
 30
0.0
 11
191.9597856196906
 21
-148.3002708678052
 31
0.0
  0
LINE
  5
27F
330
DC
100
AcDbEntity
  8
Слой 1
 62
   250
420
  3947579
370
    25
100
AcDbLine
 10
191.9198326475562
 20
-141.7383895209246
 30
0.0
 11
191.8798634145455
 21
-137.5982566856393
 31
0.0
  0
LINE
  5
280
330
DC
100
AcDbEntity
  8
Слой 1
 62
   250
420
  3947579
370
    25
100
AcDbLine
 10
191.8036649499866
 20
-131.4200181843315
 30
0.0
 11
191.7679723273419
 21
-129.3099744032408
 31
0.0
  0
LINE
  5
281
330
DC
100
AcDbEntity
  8
Слой 1
 62
   250
420
  3947579
370
    25
100
AcDbLine
 10
191.7280030943318
 20
-125.1298723349448
 30
0.0
 11
191.7280030943318
 21
-123.5191187489681
 31
0.0
  0
LINE
  5
282
330
DC
100
AcDbEntity
  8
Слой 1
 62
   250
420
  3947579
370
    25
100
AcDbLine
 10
191.8436341829966
 20
-123.4034876603032
 30
0.0
 11
191.8436341829966
 21
-125.7810065893972
 31
0.0
  0
LINE
  5
283
330
DC
100
AcDbEntity
  8
Слой 1
 62
   250
420
  3947579
370
    25
100
AcDbLine
 10
191.8798634145455
 20
-129.1581303439027
 30
0.0
 11
191.9198326475562
 21
-131.4999403894773
 31
0.0
  0
LINE
  5
284
330
DC
100
AcDbEntity
  8
Слой 1
 62
   250
420
  3947579
370
    25
100
AcDbLine
 10
192.0716929677706
 20
-148.1841194311107
 30
0.0
 11
192.111645939905
 21
-150.7140190284481
 31
0.0
  0
LINE
  5
285
330
DC
100
AcDbEntity
  8
Слой 1
 62
   250
420
  3947579
370
    25
100
AcDbLine
 10
192.1516151729157
 20
-154.0506369410379
 30
0.0
 11
192.1873077955592
 21
-159.0022850499715
 31
0.0
  0
LINE
  5
286
330
DC
100
AcDbEntity
  8
Слой 1
 62
   250
420
  3947579
370
    25
100
AcDbLine
 10
191.9597856196906
 20
-137.4421360159343
 30
0.0
 11
192.0354474753461
 21
-142.3937841248677
 31
0.0
  0
LINE
  5
287
330
DC
100
AcDbEntity
  8
Слой 1
 62
   250
420
  3947579
370
    25
100
AcDbLine
 10
192.2272770285699
 20
-162.3751484549858
 30
0.0
 11
192.2272770285699
 21
-163.0662356815727
 31
0.0
  0
LINE
  5
288
330
DC
100
AcDbEntity
  8
Слой 1
 62
   250
420
  3947579
370
    25
100
AcDbLine
 10
192.7270713108376
 20
-174.8035473117936
 30
0.0
 11
192.7270713108376
 21
-175.150960925818
 31
0.0
  0
LINE
  5
289
330
DC
100
AcDbEntity
  8
Слой 1
 62
   250
420
  3947579
370
    25
100
AcDbLine
 10
193.1863760120656
 20
-175.150960925818
 30
0.0
 11
193.1863760120656
 21
-174.8035473117936
 31
0.0
  0
LINE
  5
28A
330
DC
100
AcDbEntity
  8
Слой 1
 62
   250
420
  3947579
370
    25
100
AcDbLine
 10
192.111645939905
 20
-162.9506045929077
 30
0.0
 11
192.111645939905
 21
-162.5307325157851
 31
0.0
  0
LINE
  5
28B
330
DC
100
AcDbEntity
  8
Слой 1
 62
   250
420
  3947579
370
    25
100
AcDbLine
 10
186.5488328095302
 20
-163.0662356815727
 30
0.0
 11
186.7049534792355
 21
-162.9506045929077
 31
0.0
  0
LINE
  5
28C
330
DC
100
AcDbEntity
  8
Слой 1
 62
   250
420
  3947579
370
    25
100
AcDbLine
 10
190.6927056462771
 20
-135.0283878552912
 30
0.0
 11
188.8107206499593
 21
-135.0283878552912
 31
0.0
  0
LINE
  5
28D
330
DC
100
AcDbEntity
  8
Слой 1
 62
   250
420
  3947579
370
    25
100
AcDbLine
 10
186.9324756551034
 20
-135.0283878552912
 30
0.0
 11
185.090459891797
 21
-135.0283878552912
 31
0.0
  0
LINE
  5
28E
330
DC
100
AcDbEntity
  8
Слой 1
 62
   250
420
  3947579
370
    25
100
AcDbLine
 10
183.2116782880357
 20
-135.0283878552912
 30
0.0
 11
181.3334332931798
 21
-135.0283878552912
 31
0.0
  0
LINE
  5
28F
330
DC
100
AcDbEntity
  8
Слой 1
 62
   250
420
  3947579
370
    25
100
AcDbLine
 10
179.451448296862
 20
-135.0283878552912
 30
0.0
 11
177.6131725350168
 21
-135.0283878552912
 31
0.0
  0
LINE
  5
290
330
DC
100
AcDbEntity
  8
Слой 1
 62
   250
420
  3947579
370
    25
100
AcDbLine
 10
175.7311875386997
 20
-135.0283878552912
 30
0.0
 11
173.8524059349384
 21
-135.0283878552912
 31
0.0
  0
LINE
  5
291
330
DC
100
AcDbEntity
  8
Слой 1
 62
   250
420
  3947579
370
    25
100
AcDbLine
 10
171.9741609400825
 20
-135.0283878552912
 30
0.0
 11
170.1321451767754
 21
-135.0283878552912
 31
0.0
  0
LINE
  5
292
330
DC
100
AcDbEntity
  8
Слой 1
 62
   250
420
  3947579
370
    25
100
AcDbLine
 10
168.2496398324286
 20
-135.0283878552912
 30
0.0
 11
166.3719151856024
 21
-135.0283878552912
 31
0.0
  0
LINE
  5
293
330
DC
100
AcDbEntity
  8
Слой 1
 62
   250
420
  3947579
370
    25
100
AcDbLine
 10
164.4931335818411
 20
-135.0283878552912
 30
0.0
 11
162.651117818534
 21
-135.0283878552912
 31
0.0
  0
LINE
  5
294
330
DC
100
AcDbEntity
  8
Слой 1
 62
   250
420
  3947579
370
    25
100
AcDbLine
 10
160.7728728236781
 20
-135.0283878552912
 30
0.0
 11
158.8903674793313
 21
-135.0283878552912
 31
0.0
  0
LINE
  5
295
330
DC
100
AcDbEntity
  8
Слой 1
 62
   250
420
  3947579
370
    25
100
AcDbLine
 10
158.6628453034627
 20
-134.9127567666263
 30
0.0
 11
160.8847801717575
 21
-134.9127567666263
 31
0.0
  0
LINE
  5
296
330
DC
100
AcDbEntity
  8
Слой 1
 62
   250
420
  3947579
370
    25
100
AcDbLine
 10
162.3831060616257
 20
-134.9127567666263
 30
0.0
 11
164.6449939020548
 21
-134.9127567666263
 31
0.0
  0
LINE
  5
297
330
DC
100
AcDbEntity
  8
Слой 1
 62
   250
420
  3947579
370
    25
100
AcDbLine
 10
166.1438726617041
 20
-134.9127567666263
 30
0.0
 11
168.3657912691232
 21
-134.9127567666263
 31
0.0
  0
LINE
  5
298
330
DC
100
AcDbEntity
  8
Слой 1
 62
   250
420
  3947579
370
    25
100
AcDbLine
 10
169.8641334198671
 20
-134.9127567666263
 30
0.0
 11
172.1260212602962
 21
-134.9127567666263
 31
0.0
  0
LINE
  5
299
330
DC
100
AcDbEntity
  8
Слой 1
 62
   250
420
  3947579
370
    25
100
AcDbLine
 10
173.6206234095789
 20
-134.9127567666263
 30
0.0
 11
175.8468186273645
 21
-134.9127567666263
 31
0.0
  0
LINE
  5
29A
330
DC
100
AcDbEntity
  8
Слой 1
 62
   250
420
  3947579
370
    25
100
AcDbLine
 10
177.3414207766466
 20
-134.9127567666263
 30
0.0
 11
179.6070486185376
 21
-134.9127567666263
 31
0.0
  0
LINE
  5
29B
330
DC
100
AcDbEntity
  8
Слой 1
 62
   250
420
  3947579
370
    25
100
AcDbLine
 10
181.1016507678203
 20
-134.9127567666263
 30
0.0
 11
183.3278459856059
 21
-134.9127567666263
 31
0.0
  0
LINE
  5
29C
330
DC
100
AcDbEntity
  8
Слой 1
 62
   250
420
  3947579
370
    25
100
AcDbLine
 10
184.822448134888
 20
-134.9127567666263
 30
0.0
 11
187.0880597159033
 21
-134.9127567666263
 31
0.0
  0
LINE
  5
29D
330
DC
100
AcDbEntity
  8
Слой 1
 62
   250
420
  3947579
370
    25
100
AcDbLine
 10
188.5826781260617
 20
-134.9127567666263
 30
0.0
 11
190.808857082971
 21
-134.9127567666263
 31
0.0
  0
LINE
  5
29E
330
DC
100
AcDbEntity
  8
Слой 1
 62
   250
420
  3947579
370
    25
100
AcDbLine
 10
166.7949906552809
 20
-131.4999403894773
 30
0.0
 11
166.5632081299214
 21
-131.4200181843315
 31
0.0
  0
LINE
  5
29F
330
DC
100
AcDbEntity
  8
Слой 1
 62
   250
420
  3947579
370
    25
100
AcDbLine
 10
170.5157880223493
 20
-131.4999403894773
 30
0.0
 11
170.3239747300005
 21
-131.4200181843315
 31
0.0
  0
LINE
  5
2A0
330
DC
100
AcDbEntity
  8
Слой 1
 62
   250
420
  3947579
370
    25
100
AcDbLine
 10
177.6131725350168
 20
-135.0283878552912
 30
0.0
 11
177.3414207766466
 21
-134.9127567666263
 31
0.0
  0
LINE
  5
2A1
330
DC
100
AcDbEntity
  8
Слой 1
 62
   250
420
  3947579
370
    25
100
AcDbLine
 10
181.3334332931798
 20
-135.0283878552912
 30
0.0
 11
181.1016507678203
 21
-134.9127567666263
 31
0.0
  0
LINE
  5
2A2
330
DC
100
AcDbEntity
  8
Слой 1
 62
   250
420
  3947579
370
    25
100
AcDbLine
 10
194.0698294007823
 20
-145.191175131084
 30
0.0
 11
193.5305862335329
 21
-144.6157027322864
 31
0.0
  0
LINE
  5
2A3
330
DC
100
AcDbEntity
  8
Слой 1
 62
   250
420
  3947579
370
    25
100
AcDbLine
 10
193.5305862335329
 20
-145.3467591918836
 30
0.0
 11
194.1055220234258
 21
-145.8822623576712
 31
0.0
  0
LINE
  5
2A4
330
DC
100
AcDbEntity
  8
Слой 1
 62
   250
420
  3947579
370
    25
100
AcDbLine
 10
183.2516475210458
 20
-131.4999403894773
 30
0.0
 11
179.5313867628834
 21
-123.4034876603032
 31
0.0
  0
LINE
  5
2A5
330
DC
100
AcDbEntity
  8
Слой 1
 62
   250
420
  3947579
370
    25
100
AcDbLine
 10
179.7594292867817
 20
-123.5191187489681
 30
0.0
 11
183.4035078412601
 21
-131.4200181843315
 31
0.0
  0
LINE
  5
2A6
330
DC
100
AcDbEntity
  8
Слой 1
 62
   250
420
  3947579
370
    25
100
AcDbLine
 10
191.3044072766242
 20
-144.5395042677268
 30
0.0
 11
186.9324756551034
 21
-135.0283878552912
 31
0.0
  0
LINE
  5
2A7
330
DC
100
AcDbEntity
  8
Слой 1
 62
   250
420
  3947579
370
    25
100
AcDbLine
 10
187.0880597159033
 20
-134.9127567666263
 30
0.0
 11
191.5361898019837
 21
-144.6157027322864
 31
0.0
  0
LINE
  5
2A8
330
DC
100
AcDbEntity
  8
Слой 1
 62
   250
420
  3947579
370
    25
100
AcDbLine
 10
192.111645939905
 20
-150.7140190284481
 30
0.0
 11
190.9607174031854
 21
-148.1841194311107
 31
0.0
  0
LINE
  5
2A9
330
DC
100
AcDbEntity
  8
Слой 1
 62
   250
420
  3947579
370
    25
100
AcDbLine
 10
191.1924999285448
 20
-148.3002708678052
 30
0.0
 11
191.9954945032104
 21
-150.0623644259666
 31
0.0
  0
LINE
  5
2AA
330
DC
100
AcDbEntity
  8
Слой 1
 62
   250
420
  3947579
370
    25
100
AcDbLine
 10
189.309994584198
 20
-144.6157027322864
 30
0.0
 11
184.822448134888
 21
-134.9127567666263
 31
0.0
  0
LINE
  5
2AB
330
DC
100
AcDbEntity
  8
Слой 1
 62
   250
420
  3947579
370
    25
100
AcDbLine
 10
185.090459891797
 20
-135.0283878552912
 30
0.0
 11
189.4661152539027
 21
-144.5395042677268
 31
0.0
  0
LINE
  5
2AC
330
DC
100
AcDbEntity
  8
Слой 1
 62
   250
420
  3947579
370
    25
100
AcDbLine
 10
185.281752836116
 20
-131.4200181843315
 30
0.0
 11
181.6371539336079
 21
-123.5191187489681
 31
0.0
  0
LINE
  5
2AD
330
DC
100
AcDbEntity
  8
Слой 1
 62
   250
420
  3947579
370
    25
100
AcDbLine
 10
181.7533053703018
 20
-123.4034876603032
 30
0.0
 11
185.4735661284648
 21
-131.4999403894773
 31
0.0
  0
LINE
  5
2AE
330
DC
100
AcDbEntity
  8
Слой 1
 62
   250
420
  3947579
370
    25
100
AcDbLine
 10
192.0716929677706
 20
-158.3469067069038
 30
0.0
 11
192.1873077955592
 21
-159.0022850499715
 31
0.0
  0
LINE
  5
2AF
330
DC
100
AcDbEntity
  8
Слой 1
 62
   250
420
  3947579
370
    25
100
AcDbLine
 10
191.9954945032104
 20
-150.0623644259666
 30
0.0
 11
192.111645939905
 21
-150.7140190284481
 31
0.0
  0
LINE
  5
2B0
330
DC
100
AcDbEntity
  8
Слой 1
 62
   250
420
  3947579
370
    25
100
AcDbLine
 10
194.6053163056935
 20
-184.6620935991303
 30
0.0
 11
194.3735337803341
 21
-175.150960925818
 31
0.0
  0
LINE
  5
2B1
330
DC
100
AcDbEntity
  8
Слой 1
 62
   250
420
  3947579
370
    25
100
AcDbLine
 10
194.3735337803341
 20
-174.8035473117936
 30
0.0
 11
193.8380306145465
 21
-119.1072341553132
 31
0.0
  0
LINE
  5
2B2
330
DC
100
AcDbEntity
  8
Слой 1
 62
   250
420
  3947579
370
    25
100
AcDbLine
 10
193.5700188576388
 20
-175.150960925818
 30
0.0
 11
193.5700188576388
 21
-174.8035473117936
 31
0.0
  0
LINE
  5
2B3
330
DC
100
AcDbEntity
  8
Слой 1
 62
   250
420
  3947579
370
    25
100
AcDbLine
 10
192.2272770285699
 20
-162.3751484549858
 30
0.0
 11
192.111645939905
 21
-162.5307325157851
 31
0.0
  0
LINE
  5
2B4
330
DC
100
AcDbEntity
  8
Слой 1
 62
   250
420
  3947579
370
    25
100
AcDbLine
 10
190.3090628007032
 20
-163.0662356815727
 30
0.0
 11
190.4252142373978
 21
-162.9506045929077
 31
0.0
  0
LINE
  5
2B5
330
DC
100
AcDbEntity
  8
Слой 1
 62
   250
420
  3947579
370
    25
100
AcDbLine
 10
193.3782055652901
 20
-132.0753965273992
 30
0.0
 11
155.9773453844497
 21
-132.0753965273992
 31
0.0
  0
LINE
  5
2B6
330
DC
100
AcDbEntity
  8
Слой 1
 62
   250
420
  3947579
370
    25
100
AcDbLine
 10
190.7289348778259
 20
-131.4999403894773
 30
0.0
 11
189.2343327285439
 21
-131.4999403894773
 31
0.0
  0
LINE
  5
2B7
330
DC
100
AcDbEntity
  8
Слой 1
 62
   250
420
  3947579
370
    25
100
AcDbLine
 10
187.0081375107576
 20
-131.4999403894773
 30
0.0
 11
185.4735661284648
 21
-131.4999403894773
 31
0.0
  0
LINE
  5
2B8
330
DC
100
AcDbEntity
  8
Слой 1
 62
   250
420
  3947579
370
    25
100
AcDbLine
 10
183.2516475210458
 20
-131.4999403894773
 30
0.0
 11
181.7533053703018
 21
-131.4999403894773
 31
0.0
  0
LINE
  5
2B9
330
DC
100
AcDbEntity
  8
Слой 1
 62
   250
420
  3947579
370
    25
100
AcDbLine
 10
179.5313867628834
 20
-131.4999403894773
 30
0.0
 11
177.9968153805907
 21
-131.4999403894773
 31
0.0
  0
LINE
  5
2BA
330
DC
100
AcDbEntity
  8
Слой 1
 62
   250
420
  3947579
370
    25
100
AcDbLine
 10
175.7706201628044
 20
-131.4999403894773
 30
0.0
 11
174.2722942729367
 21
-131.4999403894773
 31
0.0
  0
LINE
  5
2BB
330
DC
100
AcDbEntity
  8
Слой 1
 62
   250
420
  3947579
370
    25
100
AcDbLine
 10
172.050359404642
 20
-131.4999403894773
 30
0.0
 11
170.5157880223493
 21
-131.4999403894773
 31
0.0
  0
LINE
  5
2BC
330
DC
100
AcDbEntity
  8
Слой 1
 62
   250
420
  3947579
370
    25
100
AcDbLine
 10
168.289592804563
 20
-131.4999403894773
 30
0.0
 11
166.7949906552809
 21
-131.4999403894773
 31
0.0
  0
LINE
  5
2BD
330
DC
100
AcDbEntity
  8
Слой 1
 62
   250
420
  3947579
370
    25
100
AcDbLine
 10
164.5693320464006
 20
-131.4999403894773
 30
0.0
 11
163.0347606641079
 21
-131.4999403894773
 31
0.0
  0
LINE
  5
2BE
330
DC
100
AcDbEntity
  8
Слой 1
 62
   250
420
  3947579
370
    25
100
AcDbLine
 10
160.8085817071979
 20
-131.4999403894773
 30
0.0
 11
159.3144999059443
 21
-131.4999403894773
 31
0.0
  0
LINE
  5
2BF
330
DC
100
AcDbEntity
  8
Слой 1
 62
   250
420
  3947579
370
    25
100
AcDbLine
 10
193.3782055652901
 20
-131.4999403894773
 30
0.0
 11
191.9198326475562
 21
-131.4999403894773
 31
0.0
  0
LINE
  5
2C0
330
DC
100
AcDbEntity
  8
Слой 1
 62
   250
420
  3947579
370
    25
100
AcDbLine
 10
157.4719475337325
 20
-131.4999403894773
 30
0.0
 11
155.9773453844497
 21
-131.4999403894773
 31
0.0
  0
LINE
  5
2C1
330
DC
100
AcDbEntity
  8
Слой 1
 62
   250
420
  3947579
370
    25
100
AcDbLine
 10
191.8036649499866
 20
-131.4200181843315
 30
0.0
 11
190.8845189386252
 21
-131.4200181843315
 31
0.0
  0
LINE
  5
2C2
330
DC
100
AcDbEntity
  8
Слой 1
 62
   250
420
  3947579
370
    25
100
AcDbLine
 10
189.0025502031844
 20
-131.4200181843315
 30
0.0
 11
187.1642581804629
 21
-131.4200181843315
 31
0.0
  0
LINE
  5
2C3
330
DC
100
AcDbEntity
  8
Слой 1
 62
   250
420
  3947579
370
    25
100
AcDbLine
 10
185.281752836116
 20
-131.4200181843315
 30
0.0
 11
183.4035078412601
 21
-131.4200181843315
 31
0.0
  0
LINE
  5
2C4
330
DC
100
AcDbEntity
  8
Слой 1
 62
   250
420
  3947579
370
    25
100
AcDbLine
 10
181.5257831944339
 20
-131.4200181843315
 30
0.0
 11
179.6832470830978
 21
-131.4200181843315
 31
0.0
  0
LINE
  5
2C5
330
DC
100
AcDbEntity
  8
Слой 1
 62
   250
420
  3947579
370
    25
100
AcDbLine
 10
177.8049858273656
 20
-131.4200181843315
 30
0.0
 11
175.9224804830187
 21
-131.4200181843315
 31
0.0
  0
LINE
  5
2C6
330
DC
100
AcDbEntity
  8
Слой 1
 62
   250
420
  3947579
370
    25
100
AcDbLine
 10
174.0442354881628
 20
-131.4200181843315
 30
0.0
 11
172.2022197248564
 21
-131.4200181843315
 31
0.0
  0
LINE
  5
2C7
330
DC
100
AcDbEntity
  8
Слой 1
 62
   250
420
  3947579
370
    25
100
AcDbLine
 10
170.3239747300005
 20
-131.4200181843315
 30
0.0
 11
168.4414531247774
 21
-131.4200181843315
 31
0.0
  0
LINE
  5
2C8
330
DC
100
AcDbEntity
  8
Слой 1
 62
   250
420
  3947579
370
    25
100
AcDbLine
 10
166.5632081299214
 20
-131.4200181843315
 30
0.0
 11
164.721192366615
 21
-131.4200181843315
 31
0.0
  0
LINE
  5
2C9
330
DC
100
AcDbEntity
  8
Слой 1
 62
   250
420
  3947579
370
    25
100
AcDbLine
 10
162.8429473717591
 20
-131.4200181843315
 30
0.0
 11
160.9647023769032
 21
-131.4200181843315
 31
0.0
  0
LINE
  5
2CA
330
DC
100
AcDbEntity
  8
Слой 1
 62
   250
420
  3947579
370
    25
100
AcDbLine
 10
159.0821807716801
 20
-131.4200181843315
 30
0.0
 11
157.587578622398
 21
-131.4200181843315
 31
0.0
  0
LINE
  5
2CB
330
DC
100
AcDbEntity
  8
Слой 1
 62
   250
420
  3947579
370
    25
100
AcDbLine
 10
174.2722942729367
 20
-131.4999403894773
 30
0.0
 11
174.0442354881628
 21
-131.4200181843315
 31
0.0
  0
LINE
  5
2CC
330
DC
100
AcDbEntity
  8
Слой 1
 62
   250
420
  3947579
370
    25
100
AcDbLine
 10
177.9968153805907
 20
-131.4999403894773
 30
0.0
 11
177.8049858273656
 21
-131.4200181843315
 31
0.0
  0
LINE
  5
2CD
330
DC
100
AcDbEntity
  8
Слой 1
 62
   250
420
  3947579
370
    25
100
AcDbLine
 10
161.0765934641062
 20
-123.5191187489681
 30
0.0
 11
160.8485346793323
 21
-123.4034876603032
 31
0.0
  0
LINE
  5
2CE
330
DC
100
AcDbEntity
  8
Слой 1
 62
   250
420
  3947579
370
    25
100
AcDbLine
 10
185.090459891797
 20
-135.0283878552912
 30
0.0
 11
184.822448134888
 21
-134.9127567666263
 31
0.0
  0
LINE
  5
2CF
330
DC
100
AcDbEntity
  8
Слой 1
 62
   250
420
  3947579
370
    25
100
AcDbLine
 10
187.0081375107576
 20
-131.4999403894773
 30
0.0
 11
183.2878767525952
 21
-123.4034876603032
 31
0.0
  0
LINE
  5
2D0
330
DC
100
AcDbEntity
  8
Слой 1
 62
   250
420
  3947579
370
    25
100
AcDbLine
 10
183.5196592779547
 20
-123.5191187489681
 30
0.0
 11
187.1642581804629
 21
-131.4200181843315
 31
0.0
  0
LINE
  5
2D1
330
DC
100
AcDbEntity
  8
Слой 1
 62
   250
420
  3947579
370
    25
100
AcDbLine
 10
192.0354474753461
 20
-142.3937841248677
 30
0.0
 11
188.5826781260617
 21
-134.9127567666263
 31
0.0
  0
LINE
  5
2D2
330
DC
100
AcDbEntity
  8
Слой 1
 62
   250
420
  3947579
370
    25
100
AcDbLine
 10
188.8107206499593
 20
-135.0283878552912
 30
0.0
 11
191.9198326475562
 21
-141.7383895209246
 31
0.0
  0
LINE
  5
2D3
330
DC
100
AcDbEntity
  8
Слой 1
 62
   250
420
  3947579
370
    25
100
AcDbLine
 10
191.9198326475562
 20
-141.7383895209246
 30
0.0
 11
192.0354474753461
 21
-142.3937841248677
 31
0.0
  0
LINE
  5
2D4
330
DC
100
AcDbEntity
  8
Слой 1
 62
   250
420
  3947579
370
    25
100
AcDbLine
 10
181.7533053703018
 20
-131.4999403894773
 30
0.0
 11
181.5257831944339
 21
-131.4200181843315
 31
0.0
  0
LINE
  5
2D5
330
DC
100
AcDbEntity
  8
Слой 1
 62
   250
420
  3947579
370
    25
100
AcDbLine
 10
185.4735661284648
 20
-131.4999403894773
 30
0.0
 11
185.281752836116
 21
-131.4200181843315
 31
0.0
  0
LINE
  5
2D6
330
DC
100
AcDbEntity
  8
Слой 1
 62
   250
420
  3947579
370
    25
100
AcDbLine
 10
164.8011145717601
 20
-123.5191187489681
 30
0.0
 11
164.5693320464006
 21
-123.4034876603032
 31
0.0
  0
LINE
  5
2D7
330
DC
100
AcDbEntity
  8
Слой 1
 62
   250
420
  3947579
370
    25
100
AcDbLine
 10
188.8107206499593
 20
-135.0283878552912
 30
0.0
 11
188.5826781260617
 21
-134.9127567666263
 31
0.0
  0
LINE
  5
2D8
330
DC
100
AcDbEntity
  8
Слой 1
 62
   250
420
  3947579
370
    25
100
AcDbLine
 10
168.5576208223476
 20
-123.5191187489681
 30
0.0
 11
168.3295620375737
 21
-123.4034876603032
 31
0.0
  0
LINE
  5
2D9
330
DC
100
AcDbEntity
  8
Слой 1
 62
   250
420
  3947579
370
    25
100
AcDbLine
 10
191.8798634145455
 20
-137.5982566856393
 30
0.0
 11
190.6927056462771
 21
-135.0283878552912
 31
0.0
  0
LINE
  5
2DA
330
DC
100
AcDbEntity
  8
Слой 1
 62
   250
420
  3947579
370
    25
100
AcDbLine
 10
190.808857082971
 20
-134.9127567666263
 30
0.0
 11
191.9597856196906
 21
-137.4421360159343
 31
0.0
  0
LINE
  5
2DB
330
DC
100
AcDbEntity
  8
Слой 1
 62
   250
420
  3947579
370
    25
100
AcDbLine
 10
190.7289348778259
 20
-131.4999403894773
 30
0.0
 11
187.0081375107576
 21
-123.4034876603032
 31
0.0
  0
LINE
  5
2DC
330
DC
100
AcDbEntity
  8
Слой 1
 62
   250
420
  3947579
370
    25
100
AcDbLine
 10
187.239920036117
 20
-123.5191187489681
 30
0.0
 11
190.8845189386252
 21
-131.4200181843315
 31
0.0
  0
LINE
  5
2DD
330
DC
100
AcDbEntity
  8
Слой 1
 62
   250
420
  3947579
370
    25
100
AcDbLine
 10
189.0025502031844
 20
-131.4200181843315
 30
0.0
 11
185.3979042728106
 21
-123.5191187489681
 31
0.0
  0
LINE
  5
2DE
330
DC
100
AcDbEntity
  8
Слой 1
 62
   250
420
  3947579
370
    25
100
AcDbLine
 10
185.5135353614755
 20
-123.4034876603032
 30
0.0
 11
189.2343327285439
 21
-131.4999403894773
 31
0.0
  0
LINE
  5
2DF
330
DC
100
AcDbEntity
  8
Слой 1
 62
   250
420
  3947579
370
    25
100
AcDbLine
 10
191.7280030943318
 20
-125.1298723349448
 30
0.0
 11
191.8436341829966
 21
-125.7810065893972
 31
0.0
  0
LINE
  5
2E0
330
DC
100
AcDbEntity
  8
Слой 1
 62
   250
420
  3947579
370
    25
100
AcDbLine
 10
189.2343327285439
 20
-131.4999403894773
 30
0.0
 11
189.0025502031844
 21
-131.4200181843315
 31
0.0
  0
LINE
  5
2E1
330
DC
100
AcDbEntity
  8
Слой 1
 62
   250
420
  3947579
370
    25
100
AcDbLine
 10
172.2778815805106
 20
-123.5191187489681
 30
0.0
 11
172.050359404642
 21
-123.4034876603032
 31
0.0
  0
LINE
  5
2E2
330
DC
100
AcDbEntity
  8
Слой 1
 62
   250
420
  3947579
370
    25
100
AcDbLine
 10
176.0386319197133
 20
-123.5191187489681
 30
0.0
 11
175.8068493943538
 21
-123.4034876603032
 31
0.0
  0
LINE
  5
2E3
330
DC
100
AcDbEntity
  8
Слой 1
 62
   250
420
  3947579
370
    25
100
AcDbLine
 10
191.7679723273419
 20
-129.3099744032408
 30
0.0
 11
189.1187016398783
 21
-123.5191187489681
 31
0.0
  0
LINE
  5
2E4
330
DC
100
AcDbEntity
  8
Слой 1
 62
   250
420
  3947579
370
    25
100
AcDbLine
 10
189.2343327285439
 20
-123.4034876603032
 30
0.0
 11
191.8798634145455
 21
-129.1581303439027
 31
0.0
  0
LINE
  5
2E5
330
DC
100
AcDbEntity
  8
Слой 1
 62
   250
420
  3947579
370
    25
100
AcDbLine
 10
159.1983484692503
 20
-123.5191187489681
 30
0.0
 11
157.6637770869569
 21
-123.5191187489681
 31
0.0
  0
LINE
  5
2E6
330
DC
100
AcDbEntity
  8
Слой 1
 62
   250
420
  3947579
370
    25
100
AcDbLine
 10
191.7280030943318
 20
-123.5191187489681
 30
0.0
 11
191.0006866361961
 21
-123.5191187489681
 31
0.0
  0
LINE
  5
2E7
330
DC
100
AcDbEntity
  8
Слой 1
 62
   250
420
  3947579
370
    25
100
AcDbLine
 10
189.1187016398783
 20
-123.5191187489681
 30
0.0
 11
187.239920036117
 21
-123.5191187489681
 31
0.0
  0
LINE
  5
2E8
330
DC
100
AcDbEntity
  8
Слой 1
 62
   250
420
  3947579
370
    25
100
AcDbLine
 10
185.3979042728106
 20
-123.5191187489681
 30
0.0
 11
183.5196592779547
 21
-123.5191187489681
 31
0.0
  0
LINE
  5
2E9
330
DC
100
AcDbEntity
  8
Слой 1
 62
   250
420
  3947579
370
    25
100
AcDbLine
 10
181.6371539336079
 20
-123.5191187489681
 30
0.0
 11
179.7594292867817
 21
-123.5191187489681
 31
0.0
  0
LINE
  5
2EA
330
DC
100
AcDbEntity
  8
Слой 1
 62
   250
420
  3947579
370
    25
100
AcDbLine
 10
177.9168931754449
 20
-123.5191187489681
 30
0.0
 11
176.0386319197133
 21
-123.5191187489681
 31
0.0
  0
LINE
  5
2EB
330
DC
100
AcDbEntity
  8
Слой 1
 62
   250
420
  3947579
370
    25
100
AcDbLine
 10
174.1603869248574
 20
-123.5191187489681
 30
0.0
 11
172.2778815805106
 21
-123.5191187489681
 31
0.0
  0
LINE
  5
2EC
330
DC
100
AcDbEntity
  8
Слой 1
 62
   250
420
  3947579
370
    25
100
AcDbLine
 10
170.4395895577891
 20
-123.5191187489681
 30
0.0
 11
168.5576208223476
 21
-123.5191187489681
 31
0.0
  0
LINE
  5
2ED
330
DC
100
AcDbEntity
  8
Слой 1
 62
   250
420
  3947579
370
    25
100
AcDbLine
 10
166.6793758274917
 20
-123.5191187489681
 30
0.0
 11
164.8011145717601
 21
-123.5191187489681
 31
0.0
  0
LINE
  5
2EE
330
DC
100
AcDbEntity
  8
Слой 1
 62
   250
420
  3947579
370
    25
100
AcDbLine
 10
162.959098808453
 20
-123.5191187489681
 30
0.0
 11
161.0765934641062
 21
-123.5191187489681
 31
0.0
  0
LINE
  5
2EF
330
DC
100
AcDbEntity
  8
Слой 1
 62
   250
420
  3947579
370
    25
100
AcDbLine
 10
157.548145998292
 20
-123.4034876603032
 30
0.0
 11
159.3144999059443
 21
-123.4034876603032
 31
0.0
  0
LINE
  5
2F0
330
DC
100
AcDbEntity
  8
Слой 1
 62
   250
420
  3947579
370
    25
100
AcDbLine
 10
160.8485346793323
 20
-123.4034876603032
 30
0.0
 11
163.0747298971179
 21
-123.4034876603032
 31
0.0
  0
LINE
  5
2F1
330
DC
100
AcDbEntity
  8
Слой 1
 62
   250
420
  3947579
370
    25
100
AcDbLine
 10
164.5693320464006
 20
-123.4034876603032
 30
0.0
 11
166.7949906552809
 21
-123.4034876603032
 31
0.0
  0
LINE
  5
2F2
330
DC
100
AcDbEntity
  8
Слой 1
 62
   250
420
  3947579
370
    25
100
AcDbLine
 10
168.3295620375737
 20
-123.4034876603032
 30
0.0
 11
170.5520172538981
 21
-123.4034876603032
 31
0.0
  0
LINE
  5
2F3
330
DC
100
AcDbEntity
  8
Слой 1
 62
   250
420
  3947579
370
    25
100
AcDbLine
 10
172.050359404642
 20
-123.4034876603032
 30
0.0
 11
174.2722942729367
 21
-123.4034876603032
 31
0.0
  0
LINE
  5
2F4
330
DC
100
AcDbEntity
  8
Слой 1
 62
   250
420
  3947579
370
    25
100
AcDbLine
 10
175.8068493943538
 20
-123.4034876603032
 30
0.0
 11
178.0325080032341
 21
-123.4034876603032
 31
0.0
  0
LINE
  5
2F5
330
DC
100
AcDbEntity
  8
Слой 1
 62
   250
420
  3947579
370
    25
100
AcDbLine
 10
179.5313867628834
 20
-123.4034876603032
 30
0.0
 11
181.7533053703018
 21
-123.4034876603032
 31
0.0
  0
LINE
  5
2F6
330
DC
100
AcDbEntity
  8
Слой 1
 62
   250
420
  3947579
370
    25
100
AcDbLine
 10
183.2878767525952
 20
-123.4034876603032
 30
0.0
 11
185.5135353614755
 21
-123.4034876603032
 31
0.0
  0
LINE
  5
2F7
330
DC
100
AcDbEntity
  8
Слой 1
 62
   250
420
  3947579
370
    25
100
AcDbLine
 10
187.0081375107576
 20
-123.4034876603032
 30
0.0
 11
189.2343327285439
 21
-123.4034876603032
 31
0.0
  0
LINE
  5
2F8
330
DC
100
AcDbEntity
  8
Слой 1
 62
   250
420
  3947579
370
    25
100
AcDbLine
 10
190.7689041108366
 20
-123.4034876603032
 30
0.0
 11
191.8436341829966
 21
-123.4034876603032
 31
0.0
  0
LINE
  5
2F9
330
DC
100
AcDbEntity
  8
Слой 1
 62
   250
420
  3947579
370
    25
100
AcDbLine
 10
179.7594292867817
 20
-123.5191187489681
 30
0.0
 11
179.5313867628834
 21
-123.4034876603032
 31
0.0
  0
LINE
  5
2FA
330
DC
100
AcDbEntity
  8
Слой 1
 62
   250
420
  3947579
370
    25
100
AcDbLine
 10
191.9198326475562
 20
-131.4999403894773
 30
0.0
 11
191.8036649499866
 21
-131.4200181843315
 31
0.0
  0
LINE
  5
2FB
330
DC
100
AcDbEntity
  8
Слой 1
 62
   250
420
  3947579
370
    25
100
AcDbLine
 10
193.9536617032114
 20
-132.0354435552645
 30
0.0
 11
193.3782055652901
 21
-131.4999403894773
 31
0.0
  0
LINE
  5
2FC
330
DC
100
AcDbEntity
  8
Слой 1
 62
   250
420
  3947579
370
    25
100
AcDbLine
 10
193.3782055652901
 20
-132.0753965273992
 30
0.0
 11
193.9536617032114
 21
-132.6108996931868
 31
0.0
  0
LINE
  5
2FD
330
DC
100
AcDbEntity
  8
Слой 1
 62
   250
420
  3947579
370
    25
100
AcDbLine
 10
191.8436341829966
 20
-125.7810065893972
 30
0.0
 11
190.7689041108366
 21
-123.4034876603032
 31
0.0
  0
LINE
  5
2FE
330
DC
100
AcDbEntity
  8
Слой 1
 62
   250
420
  3947579
370
    25
100
AcDbLine
 10
191.0006866361961
 20
-123.5191187489681
 30
0.0
 11
191.7280030943318
 21
-125.1298723349448
 31
0.0
  0
LINE
  5
2FF
330
DC
100
AcDbEntity
  8
Слой 1
 62
   250
420
  3947579
370
    25
100
AcDbLine
 10
156.0929764731146
 20
-120.7179877412902
 30
0.0
 11
155.5180406832224
 21
-120.7579569743009
 31
0.0
  0
LINE
  5
300
330
DC
100
AcDbEntity
  8
Слой 1
 62
   250
420
  3947579
370
    25
100
AcDbLine
 10
193.3025437096359
 20
-120.7179877412902
 30
0.0
 11
156.0929764731146
 21
-120.7179877412902
 31
0.0
  0
LINE
  5
301
330
DC
100
AcDbEntity
  8
Слой 1
 62
   250
420
  3947579
370
    25
100
AcDbLine
 10
193.8380306145465
 20
-120.7579569743009
 30
0.0
 11
193.3025437096359
 21
-120.7179877412902
 31
0.0
  0
LINE
  5
302
330
DC
100
AcDbEntity
  8
Слой 1
 62
   250
420
  3947579
370
    25
100
AcDbLine
 10
183.5196592779547
 20
-123.5191187489681
 30
0.0
 11
183.2878767525952
 21
-123.4034876603032
 31
0.0
  0
LINE
  5
303
330
DC
100
AcDbEntity
  8
Слой 1
 62
   250
420
  3947579
370
    25
100
AcDbLine
 10
187.239920036117
 20
-123.5191187489681
 30
0.0
 11
187.0081375107576
 21
-123.4034876603032
 31
0.0
  0
LINE
  5
304
330
DC
100
AcDbEntity
  8
Слой 1
 62
   250
420
  3947579
370
    25
100
AcDbLine
 10
177.3414207766466
 20
-184.7782450358236
 30
0.0
 11
177.6488651576603
 21
-184.6620935991303
 31
0.0
  0
LINE
  5
305
330
DC
100
AcDbEntity
  8
Слой 1
 62
   250
420
  3947579
370
    25
100
AcDbLine
 10
156.1292057046635
 20
-118.5317617565153
 30
0.0
 11
193.2625744766252
 21
-118.5317617565153
 31
0.0
  0
LINE
  5
306
330
DC
100
AcDbEntity
  8
Слой 1
 62
   250
420
  3947579
370
    25
100
AcDbLine
 10
190.7689041108366
 20
-123.4034876603032
 30
0.0
 11
191.0006866361961
 21
-123.5191187489681
 31
0.0
  0
LINE
  5
307
330
DC
100
AcDbEntity
  8
Слой 1
 62
   250
420
  3947579
370
    25
100
AcDbLine
 10
193.2625744766252
 20
-118.5317617565153
 30
0.0
 11
193.8380306145465
 21
-119.1072341553132
 31
0.0
  0
SPLINE
  5
308
330
DC
100
AcDbEntity
  8
Слой 1
 62
   250
420
  3947579
370
    25
100
AcDbSpline
210
0.0
220
0.0
230
1.0
 70
     8
 71
     3
 72
     8
 73
     4
 74
     0
 42
0.0000000001
 43
0.0000000001
 40
0.0
 40
0.0
 40
0.0
 40
0.0
 40
1.0
 40
1.0
 40
1.0
 40
1.0
 10
137.4048692466943
 20
-184.5464625104654
 30
0.0
 10
137.4966649418526
 20
-184.5182038386822
 30
0.0
 10
137.5660175389419
 20
-184.4359388724168
 30
0.0
 10
137.5884606370115
 20
-184.3339977752668
 30
0.0
  0
SPLINE
  5
309
330
DC
100
AcDbEntity
  8
Слой 1
 62
   250
420
  3947579
370
    25
100
AcDbSpline
210
0.0
220
0.0
230
1.0
 70
     8
 71
     3
 72
    11
 73
     7
 74
     0
 42
0.0000000001
 43
0.0000000001
 40
0.0
 40
0.0
 40
0.0
 40
0.0
 40
1.0
 40
1.0
 40
1.0
 40
2.0
 40
2.0
 40
2.0
 40
2.0
 10
137.5884606370115
 20
-179.738014377982
 30
0.0
 10
137.5884606370115
 20
-179.7310778557107
 30
0.0
 10
137.5884606370115
 20
-179.7249885422657
 30
0.0
 10
137.5884606370115
 20
-179.7180520199944
 30
0.0
 10
137.5884606370115
 20
-179.6339135933585
 30
0.0
 10
137.5203167059953
 20
-179.5558380048892
 30
0.0
 10
137.409019573491
 20
-179.5228762864625
 30
0.0
  0
LWPOLYLINE
  5
30A
330
DC
100
AcDbEntity
  8
Слой 1
 62
   250
420
  3947579
370
    25
100
AcDbPolyline
 90
        8
 70
     0
 43
0.0
 10
162.1513235362663
 20
-148.2603016347945
 10
162.1513235362663
 20
-148.2603016347945
 10
162.191292769277
 20
-148.2603016347945
 10
162.2275220008258
 20
-148.2603016347945
 10
162.2674749729608
 20
-148.2603016347945
 10
162.3074442059715
 20
-148.2603016347945
 10
162.3436734375204
 20
-148.2603016347945
 10
162.3831060616257
 20
-148.2603016347945
  0
LWPOLYLINE
  5
30B
330
DC
100
AcDbEntity
  8
Слой 1
 62
   250
420
  3947579
370
    25
100
AcDbPolyline
 90
       14
 70
     0
 43
0.0
 10
162.3436734375204
 20
-150.9058323207968
 10
162.3436734375204
 20
-150.9058323207968
 10
162.3436734375204
 20
-150.869603089248
 10
162.3074442059715
 20
-150.829650117113
 10
162.3074442059715
 20
-150.7939412335938
 10
162.3074442059715
 20
-150.7539882614588
 10
162.2674749729608
 20
-150.7539882614588
 10
162.2674749729608
 20
-150.7140190284481
 10
162.2674749729608
 20
-150.6777897968992
 10
162.2275220008258
 20
-150.6378205638885
 10
162.191292769277
 20
-150.5621587082343
 10
162.191292769277
 20
-150.5222057360993
 10
162.1513235362663
 20
-150.4859602436748
 10
162.1513235362663
 20
-150.4460072715398
  0
LWPOLYLINE
  5
30C
330
DC
100
AcDbEntity
  8
Слой 1
 62
   250
420
  3947579
370
    25
100
AcDbPolyline
 90
        8
 70
     0
 43
0.0
 10
159.0464881490366
 20
-148.2603016347945
 10
159.0464881490366
 20
-148.2603016347945
 10
159.0821807716801
 20
-148.2603016347945
 10
159.1221500046908
 20
-148.2603016347945
 10
159.1626395857312
 20
-148.2603016347945
 10
159.1983484692503
 20
-148.2603016347945
 10
159.2383014413853
 20
-148.2603016347945
 10
159.2740103249051
 20
-148.2603016347945
  0
LWPOLYLINE
  5
30D
330
DC
100
AcDbEntity
  8
Слой 1
 62
   250
420
  3947579
370
    25
100
AcDbPolyline
 90
       14
 70
     0
 43
0.0
 10
159.2740103249051
 20
-152.3642214994064
 10
159.2740103249051
 20
-152.3285126158866
 10
159.2383014413853
 20
-152.2485904107415
 10
159.1983484692503
 20
-152.2123611791927
 10
159.1983484692503
 20
-152.1723919461819
 10
159.1626395857312
 20
-152.1366993235385
 10
159.1626395857312
 20
-152.056760857517
 10
159.1221500046908
 20
-152.056760857517
 10
159.1221500046908
 20
-151.9805786538332
 10
159.0821807716801
 20
-151.9448697703134
 10
159.0821807716801
 20
-151.9049005373027
 10
159.0821807716801
 20
-151.8649475651683
 10
159.0464881490366
 20
-151.8649475651683
 10
159.0464881490366
 20
-151.8287183336188
  0
LWPOLYLINE
  5
30E
330
DC
100
AcDbEntity
  8
Слой 1
 62
   250
420
  3947579
370
    25
100
AcDbPolyline
 90
       13
 70
     0
 43
0.0
 10
162.3074442059715
 20
-158.8861336132769
 10
162.3074442059715
 20
-158.8861336132769
 10
162.3074442059715
 20
-158.8461643802662
 10
162.2674749729608
 20
-158.8104717576228
 10
162.2674749729608
 20
-158.7705025246121
 10
162.2275220008258
 20
-158.7705025246121
 10
162.2275220008258
 20
-158.6943040600525
 10
162.191292769277
 20
-158.6543510879175
 10
162.191292769277
 20
-158.6186422043977
 10
162.1513235362663
 20
-158.5786892322633
 10
162.1513235362663
 20
-158.5387199992526
 10
162.1156309136228
 20
-158.5024907677038
 10
162.1156309136228
 20
-158.462521534693
  0
LWPOLYLINE
  5
30F
330
DC
100
AcDbEntity
  8
Слой 1
 62
   250
420
  3947579
370
    25
100
AcDbPolyline
 90
       12
 70
     0
 43
0.0
 10
162.1156309136228
 20
-154.0506369410379
 10
162.1513235362663
 20
-154.0906061740486
 10
162.1513235362663
 20
-154.130559146183
 10
162.191292769277
 20
-154.1668046386081
 10
162.191292769277
 20
-154.2067576107431
 10
162.2275220008258
 20
-154.2824194663973
 10
162.2275220008258
 20
-154.322388699408
 10
162.2674749729608
 20
-154.3586179309569
 10
162.2674749729608
 20
-154.3985871639676
 10
162.3074442059715
 20
-154.4742490196218
 10
162.3436734375204
 20
-154.5142019917568
 10
162.3436734375204
 20
-154.5504474841813
  0
LWPOLYLINE
  5
310
330
DC
100
AcDbEntity
  8
Слой 1
 62
   250
420
  3947579
370
    25
100
AcDbPolyline
 90
       14
 70
     0
 43
0.0
 10
159.0821807716801
 20
-155.5852083233313
 10
159.0821807716801
 20
-155.5852083233313
 10
159.0821807716801
 20
-155.625177556342
 10
159.1221500046908
 20
-155.6651305284764
 10
159.1221500046908
 20
-155.7013597600258
 10
159.1626395857312
 20
-155.7013597600258
 10
159.1626395857312
 20
-155.7413289930359
 10
159.1626395857312
 20
-155.7770378765551
 10
159.1983484692503
 20
-155.8169908486907
 10
159.1983484692503
 20
-155.8569600817008
 10
159.2383014413853
 20
-155.9331585462604
 10
159.2383014413853
 20
-155.9688511689038
 10
159.2740103249051
 20
-156.0088204019145
 10
159.3144999059443
 20
-156.0487733740496
  0
LWPOLYLINE
  5
311
330
DC
100
AcDbEntity
  8
Слой 1
 62
   250
420
  3947579
370
    25
100
AcDbPolyline
 90
       12
 70
     0
 43
0.0
 10
159.3144999059443
 20
-160.5368564322643
 10
159.3144999059443
 20
-160.4968871992536
 10
159.2740103249051
 20
-160.4207049955697
 10
159.2383014413853
 20
-160.380735762559
 10
159.2383014413853
 20
-160.3450431399155
 10
159.1983484692503
 20
-160.3050739069048
 10
159.1983484692503
 20
-160.2288754423453
 10
159.1626395857312
 20
-160.1532135866911
 10
159.1221500046908
 20
-160.1132606145561
 10
159.1221500046908
 20
-160.0370621499965
 10
159.0821807716801
 20
-160.0370621499965
 10
159.0821807716801
 20
-159.9970929169858
  0
LWPOLYLINE
  5
312
330
DC
100
AcDbEntity
  8
Слой 1
 62
   250
420
  3947579
370
    25
100
AcDbPolyline
 90
        8
 70
     0
 43
0.0
 10
162.3074442059715
 20
-162.9905738259185
 10
162.3074442059715
 20
-162.9905738259185
 10
162.2674749729608
 20
-162.9905738259185
 10
162.2275220008258
 20
-162.9905738259185
 10
162.191292769277
 20
-162.9905738259185
 10
162.1513235362663
 20
-162.9905738259185
 10
162.1156309136228
 20
-162.9905738259185
 10
162.0756616806121
 20
-163.026266448562
  0
LWPOLYLINE
  5
313
330
DC
100
AcDbEntity
  8
Слой 1
 62
   250
420
  3947579
370
    25
100
AcDbPolyline
 90
       12
 70
     0
 43
0.0
 10
162.0756616806121
 20
-162.1470896702119
 10
162.1156309136228
 20
-162.1833189017607
 10
162.1156309136228
 20
-162.2232881347715
 10
162.1513235362663
 20
-162.2632411069058
 10
162.1513235362663
 20
-162.2989499904256
 10
162.191292769277
 20
-162.3751484549858
 10
162.191292769277
 20
-162.4151014271202
 10
162.2275220008258
 20
-162.4151014271202
 10
162.2275220008258
 20
-162.4907632827744
 10
162.2674749729608
 20
-162.5669617473346
 10
162.3074442059715
 20
-162.6069309803446
 10
162.3074442059715
 20
-162.6426236029888
  0
ENDBLK
  5
DF
330
DC
100
AcDbEntity
  8
0
100
AcDbBlockEnd
  0
BLOCK
  5
317
330
315
100
AcDbEntity
  8
0
100
AcDbBlockBegin
  2
Block_2
 70
     0
 10
0.0
 20
0.0
 30
0.0
  3
Block_2
  1

  0
INSERT
  5
31A
330
315
100
AcDbEntity
  8
Слой 2
100
AcDbBlockReference
  2
Block_3
 10
0.0
 20
0.0
 30
0.0
  0
ENDBLK
  5
318
330
315
100
AcDbEntity
  8
0
100
AcDbBlockEnd
  0
BLOCK
  5
31B
330
319
100
AcDbEntity
  8
0
100
AcDbBlockBegin
  2
Block_3
 70
     0
 10
0.0
 20
0.0
 30
0.0
  3
Block_3
  1

  0
INSERT
  5
31E
330
319
100
AcDbEntity
  8
Слой 2
100
AcDbBlockReference
  2
Block_4
 10
0.0
 20
0.0
 30
0.0
  0
ENDBLK
  5
31C
330
319
100
AcDbEntity
  8
0
100
AcDbBlockEnd
  0
BLOCK
  5
31F
330
31D
100
AcDbEntity
  8
0
100
AcDbBlockBegin
  2
Block_4
 70
     0
 10
0.0
 20
0.0
 30
0.0
  3
Block_4
  1

  0
SPLINE
  5
321
330
31D
100
AcDbEntity
  8
Слой 2
100
AcDbSpline
210
0.0
220
0.0
230
1.0
 70
     9
 71
     3
 72
    26
 73
    22
 74
     0
 42
0.0000000001
 43
0.0000000001
 40
0.0
 40
0.0
 40
0.0
 40
0.0
 40
1.0
 40
1.0
 40
1.0
 40
2.0
 40
2.0
 40
2.0
 40
3.0
 40
3.0
 40
3.0
 40
4.0
 40
4.0
 40
4.0
 40
5.0
 40
5.0
 40
5.0
 40
6.0
 40
6.0
 40
6.0
 40
7.0
 40
7.0
 40
7.0
 40
7.0
 10
180.2682137402014
 20
-71.66176649527891
 30
0.0
 10
180.091531519365
 20
-71.46628581436755
 30
0.0
 10
179.7654326127627
 20
-71.35376693246856
 30
0.0
 10
179.3750926876373
 20
-71.35376693246856
 30
0.0
 10
179.1923902988023
 20
-71.35376693246856
 30
0.0
 10
179.0029297858902
 20
-71.38021683187223
 30
0.0
 10
178.8270243609253
 20
-71.43004828699033
 30
0.0
 10
178.5718857571296
 20
-71.50174654587428
 30
0.0
 10
177.9664510553526
 20
-71.73579514177564
 30
0.0
 10
177.8509026695561
 20
-72.35179426739698
 30
0.0
 10
177.7852634184661
 20
-72.70282832145531
 30
0.0
 10
177.9943768669108
 20
-72.97459035688844
 30
0.0
 10
178.4254208956721
 20
-73.09841161870956
 30
0.0
 10
178.5681182971566
 20
-73.13915456213847
 30
0.0
 10
178.7349352104307
 20
-73.1618370015682
 30
0.0
 10
178.910840635395
 20
-73.1618370015682
 30
0.0
 10
179.4747555978735
 20
-73.1618370015682
 30
0.0
 10
180.1285070028196
 20
-72.93233266151192
 30
0.0
 10
180.3527679707487
 20
-72.36313548711216
 30
0.0
 10
180.4901054807223
 20
-72.01283938913127
 30
0.0
 10
180.382946490332
 20
-71.78861726099684
 30
0.0
 10
180.2682137402014
 20
-71.66176649527891
 30
0.0
  0
HATCH
  5
322
330
31D
100
AcDbEntity
  8
Слой 2
 62
   254
420
 13421772
440
 33554687
100
AcDbHatch
 10
0.0
 20
0.0
 30
0.0
210
0.0
220
0.0
230
1.0
  2
SOLID
 70
     1
 71
     1
 91
        1
 92
        1
 93
        2
 72
     4
 94
        3
 73
     0
 74
     0
 95
       26
 96
       22
 40
0.0
 40
0.0
 40
0.0
 40
0.0
 40
1.0
 40
1.0
 40
1.0
 40
2.0
 40
2.0
 40
2.0
 40
3.0
 40
3.0
 40
3.0
 40
4.0
 40
4.0
 40
4.0
 40
5.0
 40
5.0
 40
5.0
 40
6.0
 40
6.0
 40
6.0
 40
7.0
 40
7.0
 40
7.0
 40
7.0
 10
180.2682137402014
 20
-71.66176649527891
 10
180.091531519365
 20
-71.46628581436755
 10
179.7654326127627
 20
-71.35376693246856
 10
179.3750926876373
 20
-71.35376693246856
 10
179.1923902988023
 20
-71.35376693246856
 10
179.0029297858902
 20
-71.38021683187223
 10
178.8270243609253
 20
-71.43004828699033
 10
178.5718857571296
 20
-71.50174654587428
 10
177.9664510553526
 20
-71.73579514177564
 10
177.8509026695561
 20
-72.35179426739698
 10
177.7852634184661
 20
-72.70282832145531
 10
177.9943768669108
 20
-72.97459035688844
 10
178.4254208956721
 20
-73.09841161870956
 10
178.5681182971566
 20
-73.13915456213847
 10
178.7349352104307
 20
-73.1618370015682
 10
178.910840635395
 20
-73.1618370015682
 10
179.4747555978735
 20
-73.1618370015682
 10
180.1285070028196
 20
-72.93233266151192
 10
180.3527679707487
 20
-72.36313548711216
 10
180.4901054807223
 20
-72.01283938913127
 10
180.382946490332
 20
-71.78861726099684
 10
180.2682137402014
 20
-71.66176649527891
 97
        0
 72
     1
 10
180.2682137402014
 20
-71.66176649527891
 11
180.2682137402014
 21
-71.66176649527891
 97
        0
 75
     2
 76
     1
 98
        1
 10
0.0
 20
0.0
450
        0
451
        0
460
0.0
461
0.0
452
        0
462
0.0
453
        0
470

  0
SPLINE
  5
323
330
31D
100
AcDbEntity
  8
Слой 2
100
AcDbSpline
210
0.0
220
0.0
230
1.0
 70
     9
 71
     3
 72
    98
 73
    94
 74
     0
 42
0.0000000001
 43
0.0000000001
 40
0.0
 40
0.0
 40
0.0
 40
0.0
 40
1.0
 40
1.0
 40
1.0
 40
2.0
 40
2.0
 40
2.0
 40
3.0
 40
3.0
 40
3.0
 40
4.0
 40
4.0
 40
4.0
 40
5.0
 40
5.0
 40
5.0
 40
6.0
 40
6.0
 40
6.0
 40
7.0
 40
7.0
 40
7.0
 40
8.0
 40
8.0
 40
8.0
 40
9.0
 40
9.0
 40
9.0
 40
10.0
 40
10.0
 40
10.0
 40
11.0
 40
11.0
 40
11.0
 40
12.0
 40
12.0
 40
12.0
 40
13.0
 40
13.0
 40
13.0
 40
14.0
 40
14.0
 40
14.0
 40
15.0
 40
15.0
 40
15.0
 40
16.0
 40
16.0
 40
16.0
 40
17.0
 40
17.0
 40
17.0
 40
18.0
 40
18.0
 40
18.0
 40
19.0
 40
19.0
 40
19.0
 40
20.0
 40
20.0
 40
20.0
 40
21.0
 40
21.0
 40
21.0
 40
22.0
 40
22.0
 40
22.0
 40
23.0
 40
23.0
 40
23.0
 40
24.0
 40
24.0
 40
24.0
 40
25.0
 40
25.0
 40
25.0
 40
26.0
 40
26.0
 40
26.0
 40
27.0
 40
27.0
 40
27.0
 40
28.0
 40
28.0
 40
28.0
 40
29.0
 40
29.0
 40
29.0
 40
30.0
 40
30.0
 40
30.0
 40
31.0
 40
31.0
 40
31.0
 40
31.0
 10
173.0090563266681
 20
-73.19706469431401
 30
0.0
 10
172.9071407084062
 20
-73.13290135537761
 30
0.0
 10
172.7274678234677
 20
-73.07402022836339
 30
0.0
 10
172.4904285634629
 20
-73.02648032106532
 30
0.0
 10
172.4904285634629
 20
-73.02648032106532
 30
0.0
 10
172.4783493876699
 20
-73.02418877324561
 30
0.0
 10
172.4783493876699
 20
-73.02418877324561
 30
0.0
 10
172.4383055605257
 20
-73.01587705742694
 30
0.0
 10
172.3952710692781
 20
-73.00834213747906
 30
0.0
 10
172.3499838700047
 20
-73.00080721753214
 30
0.0
 10
172.3499838700047
 20
-73.00080721753214
 30
0.0
 10
172.3145231384986
 20
-72.99548616581595
 30
0.0
 10
172.3145231384986
 20
-72.99548616581595
 30
0.0
 10
172.279800363069
 20
-72.99020395389375
 30
0.0
 10
172.2443396315629
 20
-72.98418378589413
 30
0.0
 10
172.2065485124444
 20
-72.97890157397226
 30
0.0
 10
172.2065485124444
 20
-72.97890157397226
 30
0.0
 10
171.3897476541958
 20
-72.9124855270105
 30
0.0
 10
171.3897476541958
 20
-72.9124855270105
 30
0.0
 10
171.341430951026
 20
-72.91019397919176
 30
0.0
 10
171.2900847439596
 20
-72.90945602311431
 30
0.0
 10
171.2387385368926
 20
-72.90794127116575
 30
0.0
 10
171.2387385368926
 20
-72.90794127116575
 30
0.0
 10
171.1624960221652
 20
-72.90642651921782
 30
0.0
 10
171.1624960221652
 20
-72.90642651921782
 30
0.0
 10
171.004728780785
 20
-72.90339701532101
 30
0.0
 10
170.8325908157943
 20
-72.90339701532101
 30
0.0
 10
170.6642591505716
 20
-72.90642651921782
 30
0.0
 10
170.6642591505716
 20
-72.90642651921782
 30
0.0
 10
170.5962895118679
 20
-72.90794127116575
 30
0.0
 10
170.5962895118679
 20
-72.90794127116575
 30
0.0
 10
170.5261448447266
 20
-72.90945602311431
 30
0.0
 10
170.4559224979965
 20
-72.91170873114001
 30
0.0
 10
170.3728830193977
 20
-72.9147382350365
 30
0.0
 10
170.3728830193977
 20
-72.9147382350365
 30
0.0
 10
170.3434424558909
 20
-72.9154761911133
 30
0.0
 10
170.3434424558909
 20
-72.9154761911133
 30
0.0
 10
170.2596261814213
 20
-72.91928249088126
 30
0.0
 10
170.1765867028225
 20
-72.92378790693295
 30
0.0
 10
170.0942851803008
 20
-72.92833216277802
 30
0.0
 10
170.0942851803008
 20
-72.92833216277802
 30
0.0
 10
170.0512506890525
 20
-72.93132282688017
 30
0.0
 10
170.0512506890525
 20
-72.93132282688017
 30
0.0
 10
169.9795524301695
 20
-72.93586708272461
 30
0.0
 10
169.9093300834401
 20
-72.94037249877533
 30
0.0
 10
169.826329444635
 20
-72.94716946264641
 30
0.0
 10
169.826329444635
 20
-72.94716946264641
 30
0.0
 10
169.7968888811282
 20
-72.9494610104658
 30
0.0
 10
169.7968888811282
 20
-72.9494610104658
 30
0.0
 10
169.6315090402133
 20
-72.96305493820603
 30
0.0
 10
169.4722270468858
 20
-72.97963953004938
 30
0.0
 10
169.3212567693776
 20
-72.99855450950613
 30
0.0
 10
169.3212567693776
 20
-72.99855450950613
 30
0.0
 10
169.2948068699729
 20
-73.00154517360862
 30
0.0
 10
169.2948068699729
 20
-73.00154517360862
 30
0.0
 10
169.1385543805426
 20
-73.02193606522057
 30
0.0
 10
168.991351563008
 20
-73.04384170877948
 30
0.0
 10
168.8524216214977
 20
-73.06873801644184
 30
0.0
 10
168.6101001495708
 20
-73.11251046376662
 30
0.0
 10
168.4070457089185
 20
-73.16234191888407
 30
0.0
 10
168.2485016716694
 20
-73.21594083397674
 30
0.0
 10
168.0884817222641
 20
-73.27031654493928
 30
0.0
 10
167.9616309565461
 20
-73.39184625894164
 30
0.0
 10
167.9020118734542
 20
-73.55039029619108
 30
0.0
 10
167.9020118734542
 20
-73.55039029619108
 30
0.0
 10
166.5590094922607
 20
-77.1060568758421
 30
0.0
 10
166.5590094922607
 20
-77.1060568758421
 30
0.0
 10
166.5590094922607
 20
-77.1060568758421
 30
0.0
 10
168.84566349742
 20
-77.1060568758421
 30
0.0
 10
168.84566349742
 20
-77.1060568758421
 30
0.0
 10
168.84566349742
 20
-77.1060568758421
 30
0.0
 10
169.5462168535895
 20
-75.23992131539213
 30
0.0
 10
169.5462168535895
 20
-75.23992131539213
 30
0.0
 10
169.6715528673588
 20
-74.90923931315172
 30
0.0
 10
169.9621910424544
 20
-74.31359223934797
 30
0.0
 10
170.5027244492185
 20
-74.03957749588883
 30
0.0
 10
170.9903968969676
 20
-73.83046404744323
 30
0.0
 10
171.3255454754657
 20
-73.74893932079266
 30
0.0
 10
171.6992619689544
 20
-73.74893932079266
 30
0.0
 10
171.894004693788
 20
-73.74893932079266
 30
0.0
 10
172.1023801861568
 20
-73.77158292042932
 30
0.0
 10
172.3560428777984
 20
-73.81989962359885
 30
0.0
 10
172.400592120994
 20
-73.82821133941753
 30
0.0
 10
172.5402600185813
 20
-73.87198378674263
 30
0.0
 10
172.6701014484021
 20
-73.94896425754845
 30
0.0
 10
172.6701014484021
 20
-73.94896425754845
 30
0.0
 10
172.7984281262742
 20
-74.01615710038135
 30
0.0
 10
172.7984281262742
 20
-74.01615710038135
 30
0.0
 10
172.7984281262742
 20
-74.01615710038135
 30
0.0
 10
173.0950864693703
 20
-73.25066360940539
 30
0.0
 10
173.0950864693703
 20
-73.25066360940539
 30
0.0
 10
173.0950864693703
 20
-73.25066360940539
 30
0.0
 10
173.0090563266681
 20
-73.19706469431401
 30
0.0
 10
173.0090563266681
 20
-73.19706469431401
 30
0.0
  0
HATCH
  5
324
330
31D
100
AcDbEntity
  8
Слой 2
 62
   254
420
 13421772
440
 33554687
100
AcDbHatch
 10
0.0
 20
0.0
 30
0.0
210
0.0
220
0.0
230
1.0
  2
SOLID
 70
     1
 71
     1
 91
        1
 92
        1
 93
        1
 72
     4
 94
        3
 73
     0
 74
     0
 95
       98
 96
       94
 40
0.0
 40
0.0
 40
0.0
 40
0.0
 40
1.0
 40
1.0
 40
1.0
 40
2.0
 40
2.0
 40
2.0
 40
3.0
 40
3.0
 40
3.0
 40
4.0
 40
4.0
 40
4.0
 40
5.0
 40
5.0
 40
5.0
 40
6.0
 40
6.0
 40
6.0
 40
7.0
 40
7.0
 40
7.0
 40
8.0
 40
8.0
 40
8.0
 40
9.0
 40
9.0
 40
9.0
 40
10.0
 40
10.0
 40
10.0
 40
11.0
 40
11.0
 40
11.0
 40
12.0
 40
12.0
 40
12.0
 40
13.0
 40
13.0
 40
13.0
 40
14.0
 40
14.0
 40
14.0
 40
15.0
 40
15.0
 40
15.0
 40
16.0
 40
16.0
 40
16.0
 40
17.0
 40
17.0
 40
17.0
 40
18.0
 40
18.0
 40
18.0
 40
19.0
 40
19.0
 40
19.0
 40
20.0
 40
20.0
 40
20.0
 40
21.0
 40
21.0
 40
21.0
 40
22.0
 40
22.0
 40
22.0
 40
23.0
 40
23.0
 40
23.0
 40
24.0
 40
24.0
 40
24.0
 40
25.0
 40
25.0
 40
25.0
 40
26.0
 40
26.0
 40
26.0
 40
27.0
 40
27.0
 40
27.0
 40
28.0
 40
28.0
 40
28.0
 40
29.0
 40
29.0
 40
29.0
 40
30.0
 40
30.0
 40
30.0
 40
31.0
 40
31.0
 40
31.0
 40
31.0
 10
173.0090563266681
 20
-73.19706469431401
 10
172.9071407084062
 20
-73.13290135537761
 10
172.7274678234677
 20
-73.07402022836339
 10
172.4904285634629
 20
-73.02648032106532
 10
172.4904285634629
 20
-73.02648032106532
 10
172.4783493876699
 20
-73.02418877324561
 10
172.4783493876699
 20
-73.02418877324561
 10
172.4383055605257
 20
-73.01587705742694
 10
172.3952710692781
 20
-73.00834213747906
 10
172.3499838700047
 20
-73.00080721753214
 10
172.3499838700047
 20
-73.00080721753214
 10
172.3145231384986
 20
-72.99548616581595
 10
172.3145231384986
 20
-72.99548616581595
 10
172.279800363069
 20
-72.99020395389375
 10
172.2443396315629
 20
-72.98418378589413
 10
172.2065485124444
 20
-72.97890157397226
 10
172.2065485124444
 20
-72.97890157397226
 10
171.3897476541958
 20
-72.9124855270105
 10
171.3897476541958
 20
-72.9124855270105
 10
171.341430951026
 20
-72.91019397919176
 10
171.2900847439596
 20
-72.90945602311431
 10
171.2387385368926
 20
-72.90794127116575
 10
171.2387385368926
 20
-72.90794127116575
 10
171.1624960221652
 20
-72.90642651921782
 10
171.1624960221652
 20
-72.90642651921782
 10
171.004728780785
 20
-72.90339701532101
 10
170.8325908157943
 20
-72.90339701532101
 10
170.6642591505716
 20
-72.90642651921782
 10
170.6642591505716
 20
-72.90642651921782
 10
170.5962895118679
 20
-72.90794127116575
 10
170.5962895118679
 20
-72.90794127116575
 10
170.5261448447266
 20
-72.90945602311431
 10
170.4559224979965
 20
-72.91170873114001
 10
170.3728830193977
 20
-72.9147382350365
 10
170.3728830193977
 20
-72.9147382350365
 10
170.3434424558909
 20
-72.9154761911133
 10
170.3434424558909
 20
-72.9154761911133
 10
170.2596261814213
 20
-72.91928249088126
 10
170.1765867028225
 20
-72.92378790693295
 10
170.0942851803008
 20
-72.92833216277802
 10
170.0942851803008
 20
-72.92833216277802
 10
170.0512506890525
 20
-72.93132282688017
 10
170.0512506890525
 20
-72.93132282688017
 10
169.9795524301695
 20
-72.93586708272461
 10
169.9093300834401
 20
-72.94037249877533
 10
169.826329444635
 20
-72.94716946264641
 10
169.826329444635
 20
-72.94716946264641
 10
169.7968888811282
 20
-72.9494610104658
 10
169.7968888811282
 20
-72.9494610104658
 10
169.6315090402133
 20
-72.96305493820603
 10
169.4722270468858
 20
-72.97963953004938
 10
169.3212567693776
 20
-72.99855450950613
 10
169.3212567693776
 20
-72.99855450950613
 10
169.2948068699729
 20
-73.00154517360862
 10
169.2948068699729
 20
-73.00154517360862
 10
169.1385543805426
 20
-73.02193606522057
 10
168.991351563008
 20
-73.04384170877948
 10
168.8524216214977
 20
-73.06873801644184
 10
168.6101001495708
 20
-73.11251046376662
 10
168.4070457089185
 20
-73.16234191888407
 10
168.2485016716694
 20
-73.21594083397674
 10
168.0884817222641
 20
-73.27031654493928
 10
167.9616309565461
 20
-73.39184625894164
 10
167.9020118734542
 20
-73.55039029619108
 10
167.9020118734542
 20
-73.55039029619108
 10
166.5590094922607
 20
-77.1060568758421
 10
166.5590094922607
 20
-77.1060568758421
 10
166.5590094922607
 20
-77.1060568758421
 10
168.84566349742
 20
-77.1060568758421
 10
168.84566349742
 20
-77.1060568758421
 10
168.84566349742
 20
-77.1060568758421
 10
169.5462168535895
 20
-75.23992131539213
 10
169.5462168535895
 20
-75.23992131539213
 10
169.6715528673588
 20
-74.90923931315172
 10
169.9621910424544
 20
-74.31359223934797
 10
170.5027244492185
 20
-74.03957749588883
 10
170.9903968969676
 20
-73.83046404744323
 10
171.3255454754657
 20
-73.74893932079266
 10
171.6992619689544
 20
-73.74893932079266
 10
171.894004693788
 20
-73.74893932079266
 10
172.1023801861568
 20
-73.77158292042932
 10
172.3560428777984
 20
-73.81989962359885
 10
172.400592120994
 20
-73.82821133941753
 10
172.5402600185813
 20
-73.87198378674263
 10
172.6701014484021
 20
-73.94896425754845
 10
172.6701014484021
 20
-73.94896425754845
 10
172.7984281262742
 20
-74.01615710038135
 10
172.7984281262742
 20
-74.01615710038135
 10
172.7984281262742
 20
-74.01615710038135
 10
173.0950864693703
 20
-73.25066360940539
 10
173.0950864693703
 20
-73.25066360940539
 10
173.0950864693703
 20
-73.25066360940539
 10
173.0090563266681
 20
-73.19706469431401
 10
173.0090563266681
 20
-73.19706469431401
 97
        0
 97
        1
330
323
 75
     2
 76
     1
 98
        1
 10
0.0
 20
0.0
450
        0
451
        0
460
0.0
461
0.0
452
        0
462
0.0
453
        0
470

  0
SPLINE
  5
325
330
31D
100
AcDbEntity
  8
Слой 2
100
AcDbSpline
210
0.0
220
0.0
230
1.0
 70
    11
 71
     3
 72
    26
 73
    22
 74
     0
 42
0.0000000001
 43
0.0000000001
 40
0.0
 40
0.0
 40
0.0
 40
0.0
 40
1.0
 40
1.0
 40
1.0
 40
2.0
 40
2.0
 40
2.0
 40
3.0
 40
3.0
 40
3.0
 40
4.0
 40
4.0
 40
4.0
 40
5.0
 40
5.0
 40
5.0
 40
6.0
 40
6.0
 40
6.0
 40
7.0
 40
7.0
 40
7.0
 40
7.0
 10
179.6659639014944
 20
-73.66535608508394
 30
0.0
 10
179.6047912266614
 20
-73.57474284674355
 30
0.0
 10
179.5029144481933
 20
-73.52118277144587
 30
0.0
 10
179.3941630262669
 20
-73.52118277144587
 30
0.0
 10
179.3941630262669
 20
-73.52118277144587
 30
0.0
 10
177.6955823351707
 20
-73.52118277144587
 30
0.0
 10
177.6955823351707
 20
-73.52118277144587
 30
0.0
 10
177.5612354892986
 20
-73.52118277144587
 30
0.0
 10
177.4374142274766
 20
-73.60569816219923
 30
0.0
 10
177.389097524308
 20
-73.7317721320457
 30
0.0
 10
177.389097524308
 20
-73.7317721320457
 30
0.0
 10
176.0913823423866
 20
-77.10628991460335
 30
0.0
 10
176.0913823423866
 20
-77.10628991460335
 30
0.0
 10
176.0913823423866
 20
-77.10628991460335
 30
0.0
 10
178.4792140097314
 20
-77.10628991460335
 30
0.0
 10
178.4792140097314
 20
-77.10628991460335
 30
0.0
 10
178.4792140097314
 20
-77.10628991460335
 30
0.0
 10
179.6991719249748
 20
-73.97184089594637
 30
0.0
 10
179.6991719249748
 20
-73.97184089594637
 30
0.0
 10
179.7399537081974
 20
-73.86996411747851
 30
0.0
 10
179.7271365763274
 20
-73.75596932342434
 30
0.0
 10
179.6659639014944
 20
-73.66535608508394
 30
0.0
  0
HATCH
  5
326
330
31D
100
AcDbEntity
  8
Слой 2
 62
   254
420
 13421772
440
 33554687
100
AcDbHatch
 10
0.0
 20
0.0
 30
0.0
210
0.0
220
0.0
230
1.0
  2
SOLID
 70
     1
 71
     1
 91
        1
 92
        1
 93
        2
 72
     4
 94
        3
 73
     0
 74
     0
 95
       26
 96
       22
 40
0.0
 40
0.0
 40
0.0
 40
0.0
 40
1.0
 40
1.0
 40
1.0
 40
2.0
 40
2.0
 40
2.0
 40
3.0
 40
3.0
 40
3.0
 40
4.0
 40
4.0
 40
4.0
 40
5.0
 40
5.0
 40
5.0
 40
6.0
 40
6.0
 40
6.0
 40
7.0
 40
7.0
 40
7.0
 40
7.0
 10
179.6659639014944
 20
-73.66535608508394
 10
179.6047912266614
 20
-73.57474284674355
 10
179.5029144481933
 20
-73.52118277144587
 10
179.3941630262669
 20
-73.52118277144587
 10
179.3941630262669
 20
-73.52118277144587
 10
177.6955823351707
 20
-73.52118277144587
 10
177.6955823351707
 20
-73.52118277144587
 10
177.5612354892986
 20
-73.52118277144587
 10
177.4374142274766
 20
-73.60569816219923
 10
177.389097524308
 20
-73.7317721320457
 10
177.389097524308
 20
-73.7317721320457
 10
176.0913823423866
 20
-77.10628991460335
 10
176.0913823423866
 20
-77.10628991460335
 10
176.0913823423866
 20
-77.10628991460335
 10
178.4792140097314
 20
-77.10628991460335
 10
178.4792140097314
 20
-77.10628991460335
 10
178.4792140097314
 20
-77.10628991460335
 10
179.6991719249748
 20
-73.97184089594637
 10
179.6991719249748
 20
-73.97184089594637
 10
179.7399537081974
 20
-73.86996411747851
 10
179.7271365763274
 20
-73.75596932342434
 10
179.6659639014944
 20
-73.66535608508394
 97
        0
 72
     1
 10
179.6659639014944
 20
-73.66535608508394
 11
179.6659639014944
 21
-73.66535608508394
 97
        0
 75
     2
 76
     1
 98
        1
 10
0.0
 20
0.0
450
        0
451
        0
460
0.0
461
0.0
452
        0
462
0.0
453
        0
470

  0
SPLINE
  5
327
330
31D
100
AcDbEntity
  8
Слой 2
100
AcDbSpline
210
0.0
220
0.0
230
1.0
 70
     9
 71
     3
 72
    56
 73
    52
 74
     0
 42
0.0000000001
 43
0.0000000001
 40
0.0
 40
0.0
 40
0.0
 40
0.0
 40
1.0
 40
1.0
 40
1.0
 40
2.0
 40
2.0
 40
2.0
 40
3.0
 40
3.0
 40
3.0
 40
4.0
 40
4.0
 40
4.0
 40
5.0
 40
5.0
 40
5.0
 40
6.0
 40
6.0
 40
6.0
 40
7.0
 40
7.0
 40
7.0
 40
8.0
 40
8.0
 40
8.0
 40
9.0
 40
9.0
 40
9.0
 40
10.0
 40
10.0
 40
10.0
 40
11.0
 40
11.0
 40
11.0
 40
12.0
 40
12.0
 40
12.0
 40
13.0
 40
13.0
 40
13.0
 40
14.0
 40
14.0
 40
14.0
 40
15.0
 40
15.0
 40
15.0
 40
16.0
 40
16.0
 40
16.0
 40
17.0
 40
17.0
 40
17.0
 40
17.0
 10
192.8735910555966
 20
-73.03242280947722
 30
0.0
 10
192.0869298771395
 20
-73.03242280947722
 30
0.0
 10
191.373520549307
 20
-73.17512021096106
 30
0.0
 10
190.7484717517899
 20
-73.45822346610939
 30
0.0
 10
190.7484717517899
 20
-73.45822346610939
 30
0.0
 10
191.3923966889701
 20
-71.83060307781875
 30
0.0
 10
191.3923966889701
 20
-71.83060307781875
 30
0.0
 10
191.4233520044254
 20
-71.75284581114211
 30
0.0
 10
191.4135643764519
 20
-71.66530091649192
 30
0.0
 10
191.3659856293591
 20
-71.59659332171109
 30
0.0
 10
191.3191836781372
 20
-71.52788572693026
 30
0.0
 10
191.2414264114606
 20
-71.48636598763085
 30
0.0
 10
191.157648976784
 20
-71.48636598763085
 30
0.0
 10
191.157648976784
 20
-71.48636598763085
 30
0.0
 10
189.2967567884638
 20
-71.48407443981177
 30
0.0
 10
189.2967567884638
 20
-71.48407443981177
 30
0.0
 10
189.1918116663048
 20
-71.48407443981177
 30
0.0
 10
189.0997225158115
 20
-71.54676186659331
 30
0.0
 10
189.0619702364847
 20
-71.6441332290098
 30
0.0
 10
189.0619702364847
 20
-71.6441332290098
 30
0.0
 10
186.9285780566536
 20
-77.10601803604872
 30
0.0
 10
186.9285780566536
 20
-77.10601803604872
 30
0.0
 10
186.9285780566536
 20
-77.10601803604872
 30
0.0
 10
189.3337322719185
 20
-77.10601803604872
 30
0.0
 10
189.3337322719185
 20
-77.10601803604872
 30
0.0
 10
189.3337322719185
 20
-77.10601803604872
 30
0.0
 10
190.0886613390501
 20
-75.19754710063513
 30
0.0
 10
190.0886613390501
 20
-75.19754710063513
 30
0.0
 10
190.3279921468736
 20
-74.56189503947959
 30
0.0
 10
191.0149515753008
 20
-74.11803387884889
 30
0.0
 10
191.7585394227172
 20
-74.11803387884889
 30
0.0
 10
192.1601817277648
 20
-74.11803387884889
 30
0.0
 10
192.3639741244948
 20
-74.21315253324097
 30
0.0
 10
192.3639741244948
 20
-74.40113713399816
 30
0.0
 10
192.3639741244948
 20
-74.53396922792137
 30
0.0
 10
192.3367862690137
 20
-74.66684016163798
 30
0.0
 10
192.2832261937141
 20
-74.79066142345941
 30
0.0
 10
192.2832261937141
 20
-74.79066142345941
 30
0.0
 10
191.3750353012549
 20
-77.10601803604872
 30
0.0
 10
191.3750353012549
 20
-77.10601803604872
 30
0.0
 10
191.3750353012549
 20
-77.10601803604872
 30
0.0
 10
193.7809663123919
 20
-77.10601803604872
 30
0.0
 10
193.7809663123919
 20
-77.10601803604872
 30
0.0
 10
193.7809663123919
 20
-77.10601803604872
 30
0.0
 10
194.6838749929289
 20
-74.79066142345941
 30
0.0
 10
194.6838749929289
 20
-74.79066142345941
 30
0.0
 10
194.7676912673979
 20
-74.56418658729994
 30
0.0
 10
194.825834438335
 20
-74.28411283604749
 30
0.0
 10
194.825834438335
 20
-74.11123691497909
 30
0.0
 10
194.825834438335
 20
-73.43557986647271
 30
0.0
 10
194.0957628390727
 20
-73.03242280947722
 30
0.0
 10
192.8735910555966
 20
-73.03242280947722
 30
0.0
  0
HATCH
  5
328
330
31D
100
AcDbEntity
  8
Слой 2
 62
   254
420
 13421772
440
 33554687
100
AcDbHatch
 10
0.0
 20
0.0
 30
0.0
210
0.0
220
0.0
230
1.0
  2
SOLID
 70
     1
 71
     1
 91
        1
 92
        1
 93
        2
 72
     4
 94
        3
 73
     0
 74
     0
 95
       56
 96
       52
 40
0.0
 40
0.0
 40
0.0
 40
0.0
 40
1.0
 40
1.0
 40
1.0
 40
2.0
 40
2.0
 40
2.0
 40
3.0
 40
3.0
 40
3.0
 40
4.0
 40
4.0
 40
4.0
 40
5.0
 40
5.0
 40
5.0
 40
6.0
 40
6.0
 40
6.0
 40
7.0
 40
7.0
 40
7.0
 40
8.0
 40
8.0
 40
8.0
 40
9.0
 40
9.0
 40
9.0
 40
10.0
 40
10.0
 40
10.0
 40
11.0
 40
11.0
 40
11.0
 40
12.0
 40
12.0
 40
12.0
 40
13.0
 40
13.0
 40
13.0
 40
14.0
 40
14.0
 40
14.0
 40
15.0
 40
15.0
 40
15.0
 40
16.0
 40
16.0
 40
16.0
 40
17.0
 40
17.0
 40
17.0
 40
17.0
 10
192.8735910555966
 20
-73.03242280947722
 10
192.0869298771395
 20
-73.03242280947722
 10
191.373520549307
 20
-73.17512021096106
 10
190.7484717517899
 20
-73.45822346610939
 10
190.7484717517899
 20
-73.45822346610939
 10
191.3923966889701
 20
-71.83060307781875
 10
191.3923966889701
 20
-71.83060307781875
 10
191.4233520044254
 20
-71.75284581114211
 10
191.4135643764519
 20
-71.66530091649192
 10
191.3659856293591
 20
-71.59659332171109
 10
191.3191836781372
 20
-71.52788572693026
 10
191.2414264114606
 20
-71.48636598763085
 10
191.157648976784
 20
-71.48636598763085
 10
191.157648976784
 20
-71.48636598763085
 10
189.2967567884638
 20
-71.48407443981177
 10
189.2967567884638
 20
-71.48407443981177
 10
189.1918116663048
 20
-71.48407443981177
 10
189.0997225158115
 20
-71.54676186659331
 10
189.0619702364847
 20
-71.6441332290098
 10
189.0619702364847
 20
-71.6441332290098
 10
186.9285780566536
 20
-77.10601803604872
 10
186.9285780566536
 20
-77.10601803604872
 10
186.9285780566536
 20
-77.10601803604872
 10
189.3337322719185
 20
-77.10601803604872
 10
189.3337322719185
 20
-77.10601803604872
 10
189.3337322719185
 20
-77.10601803604872
 10
190.0886613390501
 20
-75.19754710063513
 10
190.0886613390501
 20
-75.19754710063513
 10
190.3279921468736
 20
-74.56189503947959
 10
191.0149515753008
 20
-74.11803387884889
 10
191.7585394227172
 20
-74.11803387884889
 10
192.1601817277648
 20
-74.11803387884889
 10
192.3639741244948
 20
-74.21315253324097
 10
192.3639741244948
 20
-74.40113713399816
 10
192.3639741244948
 20
-74.53396922792137
 10
192.3367862690137
 20
-74.66684016163798
 10
192.2832261937141
 20
-74.79066142345941
 10
192.2832261937141
 20
-74.79066142345941
 10
191.3750353012549
 20
-77.10601803604872
 10
191.3750353012549
 20
-77.10601803604872
 10
191.3750353012549
 20
-77.10601803604872
 10
193.7809663123919
 20
-77.10601803604872
 10
193.7809663123919
 20
-77.10601803604872
 10
193.7809663123919
 20
-77.10601803604872
 10
194.6838749929289
 20
-74.79066142345941
 10
194.6838749929289
 20
-74.79066142345941
 10
194.7676912673979
 20
-74.56418658729994
 10
194.825834438335
 20
-74.28411283604749
 10
194.825834438335
 20
-74.11123691497909
 10
194.825834438335
 20
-73.43557986647271
 10
194.0957628390727
 20
-73.03242280947722
 10
192.8735910555966
 20
-73.03242280947722
 97
        0
 72
     1
 10
192.8735910555966
 20
-73.03242280947722
 11
192.8735910555966
 21
-73.03242280947722
 97
        0
 75
     2
 76
     1
 98
        1
 10
0.0
 20
0.0
450
        0
451
        0
460
0.0
461
0.0
452
        0
462
0.0
453
        0
470

  0
SPLINE
  5
329
330
31D
100
AcDbEntity
  8
Слой 2
100
AcDbSpline
210
0.0
220
0.0
230
1.0
 70
     9
 71
     3
 72
    26
 73
    22
 74
     0
 42
0.0000000001
 43
0.0000000001
 40
0.0
 40
0.0
 40
0.0
 40
0.0
 40
1.0
 40
1.0
 40
1.0
 40
2.0
 40
2.0
 40
2.0
 40
3.0
 40
3.0
 40
3.0
 40
4.0
 40
4.0
 40
4.0
 40
5.0
 40
5.0
 40
5.0
 40
6.0
 40
6.0
 40
6.0
 40
7.0
 40
7.0
 40
7.0
 40
7.0
 10
176.920456575396
 20
-71.62168382834067
 30
0.0
 10
176.8736934639678
 20
-71.55301507335386
 30
0.0
 10
176.7958973574975
 20
-71.51149533405413
 30
0.0
 10
176.7121199228209
 20
-71.51149533405413
 30
0.0
 10
176.7121199228209
 20
-71.51149533405413
 30
0.0
 10
174.7991047315622
 20
-71.51149533405413
 30
0.0
 10
174.7991047315622
 20
-71.51149533405413
 30
0.0
 10
174.694936405276
 20
-71.51149533405413
 30
0.0
 10
174.6020704589099
 20
-71.57492071691279
 30
0.0
 10
174.5643570193775
 20
-71.6722920793299
 30
0.0
 10
174.5643570193775
 20
-71.6722920793299
 30
0.0
 10
172.4399756716478
 20
-77.10621223501691
 30
0.0
 10
172.4399756716478
 20
-77.10621223501691
 30
0.0
 10
172.4399756716478
 20
-77.10621223501691
 30
0.0
 10
174.9010203498248
 20
-77.10621223501691
 30
0.0
 10
174.9010203498248
 20
-77.10621223501691
 30
0.0
 10
174.9010203498248
 20
-77.10621223501691
 30
0.0
 10
176.9469064748006
 20
-71.85647038031946
 30
0.0
 10
176.9469064748006
 20
-71.85647038031946
 30
0.0
 10
176.9778617902547
 20
-71.77871311364251
 30
0.0
 10
176.9680353224881
 20
-71.69039142312183
 30
0.0
 10
176.920456575396
 20
-71.62168382834067
 30
0.0
  0
HATCH
  5
32A
330
31D
100
AcDbEntity
  8
Слой 2
 62
   254
420
 13421772
440
 33554687
100
AcDbHatch
 10
0.0
 20
0.0
 30
0.0
210
0.0
220
0.0
230
1.0
  2
SOLID
 70
     1
 71
     1
 91
        1
 92
        1
 93
        2
 72
     4
 94
        3
 73
     0
 74
     0
 95
       26
 96
       22
 40
0.0
 40
0.0
 40
0.0
 40
0.0
 40
1.0
 40
1.0
 40
1.0
 40
2.0
 40
2.0
 40
2.0
 40
3.0
 40
3.0
 40
3.0
 40
4.0
 40
4.0
 40
4.0
 40
5.0
 40
5.0
 40
5.0
 40
6.0
 40
6.0
 40
6.0
 40
7.0
 40
7.0
 40
7.0
 40
7.0
 10
176.920456575396
 20
-71.62168382834067
 10
176.8736934639678
 20
-71.55301507335386
 10
176.7958973574975
 20
-71.51149533405413
 10
176.7121199228209
 20
-71.51149533405413
 10
176.7121199228209
 20
-71.51149533405413
 10
174.7991047315622
 20
-71.51149533405413
 10
174.7991047315622
 20
-71.51149533405413
 10
174.694936405276
 20
-71.51149533405413
 10
174.6020704589099
 20
-71.57492071691279
 10
174.5643570193775
 20
-71.6722920793299
 10
174.5643570193775
 20
-71.6722920793299
 10
172.4399756716478
 20
-77.10621223501691
 10
172.4399756716478
 20
-77.10621223501691
 10
172.4399756716478
 20
-77.10621223501691
 10
174.9010203498248
 20
-77.10621223501691
 10
174.9010203498248
 20
-77.10621223501691
 10
174.9010203498248
 20
-77.10621223501691
 10
176.9469064748006
 20
-71.85647038031946
 10
176.9469064748006
 20
-71.85647038031946
 10
176.9778617902547
 20
-71.77871311364251
 10
176.9680353224881
 20
-71.69039142312183
 10
176.920456575396
 20
-71.62168382834067
 97
        0
 72
     1
 10
176.920456575396
 20
-71.62168382834067
 11
176.920456575396
 21
-71.62168382834067
 97
        0
 75
     2
 76
     1
 98
        1
 10
0.0
 20
0.0
450
        0
451
        0
460
0.0
461
0.0
452
        0
462
0.0
453
        0
470

  0
SPLINE
  5
32B
330
31D
100
AcDbEntity
  8
Слой 2
100
AcDbSpline
210
0.0
220
0.0
230
1.0
 70
     9
 71
     3
 72
     8
 73
     4
 74
     0
 42
0.0000000001
 43
0.0000000001
 40
0.0
 40
0.0
 40
0.0
 40
0.0
 40
1.0
 40
1.0
 40
1.0
 40
1.0
 10
184.9632845032836
 20
-73.73985080910315
 30
0.0
 10
181.9405775706551
 20
-79.31347770217057
 30
0.0
 10
179.287780831748
 20
-73.70512803367418
 30
0.0
 10
184.9632845032836
 20
-73.73985080910315
 30
0.0
  0
SPLINE
  5
32C
330
31D
100
AcDbEntity
  8
Слой 2
100
AcDbSpline
210
0.0
220
0.0
230
1.0
 70
     9
 71
     3
 72
    62
 73
    58
 74
     0
 42
0.0000000001
 43
0.0000000001
 40
0.0
 40
0.0
 40
0.0
 40
0.0
 40
1.0
 40
1.0
 40
1.0
 40
2.0
 40
2.0
 40
2.0
 40
3.0
 40
3.0
 40
3.0
 40
4.0
 40
4.0
 40
4.0
 40
5.0
 40
5.0
 40
5.0
 40
6.0
 40
6.0
 40
6.0
 40
7.0
 40
7.0
 40
7.0
 40
8.0
 40
8.0
 40
8.0
 40
9.0
 40
9.0
 40
9.0
 40
10.0
 40
10.0
 40
10.0
 40
11.0
 40
11.0
 40
11.0
 40
12.0
 40
12.0
 40
12.0
 40
13.0
 40
13.0
 40
13.0
 40
14.0
 40
14.0
 40
14.0
 40
15.0
 40
15.0
 40
15.0
 40
16.0
 40
16.0
 40
16.0
 40
17.0
 40
17.0
 40
17.0
 40
18.0
 40
18.0
 40
18.0
 40
19.0
 40
19.0
 40
19.0
 40
19.0
 10
187.4461959852258
 20
-73.13212455950679
 30
0.0
 10
187.3994328737975
 20
-73.06345580451933
 30
0.0
 10
187.3208988112501
 20
-73.02267402129736
 30
0.0
 10
187.2378204928576
 20
-73.02267402129736
 30
0.0
 10
187.2378204928576
 20
-73.02267402129736
 30
0.0
 10
183.8187923068968
 20
-73.02267402129736
 30
0.0
 10
183.8187923068968
 20
-73.02267402129736
 30
0.0
 10
183.2631890602389
 20
-73.03475319708967
 30
0.0
 10
182.8442242072699
 20
-73.06951481231234
 30
0.0
 10
182.5309035927446
 20
-73.12913389540367
 30
0.0
 10
181.5434795214526
 20
-73.35106447571902
 30
0.0
 10
180.9251888480125
 20
-73.73153909328383
 30
0.0
 10
180.4594220438223
 20
-74.41022564568735
 30
0.0
 10
179.9988986117605
 20
-75.20213019627295
 30
0.0
 10
179.9143443812131
 20
-75.93367770769074
 30
0.0
 10
180.2223439440244
 20
-76.46966685861009
 30
0.0
 10
180.4820656434583
 20
-76.92261653092966
 30
0.0
 10
181.0014313627406
 20
-77.18156143449305
 30
0.0
 10
181.6476478477402
 20
-77.18156143449305
 30
0.0
 10
182.1609933990219
 20
-77.18156143449305
 30
0.0
 10
182.7226556534747
 20
-77.01847314139853
 30
0.0
 10
183.2730155280048
 20
-76.70748291448474
 30
0.0
 10
183.4300448133073
 20
-76.61686967614468
 30
0.0
 10
183.6255643340117
 20
-76.46512260276502
 30
0.0
 10
183.8542918781972
 20
-76.25678595019053
 30
0.0
 10
183.8542918781972
 20
-76.25678595019053
 30
0.0
 10
184.2853747467522
 20
-75.86497011290958
 30
0.0
 10
184.2853747467522
 20
-75.86497011290958
 30
0.0
 10
183.6678608691829
 20
-77.35894277161282
 30
0.0
 10
182.855526587192
 20
-77.64659028260621
 30
0.0
 10
181.9903701859805
 20
-77.63602585876151
 30
0.0
 10
181.2233619430566
 20
-77.62697618686572
 30
0.0
 10
180.7024814718264
 20
-77.44881805387513
 30
0.0
 10
180.3831795290942
 20
-77.34084342782058
 30
0.0
 10
180.3831795290942
 20
-77.34084342782058
 30
0.0
 10
180.27971031909
 20
-77.30538269631449
 30
0.0
 10
180.27971031909
 20
-77.30538269631449
 30
0.0
 10
180.27971031909
 20
-77.30538269631449
 30
0.0
 10
179.8645129260959
 20
-78.34640568269718
 30
0.0
 10
179.8645129260959
 20
-78.34640568269718
 30
0.0
 10
179.8645129260959
 20
-78.34640568269718
 30
0.0
 10
179.9996754076319
 20
-78.38866337807371
 30
0.0
 10
179.9996754076319
 20
-78.38866337807371
 30
0.0
 10
180.472239175693
 20
-78.538157743428
 30
0.0
 10
181.3034107575526
 20
-78.63024689392261
 30
0.0
 10
182.1670524068149
 20
-78.63024689392261
 30
0.0
 10
183.2624122643674
 20
-78.63024689392261
 30
0.0
 10
184.1351035855268
 20
-78.47849982054296
 30
0.0
 10
184.7617059747856
 20
-78.17807401747355
 30
0.0
 10
185.5233931659935
 20
-77.8171746558549
 30
0.0
 10
185.8200903488834
 20
-77.60883800328073
 30
0.0
 10
186.0307185492759
 20
-77.04566099687963
 30
0.0
 10
186.0307185492759
 20
-77.04566099687963
 30
0.0
 10
187.4726458846291
 20
-73.36691111148526
 30
0.0
 10
187.4726458846291
 20
-73.36691111148526
 30
0.0
 10
187.5028244042136
 20
-73.28915384480831
 30
0.0
 10
187.4929979364477
 20
-73.20160895015844
 30
0.0
 10
187.4461959852258
 20
-73.13212455950679
 30
0.0
  0
HATCH
  5
32D
330
31D
100
AcDbEntity
  8
Слой 2
 62
   254
420
 13421772
440
 33554687
100
AcDbHatch
 10
0.0
 20
0.0
 30
0.0
210
0.0
220
0.0
230
1.0
  2
SOLID
 70
     1
 71
     1
 91
        2
 92
        1
 93
        2
 72
     4
 94
        3
 73
     0
 74
     0
 95
        8
 96
        4
 40
0.0
 40
0.0
 40
0.0
 40
0.0
 40
1.0
 40
1.0
 40
1.0
 40
1.0
 10
184.9632845032836
 20
-73.73985080910315
 10
181.9405775706551
 20
-79.31347770217057
 10
179.287780831748
 20
-73.70512803367418
 10
184.9632845032836
 20
-73.73985080910315
 97
        0
 72
     1
 10
184.9632845032836
 20
-73.73985080910316
 11
184.9632845032836
 21
-73.73985080910315
 97
        0
 92
        1
 93
        2
 72
     4
 94
        3
 73
     0
 74
     0
 95
       62
 96
       58
 40
0.0
 40
0.0
 40
0.0
 40
0.0
 40
1.0
 40
1.0
 40
1.0
 40
2.0
 40
2.0
 40
2.0
 40
3.0
 40
3.0
 40
3.0
 40
4.0
 40
4.0
 40
4.0
 40
5.0
 40
5.0
 40
5.0
 40
6.0
 40
6.0
 40
6.0
 40
7.0
 40
7.0
 40
7.0
 40
8.0
 40
8.0
 40
8.0
 40
9.0
 40
9.0
 40
9.0
 40
10.0
 40
10.0
 40
10.0
 40
11.0
 40
11.0
 40
11.0
 40
12.0
 40
12.0
 40
12.0
 40
13.0
 40
13.0
 40
13.0
 40
14.0
 40
14.0
 40
14.0
 40
15.0
 40
15.0
 40
15.0
 40
16.0
 40
16.0
 40
16.0
 40
17.0
 40
17.0
 40
17.0
 40
18.0
 40
18.0
 40
18.0
 40
19.0
 40
19.0
 40
19.0
 40
19.0
 10
187.4461959852258
 20
-73.13212455950679
 10
187.3994328737975
 20
-73.06345580451933
 10
187.3208988112501
 20
-73.02267402129736
 10
187.2378204928576
 20
-73.02267402129736
 10
187.2378204928576
 20
-73.02267402129736
 10
183.8187923068968
 20
-73.02267402129736
 10
183.8187923068968
 20
-73.02267402129736
 10
183.2631890602389
 20
-73.03475319708967
 10
182.8442242072699
 20
-73.06951481231234
 10
182.5309035927446
 20
-73.12913389540367
 10
181.5434795214526
 20
-73.35106447571902
 10
180.9251888480125
 20
-73.73153909328383
 10
180.4594220438223
 20
-74.41022564568735
 10
179.9988986117605
 20
-75.20213019627295
 10
179.9143443812131
 20
-75.93367770769074
 10
180.2223439440244
 20
-76.46966685861009
 10
180.4820656434583
 20
-76.92261653092966
 10
181.0014313627406
 20
-77.18156143449305
 10
181.6476478477402
 20
-77.18156143449305
 10
182.1609933990219
 20
-77.18156143449305
 10
182.7226556534747
 20
-77.01847314139853
 10
183.2730155280048
 20
-76.70748291448474
 10
183.4300448133073
 20
-76.61686967614468
 10
183.6255643340117
 20
-76.46512260276502
 10
183.8542918781972
 20
-76.25678595019053
 10
183.8542918781972
 20
-76.25678595019053
 10
184.2853747467522
 20
-75.86497011290958
 10
184.2853747467522
 20
-75.86497011290958
 10
183.6678608691829
 20
-77.35894277161282
 10
182.855526587192
 20
-77.64659028260621
 10
181.9903701859805
 20
-77.63602585876151
 10
181.2233619430566
 20
-77.62697618686572
 10
180.7024814718264
 20
-77.44881805387513
 10
180.3831795290942
 20
-77.34084342782058
 10
180.3831795290942
 20
-77.34084342782058
 10
180.27971031909
 20
-77.30538269631449
 10
180.27971031909
 20
-77.30538269631449
 10
180.27971031909
 20
-77.30538269631449
 10
179.8645129260959
 20
-78.34640568269718
 10
179.8645129260959
 20
-78.34640568269718
 10
179.8645129260959
 20
-78.34640568269718
 10
179.9996754076319
 20
-78.38866337807371
 10
179.9996754076319
 20
-78.38866337807371
 10
180.472239175693
 20
-78.538157743428
 10
181.3034107575526
 20
-78.63024689392261
 10
182.1670524068149
 20
-78.63024689392261
 10
183.2624122643674
 20
-78.63024689392261
 10
184.1351035855268
 20
-78.47849982054296
 10
184.7617059747856
 20
-78.17807401747355
 10
185.5233931659935
 20
-77.8171746558549
 10
185.8200903488834
 20
-77.60883800328073
 10
186.0307185492759
 20
-77.04566099687963
 10
186.0307185492759
 20
-77.04566099687963
 10
187.4726458846291
 20
-73.36691111148526
 10
187.4726458846291
 20
-73.36691111148526
 10
187.5028244042136
 20
-73.28915384480831
 10
187.4929979364477
 20
-73.20160895015844
 10
187.4461959852258
 20
-73.13212455950679
 97
        0
 72
     1
 10
187.4461959852258
 20
-73.13212455950679
 11
187.4461959852258
 21
-73.13212455950679
 97
        0
 75
     2
 76
     1
 98
        1
 10
0.0
 20
0.0
450
        0
451
        0
460
0.0
461
0.0
452
        0
462
0.0
453
        0
470

  0
SPLINE
  5
32E
330
31D
100
AcDbEntity
  8
Слой 2
100
AcDbSpline
210
0.0
220
0.0
230
1.0
 70
     9
 71
     3
 72
     8
 73
     4
 74
     0
 42
0.0000000001
 43
0.0000000001
 40
0.0
 40
0.0
 40
0.0
 40
0.0
 40
1.0
 40
1.0
 40
1.0
 40
1.0
 10
164.4394831187245
 20
-73.73985080910315
 30
0.0
 10
161.4167373463029
 20
-79.31347770217057
 30
0.0
 10
158.7639406073952
 20
-73.70512803367418
 30
0.0
 10
164.4394831187245
 20
-73.73985080910315
 30
0.0
  0
SPLINE
  5
32F
330
31D
100
AcDbEntity
  8
Слой 2
100
AcDbSpline
210
0.0
220
0.0
230
1.0
 70
     9
 71
     3
 72
    44
 73
    40
 74
     0
 42
0.0000000001
 43
0.0000000001
 40
0.0
 40
0.0
 40
0.0
 40
0.0
 40
1.0
 40
1.0
 40
1.0
 40
2.0
 40
2.0
 40
2.0
 40
3.0
 40
3.0
 40
3.0
 40
4.0
 40
4.0
 40
4.0
 40
5.0
 40
5.0
 40
5.0
 40
6.0
 40
6.0
 40
6.0
 40
7.0
 40
7.0
 40
7.0
 40
8.0
 40
8.0
 40
8.0
 40
9.0
 40
9.0
 40
9.0
 40
10.0
 40
10.0
 40
10.0
 40
11.0
 40
11.0
 40
11.0
 40
12.0
 40
12.0
 40
12.0
 40
13.0
 40
13.0
 40
13.0
 40
13.0
 10
166.9850431876551
 20
-73.13212455950679
 30
0.0
 10
166.9382800762269
 20
-73.06345580451933
 30
0.0
 10
166.8604839697566
 20
-73.02267402129736
 30
0.0
 10
166.7766676952863
 20
-73.02267402129736
 30
0.0
 10
166.7766676952863
 20
-73.02267402129736
 30
0.0
 10
163.3598922173518
 20
-73.02267402129736
 30
0.0
 10
163.3598922173518
 20
-73.02267402129736
 30
0.0
 10
162.8050269267697
 20
-73.03475319708967
 30
0.0
 10
162.3845473218534
 20
-73.06951481231234
 30
0.0
 10
162.0720035031983
 20
-73.12913389540367
 30
0.0
 10
161.084579431907
 20
-73.35032651964191
 30
0.0
 10
160.4662887584669
 20
-73.73080113720767
 30
0.0
 10
160.0005219542766
 20
-74.41022564568735
 30
0.0
 10
159.5399596824218
 20
-75.20213019627295
 30
0.0
 10
159.4554442916681
 20
-75.93367770769074
 30
0.0
 10
159.7627058984017
 20
-76.46966685861009
 30
0.0
 10
160.0231267141203
 20
-76.9218785748519
 30
0.0
 10
160.542531273195
 20
-77.18156143449305
 30
0.0
 10
161.1887477581952
 20
-77.18156143449305
 30
0.0
 10
161.7020933094763
 20
-77.18156143449305
 30
0.0
 10
162.2629787680577
 20
-77.01773518532046
 30
0.0
 10
162.8141154384598
 20
-76.70748291448474
 30
0.0
 10
162.9703679278902
 20
-76.61686967614468
 30
0.0
 10
163.1666254046724
 20
-76.46512260276502
 30
0.0
 10
163.3953529488579
 20
-76.25678595019053
 30
0.0
 10
163.3953529488579
 20
-76.25678595019053
 30
0.0
 10
163.7162473231267
 20
-75.96537097922321
 30
0.0
 10
163.7162473231267
 20
-75.96537097922321
 30
0.0
 10
163.7162473231267
 20
-75.96537097922321
 30
0.0
 10
163.143243848958
 20
-77.12415621963434
 30
0.0
 10
163.143243848958
 20
-77.12415621963434
 30
0.0
 10
163.143243848958
 20
-77.12415621963434
 30
0.0
 10
165.5582633717845
 20
-77.12415621963434
 30
0.0
 10
165.5582633717845
 20
-77.12415621963434
 30
0.0
 10
165.5582633717845
 20
-77.12415621963434
 30
0.0
 10
167.0122310431356
 20
-73.36691111148526
 30
0.0
 10
167.0122310431356
 20
-73.36691111148526
 30
0.0
 10
167.0424484025138
 20
-73.28915384480831
 30
0.0
 10
167.0326219347465
 20
-73.20160895015844
 30
0.0
 10
166.9850431876551
 20
-73.13212455950679
 30
0.0
  0
HATCH
  5
330
330
31D
100
AcDbEntity
  8
Слой 2
 62
   254
420
 13421772
440
 33554687
100
AcDbHatch
 10
0.0
 20
0.0
 30
0.0
210
0.0
220
0.0
230
1.0
  2
SOLID
 70
     1
 71
     1
 91
        2
 92
        1
 93
        2
 72
     4
 94
        3
 73
     0
 74
     0
 95
        8
 96
        4
 40
0.0
 40
0.0
 40
0.0
 40
0.0
 40
1.0
 40
1.0
 40
1.0
 40
1.0
 10
164.4394831187245
 20
-73.73985080910315
 10
161.4167373463029
 20
-79.31347770217057
 10
158.7639406073952
 20
-73.70512803367418
 10
164.4394831187245
 20
-73.73985080910315
 97
        0
 72
     1
 10
164.4394831187245
 20
-73.73985080910316
 11
164.4394831187245
 21
-73.73985080910315
 97
        0
 92
        1
 93
        2
 72
     4
 94
        3
 73
     0
 74
     0
 95
       44
 96
       40
 40
0.0
 40
0.0
 40
0.0
 40
0.0
 40
1.0
 40
1.0
 40
1.0
 40
2.0
 40
2.0
 40
2.0
 40
3.0
 40
3.0
 40
3.0
 40
4.0
 40
4.0
 40
4.0
 40
5.0
 40
5.0
 40
5.0
 40
6.0
 40
6.0
 40
6.0
 40
7.0
 40
7.0
 40
7.0
 40
8.0
 40
8.0
 40
8.0
 40
9.0
 40
9.0
 40
9.0
 40
10.0
 40
10.0
 40
10.0
 40
11.0
 40
11.0
 40
11.0
 40
12.0
 40
12.0
 40
12.0
 40
13.0
 40
13.0
 40
13.0
 40
13.0
 10
166.9850431876551
 20
-73.13212455950679
 10
166.9382800762269
 20
-73.06345580451933
 10
166.8604839697566
 20
-73.02267402129736
 10
166.7766676952863
 20
-73.02267402129736
 10
166.7766676952863
 20
-73.02267402129736
 10
163.3598922173518
 20
-73.02267402129736
 10
163.3598922173518
 20
-73.02267402129736
 10
162.8050269267697
 20
-73.03475319708967
 10
162.3845473218534
 20
-73.06951481231234
 10
162.0720035031983
 20
-73.12913389540367
 10
161.084579431907
 20
-73.35032651964191
 10
160.4662887584669
 20
-73.73080113720767
 10
160.0005219542766
 20
-74.41022564568735
 10
159.5399596824218
 20
-75.20213019627295
 10
159.4554442916681
 20
-75.93367770769074
 10
159.7627058984017
 20
-76.46966685861009
 10
160.0231267141203
 20
-76.9218785748519
 10
160.542531273195
 20
-77.18156143449305
 10
161.1887477581952
 20
-77.18156143449305
 10
161.7020933094763
 20
-77.18156143449305
 10
162.2629787680577
 20
-77.01773518532046
 10
162.8141154384598
 20
-76.70748291448474
 10
162.9703679278902
 20
-76.61686967614468
 10
163.1666254046724
 20
-76.46512260276502
 10
163.3953529488579
 20
-76.25678595019053
 10
163.3953529488579
 20
-76.25678595019053
 10
163.7162473231267
 20
-75.96537097922321
 10
163.7162473231267
 20
-75.96537097922321
 10
163.7162473231267
 20
-75.96537097922321
 10
163.143243848958
 20
-77.12415621963434
 10
163.143243848958
 20
-77.12415621963434
 10
163.143243848958
 20
-77.12415621963434
 10
165.5582633717845
 20
-77.12415621963434
 10
165.5582633717845
 20
-77.12415621963434
 10
165.5582633717845
 20
-77.12415621963434
 10
167.0122310431356
 20
-73.36691111148526
 10
167.0122310431356
 20
-73.36691111148526
 10
167.0424484025138
 20
-73.28915384480831
 10
167.0326219347465
 20
-73.20160895015844
 10
166.9850431876551
 20
-73.13212455950679
 97
        0
 72
     1
 10
166.9850431876551
 20
-73.13212455950679
 11
166.9850431876551
 21
-73.13212455950679
 97
        0
 75
     2
 76
     1
 98
        1
 10
0.0
 20
0.0
450
        0
451
        0
460
0.0
461
0.0
452
        0
462
0.0
453
        0
470

  0
SPLINE
  5
331
330
31D
100
AcDbEntity
  8
Слой 2
100
AcDbSpline
210
0.0
220
0.0
230
1.0
 70
    11
 71
     3
 72
    62
 73
    58
 74
     0
 42
0.0000000001
 43
0.0000000001
 40
0.0
 40
0.0
 40
0.0
 40
0.0
 40
1.0
 40
1.0
 40
1.0
 40
2.0
 40
2.0
 40
2.0
 40
3.0
 40
3.0
 40
3.0
 40
4.0
 40
4.0
 40
4.0
 40
5.0
 40
5.0
 40
5.0
 40
6.0
 40
6.0
 40
6.0
 40
7.0
 40
7.0
 40
7.0
 40
8.0
 40
8.0
 40
8.0
 40
9.0
 40
9.0
 40
9.0
 40
10.0
 40
10.0
 40
10.0
 40
11.0
 40
11.0
 40
11.0
 40
12.0
 40
12.0
 40
12.0
 40
13.0
 40
13.0
 40
13.0
 40
14.0
 40
14.0
 40
14.0
 40
15.0
 40
15.0
 40
15.0
 40
16.0
 40
16.0
 40
16.0
 40
17.0
 40
17.0
 40
17.0
 40
18.0
 40
18.0
 40
18.0
 40
19.0
 40
19.0
 40
19.0
 40
19.0
 10
199.834148136357
 20
-71.54951949193455
 30
0.0
 10
199.834148136357
 20
-71.54951949193455
 30
0.0
 10
198.9780414070407
 20
-71.54951949193455
 30
0.0
 10
198.9780414070407
 20
-71.54951949193455
 30
0.0
 10
198.7712195064142
 20
-71.54951949193455
 30
0.0
 10
198.2065277480661
 20
-71.74356310048508
 30
0.0
 10
197.2817134239696
 20
-72.13157263799773
 30
0.0
 10
196.3576758957439
 20
-72.52109692745929
 30
0.0
 10
195.808869612956
 20
-72.81779411034817
 30
0.0
 10
195.6382463999127
 20
-73.02314009881985
 30
0.0
 10
195.6382463999127
 20
-73.02314009881985
 30
0.0
 10
195.0720398896148
 20
-73.74183163857421
 30
0.0
 10
195.0720398896148
 20
-73.74183163857421
 30
0.0
 10
195.0720398896148
 20
-73.74183163857421
 30
0.0
 10
196.3403145080294
 20
-73.74183163857421
 30
0.0
 10
196.3403145080294
 20
-73.74183163857421
 30
0.0
 10
196.3403145080294
 20
-73.74183163857421
 30
0.0
 10
195.6035624642768
 20
-75.55817458369915
 30
0.0
 10
195.6035624642768
 20
-75.55817458369915
 30
0.0
 10
195.5469340452889
 20
-75.7295357528193
 30
0.0
 10
195.5174934817815
 20
-75.87825332230181
 30
0.0
 10
195.5174934817815
 20
-76.00358933607182
 30
0.0
 10
195.5174934817815
 20
-76.30028651896068
 30
0.0
 10
195.6428294955508
 20
-76.54031644306797
 30
0.0
 10
195.8941617995792
 20
-76.72228087582553
 30
0.0
 10
196.2482641973278
 20
-76.97438997572511
 30
0.0
 10
196.8129171158828
 20
-77.09972598949383
 30
0.0
 10
197.5904897826517
 20
-77.09972598949383
 30
0.0
 10
198.4118348967441
 20
-77.09972598949383
 30
0.0
 10
199.0225906502369
 20
-76.96231079993281
 30
0.0
 10
199.423456159413
 20
-76.68903401255112
 30
0.0
 10
199.5487533333894
 20
-76.59768281813424
 30
0.0
 10
199.6680303393651
 20
-76.45424746057232
 30
0.0
 10
199.7827630894964
 20
-76.25950473573839
 30
0.0
 10
199.7827630894964
 20
-76.25950473573839
 30
0.0
 10
199.7827630894964
 20
-76.05415874726702
 30
0.0
 10
199.7827630894964
 20
-76.05415874726702
 30
0.0
 10
199.7827630894964
 20
-76.05415874726702
 30
0.0
 10
198.49790387924
 20
-76.05415874726702
 30
0.0
 10
198.49790387924
 20
-76.05415874726702
 30
0.0
 10
198.0743947704266
 20
-76.05415874726702
 30
0.0
 10
198.2404737276236
 20
-75.56042729172452
 30
0.0
 10
198.3272806661967
 20
-75.23203683730255
 30
0.0
 10
198.3272806661967
 20
-75.23203683730255
 30
0.0
 10
198.9432797918193
 20
-73.74183163857421
 30
0.0
 10
198.9432797918193
 20
-73.74183163857421
 30
0.0
 10
198.9432797918193
 20
-73.74183163857421
 30
0.0
 10
200.2968854366509
 20
-73.74183163857421
 30
0.0
 10
200.2968854366509
 20
-73.74183163857421
 30
0.0
 10
200.2968854366509
 20
-73.74183163857421
 30
0.0
 10
200.5883004076166
 20
-73.02314009881985
 30
0.0
 10
200.5883004076166
 20
-73.02314009881985
 30
0.0
 10
200.5883004076166
 20
-73.02314009881985
 30
0.0
 10
199.2165954189941
 20
-73.02314009881985
 30
0.0
 10
199.2165954189941
 20
-73.02314009881985
 30
0.0
 10
199.2165954189941
 20
-73.02314009881985
 30
0.0
 10
199.834148136357
 20
-71.54951949193455
 30
0.0
 10
199.834148136357
 20
-71.54951949193455
 30
0.0
  0
HATCH
  5
332
330
31D
100
AcDbEntity
  8
Слой 2
 62
   254
420
 13421772
440
 33554687
100
AcDbHatch
 10
0.0
 20
0.0
 30
0.0
210
0.0
220
0.0
230
1.0
  2
SOLID
 70
     1
 71
     1
 91
        1
 92
        1
 93
        1
 72
     4
 94
        3
 73
     0
 74
     0
 95
       62
 96
       58
 40
0.0
 40
0.0
 40
0.0
 40
0.0
 40
1.0
 40
1.0
 40
1.0
 40
2.0
 40
2.0
 40
2.0
 40
3.0
 40
3.0
 40
3.0
 40
4.0
 40
4.0
 40
4.0
 40
5.0
 40
5.0
 40
5.0
 40
6.0
 40
6.0
 40
6.0
 40
7.0
 40
7.0
 40
7.0
 40
8.0
 40
8.0
 40
8.0
 40
9.0
 40
9.0
 40
9.0
 40
10.0
 40
10.0
 40
10.0
 40
11.0
 40
11.0
 40
11.0
 40
12.0
 40
12.0
 40
12.0
 40
13.0
 40
13.0
 40
13.0
 40
14.0
 40
14.0
 40
14.0
 40
15.0
 40
15.0
 40
15.0
 40
16.0
 40
16.0
 40
16.0
 40
17.0
 40
17.0
 40
17.0
 40
18.0
 40
18.0
 40
18.0
 40
19.0
 40
19.0
 40
19.0
 40
19.0
 10
199.834148136357
 20
-71.54951949193455
 10
199.834148136357
 20
-71.54951949193455
 10
198.9780414070407
 20
-71.54951949193455
 10
198.9780414070407
 20
-71.54951949193455
 10
198.7712195064142
 20
-71.54951949193455
 10
198.2065277480661
 20
-71.74356310048508
 10
197.2817134239696
 20
-72.13157263799773
 10
196.3576758957439
 20
-72.52109692745929
 10
195.808869612956
 20
-72.81779411034817
 10
195.6382463999127
 20
-73.02314009881985
 10
195.6382463999127
 20
-73.02314009881985
 10
195.0720398896148
 20
-73.74183163857421
 10
195.0720398896148
 20
-73.74183163857421
 10
195.0720398896148
 20
-73.74183163857421
 10
196.3403145080294
 20
-73.74183163857421
 10
196.3403145080294
 20
-73.74183163857421
 10
196.3403145080294
 20
-73.74183163857421
 10
195.6035624642768
 20
-75.55817458369915
 10
195.6035624642768
 20
-75.55817458369915
 10
195.5469340452889
 20
-75.7295357528193
 10
195.5174934817815
 20
-75.87825332230181
 10
195.5174934817815
 20
-76.00358933607182
 10
195.5174934817815
 20
-76.30028651896068
 10
195.6428294955508
 20
-76.54031644306797
 10
195.8941617995792
 20
-76.72228087582553
 10
196.2482641973278
 20
-76.97438997572511
 10
196.8129171158828
 20
-77.09972598949383
 10
197.5904897826517
 20
-77.09972598949383
 10
198.4118348967441
 20
-77.09972598949383
 10
199.0225906502369
 20
-76.96231079993281
 10
199.423456159413
 20
-76.68903401255112
 10
199.5487533333894
 20
-76.59768281813424
 10
199.6680303393651
 20
-76.45424746057232
 10
199.7827630894964
 20
-76.25950473573839
 10
199.7827630894964
 20
-76.25950473573839
 10
199.7827630894964
 20
-76.05415874726702
 10
199.7827630894964
 20
-76.05415874726702
 10
199.7827630894964
 20
-76.05415874726702
 10
198.49790387924
 20
-76.05415874726702
 10
198.49790387924
 20
-76.05415874726702
 10
198.0743947704266
 20
-76.05415874726702
 10
198.2404737276236
 20
-75.56042729172452
 10
198.3272806661967
 20
-75.23203683730255
 10
198.3272806661967
 20
-75.23203683730255
 10
198.9432797918193
 20
-73.74183163857421
 10
198.9432797918193
 20
-73.74183163857421
 10
198.9432797918193
 20
-73.74183163857421
 10
200.2968854366509
 20
-73.74183163857421
 10
200.2968854366509
 20
-73.74183163857421
 10
200.2968854366509
 20
-73.74183163857421
 10
200.5883004076166
 20
-73.02314009881985
 10
200.5883004076166
 20
-73.02314009881985
 10
200.5883004076166
 20
-73.02314009881985
 10
199.2165954189941
 20
-73.02314009881985
 10
199.2165954189941
 20
-73.02314009881985
 10
199.2165954189941
 20
-73.02314009881985
 10
199.834148136357
 20
-71.54951949193455
 10
199.834148136357
 20
-71.54951949193455
 97
        0
 97
        1
330
331
 75
     2
 76
     1
 98
        1
 10
0.0
 20
0.0
450
        0
451
        0
460
0.0
461
0.0
452
        0
462
0.0
453
        0
470

  0
SPLINE
  5
333
330
31D
100
AcDbEntity
  8
Слой 2
100
AcDbSpline
210
0.0
220
0.0
230
1.0
 70
     9
 71
     3
 72
    29
 73
    25
 74
     0
 42
0.0000000001
 43
0.0000000001
 40
0.0
 40
0.0
 40
0.0
 40
0.0
 40
1.0
 40
1.0
 40
1.0
 40
2.0
 40
2.0
 40
2.0
 40
3.0
 40
3.0
 40
3.0
 40
4.0
 40
4.0
 40
4.0
 40
5.0
 40
5.0
 40
5.0
 40
6.0
 40
6.0
 40
6.0
 40
7.0
 40
7.0
 40
7.0
 40
8.0
 40
8.0
 40
8.0
 40
8.0
 10
177.0364321989206
 20
-55.42921854031685
 30
0.0
 10
181.261696819285
 20
-52.78244196940968
 30
0.0
 10
186.8322553686629
 20
-54.06279576361528
 30
0.0
 10
189.4790707793637
 20
-58.28809922377274
 30
0.0
 10
189.8051308461723
 20
-58.80975649087378
 30
0.0
 10
190.0716495094776
 20
-59.35102785371563
 30
0.0
 10
190.2800250018458
 20
-59.90437839234883
 30
0.0
 10
190.0482679537632
 20
-59.01055822350103
 30
0.0
 10
189.6776198039647
 20
-58.13639099018711
 30
0.0
 10
189.1612059089927
 20
-57.31197753240356
 30
0.0
 10
186.4419931231236
 20
-52.96964977429574
 30
0.0
 10
180.7173959525473
 20
-51.65457320466021
 30
0.0
 10
176.3750681944392
 20
-54.37382483032245
 30
0.0
 10
172.0335172322019
 20
-57.09307645598471
 30
0.0
 10
170.7176638666958
 20
-62.81763478676758
 30
0.0
 10
173.4369543321518
 20
-67.15996254487571
 30
0.0
 10
173.9532905475369
 20
-67.98433716286524
 30
0.0
 10
174.5783781848478
 20
-68.69926124264599
 30
0.0
 10
175.281961044913
 20
-69.2978989805522
 30
0.0
 10
174.8742985718655
 20
-68.86833086394642
 30
0.0
 10
174.5036115822733
 20
-68.39277643178355
 30
0.0
 10
174.1767358798002
 20
-67.87185712075899
 30
0.0
 10
171.5307361047632
 20
-63.64655366060153
 30
0.0
 10
172.8110898989695
 20
-58.07595627143158
 30
0.0
 10
177.0364321989206
 20
-55.42921854031685
 30
0.0
  0
HATCH
  5
334
330
31D
100
AcDbEntity
  8
Слой 2
 62
   254
420
 13421772
440
 33554687
100
AcDbHatch
 10
0.0
 20
0.0
 30
0.0
210
0.0
220
0.0
230
1.0
  2
SOLID
 70
     1
 71
     1
 91
        1
 92
        1
 93
        2
 72
     4
 94
        3
 73
     0
 74
     0
 95
       29
 96
       25
 40
0.0
 40
0.0
 40
0.0
 40
0.0
 40
1.0
 40
1.0
 40
1.0
 40
2.0
 40
2.0
 40
2.0
 40
3.0
 40
3.0
 40
3.0
 40
4.0
 40
4.0
 40
4.0
 40
5.0
 40
5.0
 40
5.0
 40
6.0
 40
6.0
 40
6.0
 40
7.0
 40
7.0
 40
7.0
 40
8.0
 40
8.0
 40
8.0
 40
8.0
 10
177.0364321989206
 20
-55.42921854031685
 10
181.261696819285
 20
-52.78244196940968
 10
186.8322553686629
 20
-54.06279576361528
 10
189.4790707793637
 20
-58.28809922377274
 10
189.8051308461723
 20
-58.80975649087378
 10
190.0716495094776
 20
-59.35102785371563
 10
190.2800250018458
 20
-59.90437839234883
 10
190.0482679537632
 20
-59.01055822350103
 10
189.6776198039647
 20
-58.13639099018711
 10
189.1612059089927
 20
-57.31197753240356
 10
186.4419931231236
 20
-52.96964977429574
 10
180.7173959525473
 20
-51.65457320466021
 10
176.3750681944392
 20
-54.37382483032245
 10
172.0335172322019
 20
-57.09307645598471
 10
170.7176638666958
 20
-62.81763478676758
 10
173.4369543321518
 20
-67.15996254487571
 10
173.9532905475369
 20
-67.98433716286524
 10
174.5783781848478
 20
-68.69926124264599
 10
175.281961044913
 20
-69.2978989805522
 10
174.8742985718655
 20
-68.86833086394642
 10
174.5036115822733
 20
-68.39277643178355
 10
174.1767358798002
 20
-67.87185712075899
 10
171.5307361047632
 20
-63.64655366060153
 10
172.8110898989695
 20
-58.07595627143158
 10
177.0364321989206
 20
-55.42921854031685
 97
        0
 72
     1
 10
177.0364321989206
 20
-55.42921854031685
 11
177.0364321989206
 21
-55.42921854031685
 97
        0
 75
     2
 76
     1
 98
        1
 10
0.0
 20
0.0
450
        0
451
        0
460
0.0
461
0.0
452
        0
462
0.0
453
        0
470

  0
SPLINE
  5
335
330
31D
100
AcDbEntity
  8
Слой 2
100
AcDbSpline
210
0.0
220
0.0
230
1.0
 70
     9
 71
     3
 72
    17
 73
    13
 74
     0
 42
0.0000000001
 43
0.0000000001
 40
0.0
 40
0.0
 40
0.0
 40
0.0
 40
1.0
 40
1.0
 40
1.0
 40
2.0
 40
2.0
 40
2.0
 40
3.0
 40
3.0
 40
3.0
 40
4.0
 40
4.0
 40
4.0
 40
4.0
 10
175.5254865504389
 20
-60.85020504475269
 30
0.0
 10
177.3591520434844
 20
-60.13683455671454
 30
0.0
 10
179.7885034501288
 20
-59.6815933365759
 30
0.0
 10
182.9176702568636
 20
-59.70124627210881
 30
0.0
 10
180.7094726346644
 20
-63.77328790693901
 30
0.0
 10
178.5549127673495
 20
-66.19809505773776
 30
0.0
 10
176.6918067107973
 20
-67.47541934804717
 30
0.0
 10
179.2140240638066
 20
-67.4142855130076
 30
0.0
 10
183.0195470353312
 20
-64.91622651158358
 30
0.0
 10
186.9836917236936
 20
-57.60556753180948
 30
0.0
 10
181.1299910793743
 20
-57.57010680030275
 30
0.0
 10
177.4920229772023
 20
-59.03689160352424
 30
0.0
 10
175.5254865504389
 20
-60.85020504475269
 30
0.0
  0
HATCH
  5
336
330
31D
100
AcDbEntity
  8
Слой 2
 62
   254
420
 13421772
440
 33554687
100
AcDbHatch
 10
0.0
 20
0.0
 30
0.0
210
0.0
220
0.0
230
1.0
  2
SOLID
 70
     1
 71
     1
 91
        1
 92
        1
 93
        2
 72
     4
 94
        3
 73
     0
 74
     0
 95
       17
 96
       13
 40
0.0
 40
0.0
 40
0.0
 40
0.0
 40
1.0
 40
1.0
 40
1.0
 40
2.0
 40
2.0
 40
2.0
 40
3.0
 40
3.0
 40
3.0
 40
4.0
 40
4.0
 40
4.0
 40
4.0
 10
175.5254865504389
 20
-60.85020504475269
 10
177.3591520434844
 20
-60.13683455671454
 10
179.7885034501288
 20
-59.6815933365759
 10
182.9176702568636
 20
-59.70124627210881
 10
180.7094726346644
 20
-63.77328790693901
 10
178.5549127673495
 20
-66.19809505773776
 10
176.6918067107973
 20
-67.47541934804717
 10
179.2140240638066
 20
-67.4142855130076
 10
183.0195470353312
 20
-64.91622651158358
 10
186.9836917236936
 20
-57.60556753180948
 10
181.1299910793743
 20
-57.57010680030275
 10
177.4920229772023
 20
-59.03689160352424
 10
175.5254865504389
 20
-60.85020504475269
 97
        0
 72
     1
 10
175.525486550439
 20
-60.85020504475269
 11
175.5254865504389
 21
-60.85020504475269
 97
        0
 75
     2
 76
     1
 98
        1
 10
0.0
 20
0.0
450
        0
451
        0
460
0.0
461
0.0
452
        0
462
0.0
453
        0
470

  0
SPLINE
  5
337
330
31D
100
AcDbEntity
  8
Слой 2
100
AcDbSpline
210
0.0
220
0.0
230
1.0
 70
     9
 71
     3
 72
    14
 73
    10
 74
     0
 42
0.0000000001
 43
0.0000000001
 40
0.0
 40
0.0
 40
0.0
 40
0.0
 40
1.0
 40
1.0
 40
1.0
 40
2.0
 40
2.0
 40
2.0
 40
3.0
 40
3.0
 40
3.0
 40
3.0
 10
176.6831454368366
 20
-67.47557470722101
 30
0.0
 10
176.6831454368366
 20
-67.47557470722101
 30
0.0
 10
176.6816306848887
 20
-67.47635150309183
 30
0.0
 10
176.6808538890172
 20
-67.47708945916959
 30
0.0
 10
176.6876508528886
 20
-67.47635150309183
 30
0.0
 10
176.693709860681
 20
-67.47557470722101
 30
0.0
 10
176.6997300286796
 20
-67.47557470722101
 30
0.0
 10
176.6944478167581
 20
-67.47557470722101
 30
0.0
 10
176.6892044446302
 20
-67.47557470722101
 30
0.0
 10
176.6831454368366
 20
-67.47557470722101
 30
0.0
  0
HATCH
  5
338
330
31D
100
AcDbEntity
  8
Слой 2
 62
   254
420
 13421772
440
 33554687
100
AcDbHatch
 10
0.0
 20
0.0
 30
0.0
210
0.0
220
0.0
230
1.0
  2
SOLID
 70
     1
 71
     1
 91
        1
 92
        1
 93
        2
 72
     4
 94
        3
 73
     0
 74
     0
 95
       14
 96
       10
 40
0.0
 40
0.0
 40
0.0
 40
0.0
 40
1.0
 40
1.0
 40
1.0
 40
2.0
 40
2.0
 40
2.0
 40
3.0
 40
3.0
 40
3.0
 40
3.0
 10
176.6831454368366
 20
-67.47557470722101
 10
176.6831454368366
 20
-67.47557470722101
 10
176.6816306848887
 20
-67.47635150309183
 10
176.6808538890172
 20
-67.47708945916959
 10
176.6876508528886
 20
-67.47635150309183
 10
176.693709860681
 20
-67.47557470722101
 10
176.6997300286796
 20
-67.47557470722101
 10
176.6944478167581
 20
-67.47557470722101
 10
176.6892044446302
 20
-67.47557470722101
 10
176.6831454368366
 20
-67.47557470722101
 97
        0
 72
     1
 10
176.6831454368366
 20
-67.47557470722101
 11
176.6831454368366
 21
-67.47557470722101
 97
        0
 75
     2
 76
     1
 98
        1
 10
0.0
 20
0.0
450
        0
451
        0
460
0.0
461
0.0
452
        0
462
0.0
453
        0
470

  0
ENDBLK
  5
320
330
31D
100
AcDbEntity
  8
0
100
AcDbBlockEnd
  0
BLOCK
  5
33E
330
33C
100
AcDbEntity
  8
0
100
AcDbBlockBegin
  2
Block_5
 70
     0
 10
0.0
 20
0.0
 30
0.0
  3
Block_5
  1

  0
MTEXT
  5
340
330
33C
100
AcDbEntity
  8
Слой 2
100
AcDbMText
 10
30.10843352518774
 20
-238.7610937581266
 30
0.0
 40
0.2
 41
0.0
 46
0.0
 71
     7
 72
     1
  1
\C250;\c3882044;\FDINPro-Light|b0|i0|c1;\H5.951021;\W1.000000;IP
 73
     1
 44
1.0
  0
MTEXT
  5
341
330
33C
100
AcDbEntity
  8
Слой 2
100
AcDbMText
 10
37.78892940000373
 20
-238.7610937581266
 30
0.0
 40
0.2
 41
0.0
 46
0.0
 71
     7
 72
     1
  1
\C250;\c3882044;\FDINPro-Medium|b0|i0|c1;\H5.951021;\W1.000000;20
 73
     1
 44
1.0
  0
INSERT
  5
343
330
33C
100
AcDbEntity
  8
Слой 2
100
AcDbBlockReference
  2
Block_6
 10
0.0
 20
0.0
 30
0.0
  0
ENDBLK
  5
33F
330
33C
100
AcDbEntity
  8
0
100
AcDbBlockEnd
  0
BLOCK
  5
344
330
342
100
AcDbEntity
  8
0
100
AcDbBlockBegin
  2
Block_6
 70
     0
 10
0.0
 20
0.0
 30
0.0
  3
Block_6
  1

  0
SPLINE
  5
346
330
342
100
AcDbEntity
  8
Слой 2
100
AcDbSpline
210
0.0
220
0.0
230
1.0
 70
     9
 71
     3
 72
    17
 73
    13
 74
     0
 42
0.0000000001
 43
0.0000000001
 40
0.0
 40
0.0
 40
0.0
 40
0.0
 40
1.0
 40
1.0
 40
1.0
 40
2.0
 40
2.0
 40
2.0
 40
3.0
 40
3.0
 40
3.0
 40
4.0
 40
4.0
 40
4.0
 40
4.0
 10
17.72721924311443
 20
-228.8049851918421
 30
0.0
 10
13.86155100840251
 20
-228.8049851918421
 30
0.0
 10
10.71681942196463
 20
-231.9496815799442
 30
0.0
 10
10.71681942196463
 20
-235.8153499123111
 30
0.0
 10
10.71681942196463
 20
-239.6812651891227
 30
0.0
 10
13.86155100840251
 20
-242.826032132781
 30
0.0
 10
17.72721924311443
 20
-242.826032132781
 30
0.0
 10
21.59278164449572
 20
-242.826032132781
 30
0.0
 10
24.73754850871048
 20
-239.6812651891227
 30
0.0
 10
24.73754850871048
 20
-235.8153499123111
 30
0.0
 10
24.73754850871048
 20
-231.9496815799442
 30
0.0
 10
21.59278164449572
 20
-228.8049851918421
 30
0.0
 10
17.72721924311443
 20
-228.8049851918421
 30
0.0
  0
SPLINE
  5
347
330
342
100
AcDbEntity
  8
Слой 2
100
AcDbSpline
210
0.0
220
0.0
230
1.0
 70
     9
 71
     3
 72
    17
 73
    13
 74
     0
 42
0.0000000001
 43
0.0000000001
 40
0.0
 40
0.0
 40
0.0
 40
0.0
 40
1.0
 40
1.0
 40
1.0
 40
2.0
 40
2.0
 40
2.0
 40
3.0
 40
3.0
 40
3.0
 40
4.0
 40
4.0
 40
4.0
 40
4.0
 10
17.72721924311443
 20
-242.9647796327463
 30
0.0
 10
13.78510406590839
 20
-242.9647796327463
 30
0.0
 10
10.57804322957871
 20
-239.7576768557701
 30
0.0
 10
10.57804322957871
 20
-235.8153499123111
 30
0.0
 10
10.57804322957871
 20
-231.8733051910749
 30
0.0
 10
13.78510406590839
 20
-228.6661671363206
 30
0.0
 10
17.72721924311443
 20
-228.6661671363206
 30
0.0
 10
21.66922858698984
 20
-228.6661671363206
 30
0.0
 10
24.87633128294761
 20
-231.8733051910749
 30
0.0
 10
24.87633128294761
 20
-235.8153499123111
 30
0.0
 10
24.87633128294761
 20
-239.7576768557701
 30
0.0
 10
21.66922858698984
 20
-242.9647796327463
 30
0.0
 10
17.72721924311443
 20
-242.9647796327463
 30
0.0
  0
HATCH
  5
348
330
342
100
AcDbEntity
  8
Слой 2
 62
   250
420
  3947579
440
 33554687
100
AcDbHatch
 10
0.0
 20
0.0
 30
0.0
210
0.0
220
0.0
230
1.0
  2
SOLID
 70
     1
 71
     1
 91
        2
 92
        1
 93
        1
 72
     4
 94
        3
 73
     0
 74
     0
 95
       17
 96
       13
 40
0.0
 40
0.0
 40
0.0
 40
0.0
 40
1.0
 40
1.0
 40
1.0
 40
2.0
 40
2.0
 40
2.0
 40
3.0
 40
3.0
 40
3.0
 40
4.0
 40
4.0
 40
4.0
 40
4.0
 10
17.72721924311443
 20
-228.8049851918421
 10
13.86155100840251
 20
-228.8049851918421
 10
10.71681942196463
 20
-231.9496815799442
 10
10.71681942196463
 20
-235.8153499123111
 10
10.71681942196463
 20
-239.6812651891227
 10
13.86155100840251
 20
-242.826032132781
 10
17.72721924311443
 20
-242.826032132781
 10
21.59278164449572
 20
-242.826032132781
 10
24.73754850871048
 20
-239.6812651891227
 10
24.73754850871048
 20
-235.8153499123111
 10
24.73754850871048
 20
-231.9496815799442
 10
21.59278164449572
 20
-228.8049851918421
 10
17.72721924311443
 20
-228.8049851918421
 97
        0
 97
        1
330
346
 92
        1
 93
        1
 72
     4
 94
        3
 73
     0
 74
     0
 95
       17
 96
       13
 40
0.0
 40
0.0
 40
0.0
 40
0.0
 40
1.0
 40
1.0
 40
1.0
 40
2.0
 40
2.0
 40
2.0
 40
3.0
 40
3.0
 40
3.0
 40
4.0
 40
4.0
 40
4.0
 40
4.0
 10
17.72721924311443
 20
-242.9647796327463
 10
13.78510406590839
 20
-242.9647796327463
 10
10.57804322957871
 20
-239.7576768557701
 10
10.57804322957871
 20
-235.8153499123111
 10
10.57804322957871
 20
-231.8733051910749
 10
13.78510406590839
 20
-228.6661671363206
 10
17.72721924311443
 20
-228.6661671363206
 10
21.66922858698984
 20
-228.6661671363206
 10
24.87633128294761
 20
-231.8733051910749
 10
24.87633128294761
 20
-235.8153499123111
 10
24.87633128294761
 20
-239.7576768557701
 10
21.66922858698984
 20
-242.9647796327463
 10
17.72721924311443
 20
-242.9647796327463
 97
        0
 97
        1
330
347
 75
     2
 76
     1
 98
        1
 10
0.0
 20
0.0
450
        0
451
        0
460
0.0
461
0.0
452
        0
462
0.0
453
        0
470

  0
INSERT
  5
34A
330
342
100
AcDbEntity
  8
Слой 2
100
AcDbBlockReference
  2
Block_7
 10
0.0
 20
0.0
 30
0.0
  0
ENDBLK
  5
345
330
342
100
AcDbEntity
  8
0
100
AcDbBlockEnd
  0
BLOCK
  5
34B
330
349
100
AcDbEntity
  8
0
100
AcDbBlockBegin
  2
Block_7
 70
     0
 10
0.0
 20
0.0
 30
0.0
  3
Block_7
  1

  0
SPLINE
  5
34D
330
349
100
AcDbEntity
  8
Слой 2
100
AcDbSpline
210
0.0
220
0.0
230
1.0
 70
    11
 71
     3
 72
    17
 73
    13
 74
     0
 42
0.0000000001
 43
0.0000000001
 40
0.0
 40
0.0
 40
0.0
 40
0.0
 40
1.0
 40
1.0
 40
1.0
 40
2.0
 40
2.0
 40
2.0
 40
3.0
 40
3.0
 40
3.0
 40
4.0
 40
4.0
 40
4.0
 40
4.0
 10
16.77923482285508
 20
-237.4107521341351
 30
0.0
 10
16.77923482285508
 20
-237.4107521341351
 30
0.0
 10
18.68003671880603
 20
-237.4107521341351
 30
0.0
 10
18.68003671880603
 20
-237.4107521341351
 30
0.0
 10
18.68003671880603
 20
-237.4107521341351
 30
0.0
 10
18.68003671880603
 20
-235.5096679679431
 30
0.0
 10
18.68003671880603
 20
-235.5096679679431
 30
0.0
 10
18.68003671880603
 20
-235.5096679679431
 30
0.0
 10
16.77923482285508
 20
-235.5096679679431
 30
0.0
 10
16.77923482285508
 20
-235.5096679679431
 30
0.0
 10
16.77923482285508
 20
-235.5096679679431
 30
0.0
 10
16.77923482285508
 20
-237.4107521341351
 30
0.0
 10
16.77923482285508
 20
-237.4107521341351
 30
0.0
  0
SPLINE
  5
34E
330
349
100
AcDbEntity
  8
Слой 2
100
AcDbSpline
210
0.0
220
0.0
230
1.0
 70
     9
 71
     3
 72
    29
 73
    25
 74
     0
 42
0.0000000001
 43
0.0000000001
 40
0.0
 40
0.0
 40
0.0
 40
0.0
 40
1.0
 40
1.0
 40
1.0
 40
2.0
 40
2.0
 40
2.0
 40
3.0
 40
3.0
 40
3.0
 40
4.0
 40
4.0
 40
4.0
 40
5.0
 40
5.0
 40
5.0
 40
6.0
 40
6.0
 40
6.0
 40
7.0
 40
7.0
 40
7.0
 40
8.0
 40
8.0
 40
8.0
 40
8.0
 10
18.90221615758221
 20
-237.8551815784684
 30
0.0
 10
18.90221615758221
 20
-237.8551815784684
 30
0.0
 10
16.55698482852515
 20
-237.8551815784684
 30
0.0
 10
16.55698482852515
 20
-237.8551815784684
 30
0.0
 10
16.43453566498243
 20
-237.8551815784684
 30
0.0
 10
16.3347701119721
 20
-237.7555218562707
 30
0.0
 10
16.3347701119721
 20
-237.6330021340799
 30
0.0
 10
16.3347701119721
 20
-237.6330021340799
 30
0.0
 10
16.3347701119721
 20
-235.287700190221
 30
0.0
 10
16.3347701119721
 20
-235.287700190221
 30
0.0
 10
16.3347701119721
 20
-235.165180468029
 30
0.0
 10
16.43453566498243
 20
-235.0657324124989
 30
0.0
 10
16.55698482852515
 20
-235.0657324124989
 30
0.0
 10
16.55698482852515
 20
-235.0657324124989
 30
0.0
 10
18.90221615758221
 20
-235.0657324124989
 30
0.0
 10
18.90221615758221
 20
-235.0657324124989
 30
0.0
 10
19.02470059890181
 20
-235.0657324124989
 30
0.0
 10
19.12453670746589
 20
-235.165180468029
 30
0.0
 10
19.12453670746589
 20
-235.287700190221
 30
0.0
 10
19.12453670746589
 20
-235.287700190221
 30
0.0
 10
19.12453670746589
 20
-237.6330021340799
 30
0.0
 10
19.12453670746589
 20
-237.6330021340799
 30
0.0
 10
19.12453670746589
 20
-237.7555218562707
 30
0.0
 10
19.02470059890181
 20
-237.8551815784684
 30
0.0
 10
18.90221615758221
 20
-237.8551815784684
 30
0.0
  0
HATCH
  5
34F
330
349
100
AcDbEntity
  8
Слой 2
 62
   250
420
  3947579
440
 33554687
100
AcDbHatch
 10
0.0
 20
0.0
 30
0.0
210
0.0
220
0.0
230
1.0
  2
SOLID
 70
     1
 71
     1
 91
        2
 92
        1
 93
        1
 72
     4
 94
        3
 73
     0
 74
     0
 95
       17
 96
       13
 40
0.0
 40
0.0
 40
0.0
 40
0.0
 40
1.0
 40
1.0
 40
1.0
 40
2.0
 40
2.0
 40
2.0
 40
3.0
 40
3.0
 40
3.0
 40
4.0
 40
4.0
 40
4.0
 40
4.0
 10
16.77923482285508
 20
-237.4107521341351
 10
16.77923482285508
 20
-237.4107521341351
 10
18.68003671880603
 20
-237.4107521341351
 10
18.68003671880603
 20
-237.4107521341351
 10
18.68003671880603
 20
-237.4107521341351
 10
18.68003671880603
 20
-235.5096679679431
 10
18.68003671880603
 20
-235.5096679679431
 10
18.68003671880603
 20
-235.5096679679431
 10
16.77923482285508
 20
-235.5096679679431
 10
16.77923482285508
 20
-235.5096679679431
 10
16.77923482285508
 20
-235.5096679679431
 10
16.77923482285508
 20
-237.4107521341351
 10
16.77923482285508
 20
-237.4107521341351
 97
        0
 97
        1
330
34D
 92
        1
 93
        1
 72
     4
 94
        3
 73
     0
 74
     0
 95
       29
 96
       25
 40
0.0
 40
0.0
 40
0.0
 40
0.0
 40
1.0
 40
1.0
 40
1.0
 40
2.0
 40
2.0
 40
2.0
 40
3.0
 40
3.0
 40
3.0
 40
4.0
 40
4.0
 40
4.0
 40
5.0
 40
5.0
 40
5.0
 40
6.0
 40
6.0
 40
6.0
 40
7.0
 40
7.0
 40
7.0
 40
8.0
 40
8.0
 40
8.0
 40
8.0
 10
18.90221615758221
 20
-237.8551815784684
 10
18.90221615758221
 20
-237.8551815784684
 10
16.55698482852515
 20
-237.8551815784684
 10
16.55698482852515
 20
-237.8551815784684
 10
16.43453566498243
 20
-237.8551815784684
 10
16.3347701119721
 20
-237.7555218562707
 10
16.3347701119721
 20
-237.6330021340799
 10
16.3347701119721
 20
-237.6330021340799
 10
16.3347701119721
 20
-235.287700190221
 10
16.3347701119721
 20
-235.287700190221
 10
16.3347701119721
 20
-235.165180468029
 10
16.43453566498243
 20
-235.0657324124989
 10
16.55698482852515
 20
-235.0657324124989
 10
16.55698482852515
 20
-235.0657324124989
 10
18.90221615758221
 20
-235.0657324124989
 10
18.90221615758221
 20
-235.0657324124989
 10
19.02470059890181
 20
-235.0657324124989
 10
19.12453670746589
 20
-235.165180468029
 10
19.12453670746589
 20
-235.287700190221
 10
19.12453670746589
 20
-235.287700190221
 10
19.12453670746589
 20
-237.6330021340799
 10
19.12453670746589
 20
-237.6330021340799
 10
19.12453670746589
 20
-237.7555218562707
 10
19.02470059890181
 20
-237.8551815784684
 10
18.90221615758221
 20
-237.8551815784684
 97
        0
 97
        1
330
34E
 75
     2
 76
     1
 98
        1
 10
0.0
 20
0.0
450
        0
451
        0
460
0.0
461
0.0
452
        0
462
0.0
453
        0
470

  0
INSERT
  5
351
330
349
100
AcDbEntity
  8
Слой 2
100
AcDbBlockReference
  2
Block_8
 10
0.0
 20
0.0
 30
0.0
  0
ENDBLK
  5
34C
330
349
100
AcDbEntity
  8
0
100
AcDbBlockEnd
  0
BLOCK
  5
352
330
350
100
AcDbEntity
  8
0
100
AcDbBlockBegin
  2
Block_8
 70
     0
 10
0.0
 20
0.0
 30
0.0
  3
Block_8
  1

  0
SPLINE
  5
354
330
350
100
AcDbEntity
  8
Слой 2
100
AcDbSpline
210
0.0
220
0.0
230
1.0
 70
     9
 71
     3
 72
    35
 73
    31
 74
     0
 42
0.0000000001
 43
0.0000000001
 40
0.0
 40
0.0
 40
0.0
 40
0.0
 40
1.0
 40
1.0
 40
1.0
 40
2.0
 40
2.0
 40
2.0
 40
3.0
 40
3.0
 40
3.0
 40
4.0
 40
4.0
 40
4.0
 40
5.0
 40
5.0
 40
5.0
 40
6.0
 40
6.0
 40
6.0
 40
7.0
 40
7.0
 40
7.0
 40
8.0
 40
8.0
 40
8.0
 40
9.0
 40
9.0
 40
9.0
 40
10.0
 40
10.0
 40
10.0
 40
10.0
 10
13.45744407426769
 20
-235.2492474124527
 30
0.0
 10
13.3953904647397
 20
-235.2492474124527
 30
0.0
 10
13.33390129964175
 20
-235.2234946346813
 30
0.0
 10
13.28998046742893
 20
-235.1730826902498
 30
0.0
 10
13.20951185837075
 20
-235.0803021347178
 30
0.0
 10
13.21921324701213
 20
-234.9402140791966
 30
0.0
 10
13.31164102243188
 20
-234.8598160236618
 30
0.0
 10
13.31164102243188
 20
-234.8598160236618
 30
0.0
 10
17.58402674676758
 20
-231.1437254690349
 30
0.0
 10
17.58402674676758
 20
-231.1437254690349
 30
0.0
 10
17.66752924463725
 20
-231.0710885246083
 30
0.0
 10
17.79223618590015
 20
-231.0710885246083
 30
0.0
 10
17.87570340599295
 20
-231.1437254690349
 30
0.0
 10
17.87570340599295
 20
-231.1437254690349
 30
0.0
 10
22.14777163033675
 20
-234.8598160236618
 30
0.0
 10
22.14777163033675
 20
-234.8598160236618
 30
0.0
 10
22.24005829464898
 20
-234.9402140791966
 30
0.0
 10
22.25032412772042
 20
-235.0803021347178
 30
0.0
 10
22.16957329644721
 20
-235.1730826902498
 30
0.0
 10
22.08924579849653
 20
-235.2652282457826
 30
0.0
 10
21.94940469095306
 20
-235.2752471346688
 30
0.0
 10
21.85627135999576
 20
-235.1947079680226
 30
0.0
 10
21.85627135999576
 20
-235.1947079680226
 30
0.0
 10
17.72982979860338
 20
-231.605511580031
 30
0.0
 10
17.72982979860338
 20
-231.605511580031
 30
0.0
 10
17.72982979860338
 20
-231.605511580031
 30
0.0
 10
13.60300018166536
 20
-235.1947079680226
 30
0.0
 10
13.60300018166536
 20
-235.1947079680226
 30
0.0
 10
13.56126657161896
 20
-235.2313615791239
 30
0.0
 10
13.50919657294738
 20
-235.2492474124527
 30
0.0
 10
13.45744407426769
 20
-235.2492474124527
 30
0.0
  0
HATCH
  5
355
330
350
100
AcDbEntity
  8
Слой 2
 62
   250
420
  3947579
440
 33554687
100
AcDbHatch
 10
0.0
 20
0.0
 30
0.0
210
0.0
220
0.0
230
1.0
  2
SOLID
 70
     1
 71
     1
 91
        1
 92
        1
 93
        1
 72
     4
 94
        3
 73
     0
 74
     0
 95
       35
 96
       31
 40
0.0
 40
0.0
 40
0.0
 40
0.0
 40
1.0
 40
1.0
 40
1.0
 40
2.0
 40
2.0
 40
2.0
 40
3.0
 40
3.0
 40
3.0
 40
4.0
 40
4.0
 40
4.0
 40
5.0
 40
5.0
 40
5.0
 40
6.0
 40
6.0
 40
6.0
 40
7.0
 40
7.0
 40
7.0
 40
8.0
 40
8.0
 40
8.0
 40
9.0
 40
9.0
 40
9.0
 40
10.0
 40
10.0
 40
10.0
 40
10.0
 10
13.45744407426769
 20
-235.2492474124527
 10
13.3953904647397
 20
-235.2492474124527
 10
13.33390129964175
 20
-235.2234946346813
 10
13.28998046742893
 20
-235.1730826902498
 10
13.20951185837075
 20
-235.0803021347178
 10
13.21921324701213
 20
-234.9402140791966
 10
13.31164102243188
 20
-234.8598160236618
 10
13.31164102243188
 20
-234.8598160236618
 10
17.58402674676758
 20
-231.1437254690349
 10
17.58402674676758
 20
-231.1437254690349
 10
17.66752924463725
 20
-231.0710885246083
 10
17.79223618590015
 20
-231.0710885246083
 10
17.87570340599295
 20
-231.1437254690349
 10
17.87570340599295
 20
-231.1437254690349
 10
22.14777163033675
 20
-234.8598160236618
 10
22.14777163033675
 20
-234.8598160236618
 10
22.24005829464898
 20
-234.9402140791966
 10
22.25032412772042
 20
-235.0803021347178
 10
22.16957329644721
 20
-235.1730826902498
 10
22.08924579849653
 20
-235.2652282457826
 10
21.94940469095306
 20
-235.2752471346688
 10
21.85627135999576
 20
-235.1947079680226
 10
21.85627135999576
 20
-235.1947079680226
 10
17.72982979860338
 20
-231.605511580031
 10
17.72982979860338
 20
-231.605511580031
 10
17.72982979860338
 20
-231.605511580031
 10
13.60300018166536
 20
-235.1947079680226
 10
13.60300018166536
 20
-235.1947079680226
 10
13.56126657161896
 20
-235.2313615791239
 10
13.50919657294738
 20
-235.2492474124527
 10
13.45744407426769
 20
-235.2492474124527
 97
        0
 97
        1
330
354
 75
     2
 76
     1
 98
        1
 10
0.0
 20
0.0
450
        0
451
        0
460
0.0
461
0.0
452
        0
462
0.0
453
        0
470

  0
SPLINE
  5
356
330
350
100
AcDbEntity
  8
Слой 2
100
AcDbSpline
210
0.0
220
0.0
230
1.0
 70
     9
 71
     3
 72
    41
 73
    37
 74
     0
 42
0.0000000001
 43
0.0000000001
 40
0.0
 40
0.0
 40
0.0
 40
0.0
 40
1.0
 40
1.0
 40
1.0
 40
2.0
 40
2.0
 40
2.0
 40
3.0
 40
3.0
 40
3.0
 40
4.0
 40
4.0
 40
4.0
 40
5.0
 40
5.0
 40
5.0
 40
6.0
 40
6.0
 40
6.0
 40
7.0
 40
7.0
 40
7.0
 40
8.0
 40
8.0
 40
8.0
 40
9.0
 40
9.0
 40
9.0
 40
10.0
 40
10.0
 40
10.0
 40
11.0
 40
11.0
 40
11.0
 40
12.0
 40
12.0
 40
12.0
 40
12.0
 10
20.81716444206114
 20
-239.6644376891272
 30
0.0
 10
20.81716444206114
 20
-239.6644376891272
 30
0.0
 10
14.6528668215477
 20
-239.6644376891272
 30
0.0
 10
14.6528668215477
 20
-239.6644376891272
 30
0.0
 10
14.53031182467433
 20
-239.6644376891272
 30
0.0
 10
14.43065210499464
 20
-239.5647779669295
 30
0.0
 10
14.43065210499464
 20
-239.4422229669606
 30
0.0
 10
14.43065210499464
 20
-239.4422229669606
 30
0.0
 10
14.43065210499464
 20
-235.1545265791437
 30
0.0
 10
14.43065210499464
 20
-235.1545265791437
 30
0.0
 10
14.43065210499464
 20
-235.0321126902848
 30
0.0
 10
14.53031182467433
 20
-234.9326999125317
 30
0.0
 10
14.6528668215477
 20
-234.9326999125317
 30
0.0
 10
14.7753512628673
 20
-234.9326999125317
 30
0.0
 10
14.87508153810075
 20
-235.0321126902848
 30
0.0
 10
14.87508153810075
 20
-235.1545265791437
 30
0.0
 10
14.87508153810075
 20
-235.1545265791437
 30
0.0
 10
14.87508153810075
 20
-239.2200082447939
 30
0.0
 10
14.87508153810075
 20
-239.2200082447939
 30
0.0
 10
14.87508153810075
 20
-239.2200082447939
 30
0.0
 10
20.59494972550809
 20
-239.2200082447939
 30
0.0
 10
20.59494972550809
 20
-239.2200082447939
 30
0.0
 10
20.59494972550809
 20
-239.2200082447939
 30
0.0
 10
20.59494972550809
 20
-235.1545265791437
 30
0.0
 10
20.59494972550809
 20
-235.1545265791437
 30
0.0
 10
20.59494972550809
 20
-235.0321126902848
 30
0.0
 10
20.69471527851841
 20
-234.9326999125317
 30
0.0
 10
20.81716444206114
 20
-234.9326999125317
 30
0.0
 10
20.93968416115763
 20
-234.9326999125317
 30
0.0
 10
21.03937915861419
 20
-235.0321126902848
 30
0.0
 10
21.03937915861419
 20
-235.1545265791437
 30
0.0
 10
21.03937915861419
 20
-235.1545265791437
 30
0.0
 10
21.03937915861419
 20
-239.4422229669606
 30
0.0
 10
21.03937915861419
 20
-239.4422229669606
 30
0.0
 10
21.03937915861419
 20
-239.5647779669295
 30
0.0
 10
20.93968416115763
 20
-239.6644376891272
 30
0.0
 10
20.81716444206114
 20
-239.6644376891272
 30
0.0
  0
HATCH
  5
357
330
350
100
AcDbEntity
  8
Слой 2
 62
   250
420
  3947579
440
 33554687
100
AcDbHatch
 10
0.0
 20
0.0
 30
0.0
210
0.0
220
0.0
230
1.0
  2
SOLID
 70
     1
 71
     1
 91
        1
 92
        1
 93
        1
 72
     4
 94
        3
 73
     0
 74
     0
 95
       41
 96
       37
 40
0.0
 40
0.0
 40
0.0
 40
0.0
 40
1.0
 40
1.0
 40
1.0
 40
2.0
 40
2.0
 40
2.0
 40
3.0
 40
3.0
 40
3.0
 40
4.0
 40
4.0
 40
4.0
 40
5.0
 40
5.0
 40
5.0
 40
6.0
 40
6.0
 40
6.0
 40
7.0
 40
7.0
 40
7.0
 40
8.0
 40
8.0
 40
8.0
 40
9.0
 40
9.0
 40
9.0
 40
10.0
 40
10.0
 40
10.0
 40
11.0
 40
11.0
 40
11.0
 40
12.0
 40
12.0
 40
12.0
 40
12.0
 10
20.81716444206114
 20
-239.6644376891272
 10
20.81716444206114
 20
-239.6644376891272
 10
14.6528668215477
 20
-239.6644376891272
 10
14.6528668215477
 20
-239.6644376891272
 10
14.53031182467433
 20
-239.6644376891272
 10
14.43065210499464
 20
-239.5647779669295
 10
14.43065210499464
 20
-239.4422229669606
 10
14.43065210499464
 20
-239.4422229669606
 10
14.43065210499464
 20
-235.1545265791437
 10
14.43065210499464
 20
-235.1545265791437
 10
14.43065210499464
 20
-235.0321126902848
 10
14.53031182467433
 20
-234.9326999125317
 10
14.6528668215477
 20
-234.9326999125317
 10
14.7753512628673
 20
-234.9326999125317
 10
14.87508153810075
 20
-235.0321126902848
 10
14.87508153810075
 20
-235.1545265791437
 10
14.87508153810075
 20
-235.1545265791437
 10
14.87508153810075
 20
-239.2200082447939
 10
14.87508153810075
 20
-239.2200082447939
 10
14.87508153810075
 20
-239.2200082447939
 10
20.59494972550809
 20
-239.2200082447939
 10
20.59494972550809
 20
-239.2200082447939
 10
20.59494972550809
 20
-239.2200082447939
 10
20.59494972550809
 20
-235.1545265791437
 10
20.59494972550809
 20
-235.1545265791437
 10
20.59494972550809
 20
-235.0321126902848
 10
20.69471527851841
 20
-234.9326999125317
 10
20.81716444206114
 20
-234.9326999125317
 10
20.93968416115763
 20
-234.9326999125317
 10
21.03937915861419
 20
-235.0321126902848
 10
21.03937915861419
 20
-235.1545265791437
 10
21.03937915861419
 20
-235.1545265791437
 10
21.03937915861419
 20
-239.4422229669606
 10
21.03937915861419
 20
-239.4422229669606
 10
21.03937915861419
 20
-239.5647779669295
 10
20.93968416115763
 20
-239.6644376891272
 10
20.81716444206114
 20
-239.6644376891272
 97
        0
 97
        1
330
356
 75
     2
 76
     1
 98
        1
 10
0.0
 20
0.0
450
        0
451
        0
460
0.0
461
0.0
452
        0
462
0.0
453
        0
470

  0
ENDBLK
  5
353
330
350
100
AcDbEntity
  8
0
100
AcDbBlockEnd
  0
ENDSEC
  0
SECTION
  2
ENTITIES
  0
LWPOLYLINE
  5
79
330
70
100
AcDbEntity
  8
Слой 3
100
AcDbPolyline
 90
        4
 70
     1
 43
0.0
 10
210.7588863604421
 20
-252.9647796302453
 10
0.785886412935537
 20
-252.9647796302453
 10
0.785886412935537
 20
-42.99177968273838
 10
210.7588863604421
 20
-42.99177968273838
  0
LINE
  5
7B
330
70
100
AcDbEntity
  8
Слой 1
 62
     8
420
  7368559
370
    18
100
AcDbLine
 10
14.80133966732281
 20
-184.6305727885455
 30
0.0
 11
14.80133966732281
 21
-118.6251018996774
 31
0.0
  0
LINE
  5
7C
330
70
100
AcDbEntity
  8
Слой 1
 62
     8
420
  7368559
370
    18
100
AcDbLine
 10
21.6567132288852
 20
-184.6305727885455
 30
0.0
 11
21.6567132288852
 21
-144.5837843898711
 31
0.0
  0
LINE
  5
7D
330
70
100
AcDbEntity
  8
Слой 1
 62
     8
420
  7368559
370
    18
100
AcDbLine
 10
27.02139099092617
 20
-174.8193051718291
 30
0.0
 11
27.02139099092617
 21
-169.1677336791019
 31
0.0
  0
LINE
  5
7E
330
70
100
AcDbEntity
  8
Слой 1
 62
     8
420
  7368559
370
    18
100
AcDbLine
 10
27.02139099092617
 20
-184.6305727885455
 30
0.0
 11
27.02139099092617
 21
-174.8193051718291
 31
0.0
  0
LINE
  5
7F
330
70
100
AcDbEntity
  8
Слой 1
 62
     8
420
  7368559
370
    18
100
AcDbLine
 10
27.02139099092617
 20
-190.2821442812734
 30
0.0
 11
27.02139099092617
 21
-184.6305727885455
 31
0.0
  0
LINE
  5
80
330
70
100
AcDbEntity
  8
Слой 1
 62
     8
420
  7368559
370
    18
100
AcDbLine
 10
32.67257030729012
 20
-185.317945469281
 30
0.0
 11
32.67257030729012
 21
-204.6111110599583
 31
0.0
  0
LINE
  5
81
330
70
100
AcDbEntity
  8
Слой 1
 62
     8
420
  7368559
370
    18
100
AcDbLine
 10
32.67257030729012
 20
-195.8169749029696
 30
0.0
 11
134.6846864592121
 21
-195.8169749029696
 31
0.0
  0
LINE
  5
82
330
70
100
AcDbEntity
  8
Слой 1
 62
     8
420
  7368559
370
    18
100
AcDbLine
 10
47.6185908923983
 20
-143.8964117091356
 30
0.0
 11
47.6185908923983
 21
-104.9972347147312
 31
0.0
  0
LINE
  5
83
330
70
100
AcDbEntity
  8
Слой 1
 62
     8
420
  7368559
370
    18
100
AcDbLine
 10
32.55900332868959
 20
-184.6305727885455
 30
0.0
 11
13.68361879023995
 21
-184.6305727885455
 31
0.0
  0
LINE
  5
84
330
70
100
AcDbEntity
  8
Слой 1
 62
     8
420
  7368559
370
    18
100
AcDbLine
 10
58.03394387467346
 20
-130.7857673853965
 30
0.0
 11
58.03394387467346
 21
-111.4525427834962
 31
0.0
  0
LINE
  5
85
330
70
100
AcDbEntity
  8
Слой 1
 62
     8
420
  7368559
370
    18
100
AcDbLine
 10
32.81602173282403
 20
-174.8193051718291
 30
0.0
 11
25.90366707371614
 21
-174.8193051718291
 31
0.0
  0
LINE
  5
86
330
70
100
AcDbEntity
  8
Слой 1
 62
     8
420
  7368559
370
    18
100
AcDbLine
 10
46.96110265859649
 20
-144.5837843898711
 30
0.0
 11
20.53938756829281
 21
-144.5837843898711
 31
0.0
  0
LINE
  5
87
330
70
100
AcDbEntity
  8
Слой 1
 62
     8
420
  7368559
370
    18
100
AcDbLine
 10
109.2966236182148
 20
-130.7857673853965
 30
0.0
 11
109.2966236182148
 21
-111.4525427834962
 31
0.0
  0
LINE
  5
88
330
70
100
AcDbEntity
  8
Слой 1
 62
     8
420
  7368559
370
    18
100
AcDbLine
 10
119.7386689142317
 20
-143.8964117091356
 30
0.0
 11
119.7386689142317
 21
-104.9972347147312
 31
0.0
  0
LINE
  5
89
330
70
100
AcDbEntity
  8
Слой 1
 62
     8
420
  7368559
370
    18
100
AcDbLine
 10
59.89841110986806
 20
-118.6251018996774
 30
0.0
 11
13.68361879023995
 21
-118.6251018996774
 31
0.0
  0
LINE
  5
8A
330
70
100
AcDbEntity
  8
Слой 1
 62
     8
420
  7368559
370
    18
100
AcDbLine
 10
58.03394387467346
 20
-112.5702636605797
 30
0.0
 11
109.2966236182148
 21
-112.5702636605797
 31
0.0
  0
LINE
  5
8B
330
70
100
AcDbEntity
  8
Слой 1
 62
     8
420
  7368559
370
    18
100
AcDbLine
 10
47.6185908923983
 20
-106.1181416447526
 30
0.0
 11
119.7386689142317
 21
-106.1181416447526
 31
0.0
  0
LINE
  5
8C
330
70
100
AcDbEntity
  8
Слой 1
 62
     8
420
  7368559
370
    18
100
AcDbLine
 10
134.6846864592121
 20
-185.317945469281
 30
0.0
 11
134.6846864592121
 21
-196.9374926967539
 31
0.0
  0
LINE
  5
8D
330
70
100
AcDbEntity
  8
Слой 1
 62
     8
420
  7368559
370
    18
100
AcDbLine
 10
154.750754992076
 20
-194.2688936690314
 30
0.0
 11
194.5243183041568
 21
-194.2688936690314
 31
0.0
  0
LINE
  5
8E
330
70
100
AcDbEntity
  8
Слой 1
 62
     8
420
  7368559
370
    18
100
AcDbLine
 10
154.750754992076
 20
-185.317945469281
 30
0.0
 11
154.750754992076
 21
-195.4165050733019
 31
0.0
  0
LINE
  5
8F
330
70
100
AcDbEntity
  8
Слой 1
 62
     8
420
  7368559
370
    18
100
AcDbLine
 10
194.5243183041568
 20
-185.317945469281
 30
0.0
 11
194.5243183041568
 21
-195.4165050733019
 31
0.0
  0
INSERT
  5
91
330
70
100
AcDbEntity
  8
Слой 1
100
AcDbBlockReference
  2
Block_0
 10
0.0
 20
0.0
 30
0.0
  0
MTEXT
  5
D2
330
70
100
AcDbEntity
  8
Слой 1
100
AcDbMText
 10
172.0044019481013
 20
-193.4380635095832
 30
0.0
 40
0.2
 41
0.0
 46
0.0
 71
     7
 72
     1
  1
\C8;\c7303024;\FDINPro-Regular|b0|i0|c1;\H2.997200;\W1.000000;35
 73
     1
 44
1.0
  0
MTEXT
  5
D3
330
70
100
AcDbEntity
  8
Слой 1
100
AcDbMText
 10
81.46401975502461
 20
-105.3055877422283
 30
0.0
 40
0.2
 41
0.0
 46
0.0
 71
     7
 72
     1
  1
\C8;\c7303024;\FDINPro-Regular|b0|i0|c1;\H2.997200;\W1.000000;63.8
 73
     1
 44
1.0
  0
MTEXT
  5
D4
330
70
100
AcDbEntity
  8
Слой 1
100
AcDbMText
 10
81.18875662575316
 20
-111.7608784714087
 30
0.0
 40
0.2
 41
0.0
 46
0.0
 71
     7
 72
     1
  1
\C8;\c7303024;\FDINPro-Regular|b0|i0|c1;\H2.997200;\W1.000000;45.4
 73
     1
 44
1.0
  0
MTEXT
  5
D5
330
70
100
AcDbEntity
  8
Слой 1
100
AcDbMText
 10
79.5380391239957
 20
-194.7139115588519
 30
0.0
 40
0.2
 41
0.0
 46
0.0
 71
     7
 72
     1
  1
\C8;\c7303024;\FDINPro-Regular|b0|i0|c1;\H2.997200;\W1.000000;90.3
 73
     1
 44
1.0
  0
LINE
  5
D6
330
70
100
AcDbEntity
  8
Слой 1
 62
     8
420
  7368559
370
    18
100
AcDbLine
 10
32.67257030729012
 20
-203.2253082344509
 30
0.0
 11
137.4966649418526
 21
-203.2253082344509
 31
0.0
  0
LINE
  5
D7
330
70
100
AcDbEntity
  8
Слой 1
 62
     8
420
  7368559
370
    18
100
AcDbLine
 10
137.4966649418526
 20
-185.317945469281
 30
0.0
 11
137.4966649418526
 21
-204.3458260282352
 31
0.0
  0
MTEXT
  5
D8
330
70
100
AcDbEntity
  8
Слой 1
100
AcDbMText
 10
79.41858043804467
 20
-202.1223740814138
 30
0.0
 40
0.2
 41
0.0
 46
0.0
 71
     7
 72
     1
  1
\C8;\c7303024;\FDINPro-Regular|b0|i0|c1;\H2.997200;\W1.027570;92.6
 73
     1
 44
1.0
  0
MTEXT
  5
D9
330
70
100
AcDbEntity
  8
Слой 1
100
AcDbMText
 10
13.68374701263809
 20
-155.757934531373
 30
0.0
 40
0.2
 41
0.0
 46
0.0
 71
     7
 72
     1
  1
\C8;\c7303024;\FDINPro-Regular|b0|i0|c1;\H2.997200;\W1.000000;58.5
 11
0.0000000000000001
 21
1.0
 31
0.0
 73
     1
 44
1.0
  0
MTEXT
  5
DA
330
70
100
AcDbEntity
  8
Слой 1
100
AcDbMText
 10
20.53948702828527
 20
-167.9825113512335
 30
0.0
 40
0.2
 41
0.0
 46
0.0
 71
     7
 72
     1
  1
\C8;\c7303024;\FDINPro-Regular|b0|i0|c1;\H2.997200;\W1.000000;35.5
 11
0.0000000000000001
 21
1.0
 31
0.0
 73
     1
 44
1.0
  0
MTEXT
  5
DB
330
70
100
AcDbEntity
  8
Слой 1
100
AcDbMText
 10
26.13828395613904
 20
-182.2190239344799
 30
0.0
 40
0.2
 41
0.0
 46
0.0
 71
     7
 72
     1
  1
\C8;\c7303024;\FDINPro-Regular|b0|i0|c1;\H2.997200;\W1.000000;8.7
 11
0.0000000000000001
 21
1.0
 31
0.0
 73
     1
 44
1.0
  0
INSERT
  5
DD
330
70
100
AcDbEntity
  8
Слой 1
100
AcDbBlockReference
  2
Block_1
 10
0.0
 20
0.0
 30
0.0
  0
INSERT
  5
316
330
70
100
AcDbEntity
  8
Слой 2
100
AcDbBlockReference
  2
Block_2
 10
0.0
 20
0.0
 30
0.0
  0
MTEXT
  5
339
330
70
100
AcDbEntity
  8
Слой 2
100
AcDbMText
 10
9.781358165414903
 20
-58.55216461413258
 30
0.0
 40
0.2
 41
0.0
 46
0.0
 71
     7
 72
     1
  1
\C250;\c3882044;\FDINPro-Light|b0|i0|c1;\H5.494867;\W1.000000;ИСТОЧНИКИ НАПРЯЖЕНИЯ 
 73
     1
 44
1.0
  0
MTEXT
  5
33A
330
70
100
AcDbEntity
  8
Слой 2
100
AcDbMText
 10
9.781358165414903
 20
-67.86563574895699
 30
0.0
 40
0.2
 41
0.0
 46
0.0
 71
     7
 72
     1
  1
\C250;\c3882044;\FDINPro-Light|b0|i0|c1;\H5.494867;\W1.000000;СЕРИИ ARV-DR
 73
     1
 44
1.0
  0
MTEXT
  5
33B
330
70
100
AcDbEntity
  8
Слой 2
100
AcDbMText
 10
9.781358165414903
 20
-77.17876237423287
 30
0.0
 40
0.2
 41
0.0
 46
0.0
 71
     7
 72
     1
  1
\C250;\c3882044;\FDINPro-Light|b0|i0|c1;\H5.494867;\W1.000000;ARV-DR30-12/24/48
 73
     1
 44
1.0
  0
INSERT
  5
33D
330
70
100
AcDbEntity
  8
Слой 2
100
AcDbBlockReference
  2
Block_5
 10
0.0
 20
0.0
 30
0.0
  0
ENDSEC
  0
SECTION
  2
OBJECTS
  0
DICTIONARY
  5
C
330
0
100
AcDbDictionary
281
     1
  3
ACAD_COLOR
350
63
  3
ACAD_DETAILVIEWSTYLE
350
6A
  3
ACAD_GROUP
350
D
  3
ACAD_LAYOUT
350
62
  3
ACAD_MATERIAL
350
10
  3
ACAD_MLEADERSTYLE
350
66
  3
ACAD_MLINESTYLE
350
5F
  3
ACAD_PLOTSETTINGS
350
61
  3
ACAD_PLOTSTYLENAME
350
E
  3
ACAD_SCALELIST
350
42
  3
ACAD_SECTIONVIEWSTYLE
350
68
  3
ACAD_TABLESTYLE
350
64
  3
ACAD_VISUALSTYLE
350
29
  3
ACDB_RECOMPOSE_DATA
350
360
  3
AcDbVariableDictionary
350
358
  0
DICTIONARY
  5
63
102
{ACAD_REACTORS
330
C
102
}
330
C
100
AcDbDictionary
281
     1
  0
DICTIONARY
  5
6A
102
{ACAD_REACTORS
330
C
102
}
330
C
100
AcDbDictionary
281
     1
  3
Imperial24
350
6B
  0
DICTIONARY
  5
D
102
{ACAD_REACTORS
330
C
102
}
330
C
100
AcDbDictionary
281
     1
  0
DICTIONARY
  5
62
102
{ACAD_REACTORS
330
C
102
}
330
C
100
AcDbDictionary
281
     1
  3
Layout1
350
6F
  3
Layout2
350
77
  3
Model
350
73
  0
DICTIONARY
  5
10
102
{ACAD_REACTORS
330
C
102
}
330
C
100
AcDbDictionary
281
     1
  3
ByBlock
350
19
  3
ByLayer
350
11
  3
Global
350
21
  0
DICTIONARY
  5
66
102
{ACAD_REACTORS
330
C
102
}
330
C
100
AcDbDictionary
281
     1
  3
Standard
350
67
  0
DICTIONARY
  5
5F
102
{ACAD_REACTORS
330
C
102
}
330
C
100
AcDbDictionary
281
     1
  3
Standard
350
60
  0
DICTIONARY
  5
61
102
{ACAD_REACTORS
330
C
102
}
330
C
100
AcDbDictionary
281
     1
  0
ACDBDICTIONARYWDFLT
  5
E
102
{ACAD_REACTORS
330
C
102
}
330
C
100
AcDbDictionary
281
     1
  3
Normal
350
F
100
AcDbDictionaryWithDefault
340
F
  0
DICTIONARY
  5
42
102
{ACAD_REACTORS
330
C
102
}
330
C
100
AcDbDictionary
281
     1
  3
A0
350
43
  3
A1
350
44
  3
A2
350
45
  3
A3
350
46
  3
A4
350
47
  3
A5
350
48
  3
A6
350
49
  3
A7
350
4A
  3
A8
350
4B
  3
A9
350
4C
  3
B0
350
4D
  3
B1
350
4E
  3
B2
350
4F
  3
B3
350
50
  3
B4
350
51
  3
B5
350
52
  3
B6
350
53
  0
DICTIONARY
  5
68
102
{ACAD_REACTORS
330
C
102
}
330
C
100
AcDbDictionary
281
     1
  3
Imperial24
350
69
  0
DICTIONARY
  5
64
102
{ACAD_REACTORS
330
C
102
}
330
C
100
AcDbDictionary
281
     1
  3
Standard
350
65
  0
DICTIONARY
  5
29
102
{ACAD_REACTORS
330
C
102
}
330
C
100
AcDbDictionary
281
     1
  3
2dWireframe
350
2F
  3
Basic
350
2E
  3
Brighten
350
35
  3
ColorChange
350
39
  3
Conceptual
350
32
  3
Dim
350
34
  3
EdgeColorOff
350
41
  3
Facepattern
350
38
  3
Flat
350
2A
  3
FlatWithEdges
350
2B
  3
Gouraud
350
2C
  3
GouraudWithEdges
350
2D
  3
Hidden
350
31
  3
JitterOff
350
3F
  3
Linepattern
350
37
  3
OverhangOff
350
40
  3
Realistic
350
33
  3
Shaded
350
3E
  3
Shaded with edges
350
3D
  3
Shades of Gray
350
3A
  3
Sketchy
350
3B
  3
Thicken
350
36
  3
Wireframe
350
30
  3
X-Ray
350
3C
  0
XRECORD
  5
360
102
{ACAD_REACTORS
330
C
102
}
330
C
100
AcDbXrecord
280
     1
 90
        1
330
65
  0
DICTIONARY
  5
358
102
{ACAD_REACTORS
330
C
102
}
330
C
100
AcDbDictionary
281
     1
  3
CANNOSCALE
350
35D
  3
CMLEADERSTYLE
350
35A
  3
CTABLESTYLE
350
359
  3
CVIEWDETAILSTYLE
350
35B
  3
CVIEWSECTIONSTYLE
350
35C
  0
ACDBDETAILVIEWSTYLE
  5
6B
102
{ACAD_REACTORS
330
6A
102
}
330
6A
100
AcDbModelDocViewStyle
 70
     0
  3
Imperial24
290
     1
300
Imperial24
 90
        0
100
AcDbDetailViewStyle
 70
     0
 71
     0
 90
        3
 71
     1
340
55
 62
   256
 40
0.24
340
0
 62
   256
 40
0.24
300

 40
0.36
280
     3
 71
     2
340
5D
 90
       25
 62
   256
 71
     3
340
55
 62
   256
 40
0.24
 90
        1
 40
0.75
 90
        1
300
%<\AcVar ViewType \f "%tc1">% %<\AcVar ViewDetailId>%\PSCALE %<\AcVar ViewScale \f "%sn">%
 71
     4
340
5D
 90
       25
 62
   256
340
5D
 90
       25
 62
   256
280
     0
  0
LAYOUT
  5
6F
102
{ACAD_REACTORS
330
62
102
}
330
62
100
AcDbPlotSettings
  1

  2

  4

  6

 40
0.0
 41
0.0
 42
0.0
 43
0.0
 44
0.0
 45
0.0
 46
0.0
 47
0.0
 48
0.0
 49
0.0
140
0.0
141
0.0
142
1.0
143
1.0
 70
   688
 72
     0
 73
     0
 74
     5
  7

 75
    16
147
1.0
 76
     0
 77
     2
 78
   300
148
0.0
149
0.0
100
AcDbLayout
  1
Layout1
 70
     1
 71
     1
 10
0.0
 20
0.0
 11
12.0
 21
9.0
 12
0.0
 22
0.0
 32
0.0
 14
0.0
 24
0.0
 34
0.0
 15
0.0
 25
0.0
 35
0.0
146
0.0
 13
0.0
 23
0.0
 33
0.0
 16
1.0
 26
0.0
 36
0.0
 17
0.0
 27
1.0
 37
0.0
 76
     0
330
6C
  0
LAYOUT
  5
77
102
{ACAD_REACTORS
330
62
102
}
330
62
100
AcDbPlotSettings
  1

  2

  4

  6

 40
0.0
 41
0.0
 42
0.0
 43
0.0
 44
0.0
 45
0.0
 46
0.0
 47
0.0
 48
0.0
 49
0.0
140
0.0
141
0.0
142
1.0
143
1.0
 70
   688
 72
     0
 73
     0
 74
     5
  7

 75
    16
147
1.0
 76
     0
 77
     2
 78
   300
148
0.0
149
0.0
100
AcDbLayout
  1
Layout2
 70
     1
 71
     2
 10
0.0
 20
0.0
 11
12.0
 21
9.0
 12
0.0
 22
0.0
 32
0.0
 14
0.0
 24
0.0
 34
0.0
 15
0.0
 25
0.0
 35
0.0
146
0.0
 13
0.0
 23
0.0
 33
0.0
 16
1.0
 26
0.0
 36
0.0
 17
0.0
 27
1.0
 37
0.0
 76
     0
330
74
  0
LAYOUT
  5
73
102
{ACAD_REACTORS
330
62
102
}
330
62
100
AcDbPlotSettings
  1

  2

  4

  6

 40
0.0
 41
0.0
 42
0.0
 43
0.0
 44
0.0
 45
0.0
 46
0.0
 47
0.0
 48
0.0
 49
0.0
140
0.0
141
0.0
142
1.0
143
1.0
 70
  1712
 72
     0
 73
     0
 74
     0
  7

 75
     0
147
1.0
 76
     0
 77
     2
 78
   300
148
0.0
149
0.0
100
AcDbLayout
  1
Model
 70
     1
 71
     0
 10
0.0
 20
0.0
 11
12.0
 21
9.0
 12
0.0
 22
0.0
 32
0.0
 14
0.0
 24
0.0
 34
0.0
 15
0.0
 25
0.0
 35
0.0
146
0.0
 13
0.0
 23
0.0
 33
0.0
 16
1.0
 26
0.0
 36
0.0
 17
0.0
 27
1.0
 37
0.0
 76
     0
330
70
  0
MATERIAL
  5
19
102
{ACAD_XDICTIONARY
360
1A
102
}
102
{ACAD_REACTORS
330
10
102
}
330
10
100
AcDbMaterial
  1
ByBlock
 72
     0
 43
0.0208333333333333
 43
0.0
 43
0.0
 43
0.0
 43
0.0
 43
0.0208333333333333
 43
0.0
 43
0.0
 43
0.0
 43
0.0
 43
1.0
 43
0.0
 43
0.0
 43
0.0
 43
0.0
 43
1.0
 77
     0
 47
0.0208333333333333
 47
0.0
 47
0.0
 47
0.0
 47
0.0
 47
0.0208333333333333
 47
0.0
 47
0.0
 47
0.0
 47
0.0
 47
1.0
 47
0.0
 47
0.0
 47
0.0
 47
0.0
 47
1.0
171
     0
 49
0.0208333333333333
 49
0.0
 49
0.0
 49
0.0
 49
0.0
 49
0.0208333333333333
 49
0.0
 49
0.0
 49
0.0
 49
0.0
 49
1.0
 49
0.0
 49
0.0
 49
0.0
 49
0.0
 49
1.0
175
     0
142
0.0208333333333333
142
0.0
142
0.0
142
0.0
142
0.0
142
0.0208333333333333
142
0.0
142
0.0
142
0.0
142
0.0
142
1.0
142
0.0
142
0.0
142
0.0
142
0.0
142
1.0
179
     0
144
0.0208333333333333
144
0.0
144
0.0
144
0.0
144
0.0
144
0.0208333333333333
144
0.0
144
0.0
144
0.0
144
0.0
144
1.0
144
0.0
144
0.0
144
0.0
144
0.0
144
1.0
147
0.0208333333333333
147
0.0
147
0.0
147
0.0
147
0.0
147
0.0208333333333333
147
0.0
147
0.0
147
0.0
147
0.0
147
1.0
147
0.0
147
0.0
147
0.0
147
0.0
147
1.0
  0
MATERIAL
  5
11
102
{ACAD_XDICTIONARY
360
12
102
}
102
{ACAD_REACTORS
330
10
102
}
330
10
100
AcDbMaterial
  1
ByLayer
 72
     0
 43
0.0208333333333333
 43
0.0
 43
0.0
 43
0.0
 43
0.0
 43
0.0208333333333333
 43
0.0
 43
0.0
 43
0.0
 43
0.0
 43
1.0
 43
0.0
 43
0.0
 43
0.0
 43
0.0
 43
1.0
 77
     0
 47
0.0208333333333333
 47
0.0
 47
0.0
 47
0.0
 47
0.0
 47
0.0208333333333333
 47
0.0
 47
0.0
 47
0.0
 47
0.0
 47
1.0
 47
0.0
 47
0.0
 47
0.0
 47
0.0
 47
1.0
171
     0
 49
0.0208333333333333
 49
0.0
 49
0.0
 49
0.0
 49
0.0
 49
0.0208333333333333
 49
0.0
 49
0.0
 49
0.0
 49
0.0
 49
1.0
 49
0.0
 49
0.0
 49
0.0
 49
0.0
 49
1.0
175
     0
142
0.0208333333333333
142
0.0
142
0.0
142
0.0
142
0.0
142
0.0208333333333333
142
0.0
142
0.0
142
0.0
142
0.0
142
1.0
142
0.0
142
0.0
142
0.0
142
0.0
142
1.0
179
     0
144
0.0208333333333333
144
0.0
144
0.0
144
0.0
144
0.0
144
0.0208333333333333
144
0.0
144
0.0
144
0.0
144
0.0
144
1.0
144
0.0
144
0.0
144
0.0
144
0.0
144
1.0
147
0.0208333333333333
147
0.0
147
0.0
147
0.0
147
0.0
147
0.0208333333333333
147
0.0
147
0.0
147
0.0
147
0.0
147
1.0
147
0.0
147
0.0
147
0.0
147
0.0
147
1.0
  0
MATERIAL
  5
21
102
{ACAD_XDICTIONARY
360
22
102
}
102
{ACAD_REACTORS
330
10
102
}
330
10
100
AcDbMaterial
  1
Global
 72
     0
 43
0.0208333333333333
 43
0.0
 43
0.0
 43
0.0
 43
0.0
 43
0.0208333333333333
 43
0.0
 43
0.0
 43
0.0
 43
0.0
 43
1.0
 43
0.0
 43
0.0
 43
0.0
 43
0.0
 43
1.0
 77
     0
 47
0.0208333333333333
 47
0.0
 47
0.0
 47
0.0
 47
0.0
 47
0.0208333333333333
 47
0.0
 47
0.0
 47
0.0
 47
0.0
 47
1.0
 47
0.0
 47
0.0
 47
0.0
 47
0.0
 47
1.0
171
     0
 49
0.0208333333333333
 49
0.0
 49
0.0
 49
0.0
 49
0.0
 49
0.0208333333333333
 49
0.0
 49
0.0
 49
0.0
 49
0.0
 49
1.0
 49
0.0
 49
0.0
 49
0.0
 49
0.0
 49
1.0
175
     0
142
0.0208333333333333
142
0.0
142
0.0
142
0.0
142
0.0
142
0.0208333333333333
142
0.0
142
0.0
142
0.0
142
0.0
142
1.0
142
0.0
142
0.0
142
0.0
142
0.0
142
1.0
179
     0
144
0.0208333333333333
144
0.0
144
0.0
144
0.0
144
0.0
144
0.0208333333333333
144
0.0
144
0.0
144
0.0
144
0.0
144
1.0
144
0.0
144
0.0
144
0.0
144
0.0
144
1.0
147
0.0208333333333333
147
0.0
147
0.0
147
0.0
147
0.0
147
0.0208333333333333
147
0.0
147
0.0
147
0.0
147
0.0
147
1.0
147
0.0
147
0.0
147
0.0
147
0.0
147
1.0
  0
MLEADERSTYLE
  5
67
102
{ACAD_REACTORS
330
66
102
}
330
66
100
AcDbMLeaderStyle
179
     2
170
     2
171
     1
172
     0
 90
        2
 40
0.0
 41
0.0
173
     1
 91
-1056964608
340
5B
 92
       -2
290
     1
 42
0.09
291
     1
 43
0.36
  3
Standard
 44
0.18
300

342
55
174
     1
178
     6
175
     1
176
     0
 93
-1056964608
 45
0.18
292
     0
297
     0
 46
0.18
 94
-1056964608
 47
1.0
 49
1.0
140
1.0
293
     1
141
0.0
294
     1
177
     0
142
1.0
295
     1
296
     0
143
0.125
271
     0
272
     9
273
     9
298
     1
  0
MLINESTYLE
  5
60
102
{ACAD_REACTORS
330
5F
102
}
330
5F
100
AcDbMlineStyle
  2
STANDARD
 70
     0
  3

 62
   256
 51
90.0
 52
90.0
 71
     2
 49
0.5
 62
   256
  6
BYLAYER
 49
-0.5
 62
   256
  6
BYLAYER
  0
ACDBPLACEHOLDER
  5
F
102
{ACAD_REACTORS
330
E
102
}
330
E
  0
SCALE
  5
43
102
{ACAD_REACTORS
330
42
102
}
330
42
100
AcDbScale
 70
     0
300
1:1
140
1.0
141
1.0
290
     1
  0
SCALE
  5
44
102
{ACAD_REACTORS
330
42
102
}
330
42
100
AcDbScale
 70
     0
300
1/128" = 1'-0"
140
0.0078125
141
12.0
290
     0
  0
SCALE
  5
45
102
{ACAD_REACTORS
330
42
102
}
330
42
100
AcDbScale
 70
     0
300
1/64" = 1'-0"
140
0.015625
141
12.0
290
     0
  0
SCALE
  5
46
102
{ACAD_REACTORS
330
42
102
}
330
42
100
AcDbScale
 70
     0
300
1/32" = 1'-0"
140
0.03125
141
12.0
290
     0
  0
SCALE
  5
47
102
{ACAD_REACTORS
330
42
102
}
330
42
100
AcDbScale
 70
     0
300
1/16" = 1'-0"
140
0.0625
141
12.0
290
     0
  0
SCALE
  5
48
102
{ACAD_REACTORS
330
42
102
}
330
42
100
AcDbScale
 70
     0
300
3/32" = 1'-0"
140
0.09375
141
12.0
290
     0
  0
SCALE
  5
49
102
{ACAD_REACTORS
330
42
102
}
330
42
100
AcDbScale
 70
     0
300
1/8" = 1'-0"
140
0.125
141
12.0
290
     0
  0
SCALE
  5
4A
102
{ACAD_REACTORS
330
42
102
}
330
42
100
AcDbScale
 70
     0
300
3/16" = 1'-0"
140
0.1875
141
12.0
290
     0
  0
SCALE
  5
4B
102
{ACAD_REACTORS
330
42
102
}
330
42
100
AcDbScale
 70
     0
300
1/4" = 1'-0"
140
0.25
141
12.0
290
     0
  0
SCALE
  5
4C
102
{ACAD_REACTORS
330
42
102
}
330
42
100
AcDbScale
 70
     0
300
3/8" = 1'-0"
140
0.375
141
12.0
290
     0
  0
SCALE
  5
4D
102
{ACAD_REACTORS
330
42
102
}
330
42
100
AcDbScale
 70
     0
300
1/2" = 1'-0"
140
0.5
141
12.0
290
     0
  0
SCALE
  5
4E
102
{ACAD_REACTORS
330
42
102
}
330
42
100
AcDbScale
 70
     0
300
3/4" = 1'-0"
140
0.75
141
12.0
290
     0
  0
SCALE
  5
4F
102
{ACAD_REACTORS
330
42
102
}
330
42
100
AcDbScale
 70
     0
300
1" = 1'-0"
140
1.0
141
12.0
290
     0
  0
SCALE
  5
50
102
{ACAD_REACTORS
330
42
102
}
330
42
100
AcDbScale
 70
     0
300
1-1/2" = 1'-0"
140
1.5
141
12.0
290
     0
  0
SCALE
  5
51
102
{ACAD_REACTORS
330
42
102
}
330
42
100
AcDbScale
 70
     0
300
3" = 1'-0"
140
3.0
141
12.0
290
     0
  0
SCALE
  5
52
102
{ACAD_REACTORS
330
42
102
}
330
42
100
AcDbScale
 70
     0
300
6" = 1'-0"
140
6.0
141
12.0
290
     0
  0
SCALE
  5
53
102
{ACAD_REACTORS
330
42
102
}
330
42
100
AcDbScale
 70
     0
300
1'-0" = 1'-0"
140
12.0
141
12.0
290
     0
  0
ACDBSECTIONVIEWSTYLE
  5
69
102
{ACAD_REACTORS
330
68
102
}
330
68
100
AcDbModelDocViewStyle
 70
     0
  3
Imperial24
290
     1
300
Imperial24
 90
        0
100
AcDbSectionViewStyle
 70
     0
 71
     0
 90
       78
 71
     1
340
55
 62
   256
 40
0.24
340
0
340
0
 62
   256
 40
0.24
300
I, O, Q, S, X, Z
 40
0.48
 90
        3
 40
0.18
 90
        1
 71
     2
340
5D
 90
       25
 62
   256
340
5D
 90
       50
 62
   256
 40
0.24
 40
0.0
 40
0.24
 71
     3
340
55
 62
   256
 40
0.24
 90
        1
 40
0.75
 90
        1
300
%<\AcVar ViewType \f "%tc1">% %<\AcVar ViewSectionStartId>%-%<\AcVar ViewSectionEndId>%\PSCALE %<\AcVar ViewScale \f "%sn">%
 71
     4
 62
   256
 62
   257
300
ANSI31
 40
1.0
 90
        0
290
     0
290
     0
 90
        6
 40
0.0
 40
1.570796326794896
 40
0.2617993877991494
 40
1.308996938995747
 40
-0.2617993877991494
 40
1.832595714594046
  0
TABLESTYLE
  5
65
102
{ACAD_XDICTIONARY
360
35E
102
}
102
{ACAD_REACTORS
330
64
102
}
330
64
100
AcDbTableStyle
280
     0
  3
Standard
 70
     0
 71
     0
 40
0.06
 41
0.06
280
     0
281
     0
  7
Standard
140
0.18
170
     2
 62
     0
 63
     7
283
     0
 90
      512
 91
        0
  1

274
    -2
284
     1
 64
     0
275
    -2
285
     1
 65
     0
276
    -2
286
     1
 66
     0
277
    -2
287
     1
 67
     0
278
    -2
288
     1
 68
     0
279
    -2
289
     1
 69
     0
  7
Standard
140
0.25
170
     5
 62
     0
 63
     7
283
     0
 90
      512
 91
        0
  1

274
    -2
284
     1
 64
     0
275
    -2
285
     1
 65
     0
276
    -2
286
     1
 66
     0
277
    -2
287
     1
 67
     0
278
    -2
288
     1
 68
     0
279
    -2
289
     1
 69
     0
  7
Standard
140
0.18
170
     5
 62
     0
 63
     7
283
     0
 90
      512
 91
        0
  1

274
    -2
284
     1
 64
     0
275
    -2
285
     1
 65
     0
276
    -2
286
     1
 66
     0
277
    -2
287
     1
 67
     0
278
    -2
288
     1
 68
     0
279
    -2
289
     1
 69
     0
  0
VISUALSTYLE
  5
2F
102
{ACAD_REACTORS
330
29
102
}
330
29
100
AcDbVisualStyle
  2
2dWireframe
 70
     4
177
     3
291
     0
 70
    58
 90
        0
176
     1
 90
        2
176
     1
 90
        0
176
     1
 90
        0
176
     1
 40
0.6
176
     1
 40
30.0
176
     1
 62
     7
420
 16777215
176
     1
 90
        1
176
     1
 90
        4
176
     1
 62
     7
176
     1
 62
   257
176
     1
 90
        1
176
     1
 90
        1
176
     1
 40
1.0
176
     1
 90
        0
176
     1
 62
   257
176
     1
 40
1.0
176
     1
 90
        1
176
     1
 90
        6
176
     1
 90
        2
176
     1
 62
     7
176
     1
 90
        5
176
     1
 90
        0
176
     1
 90
        0
176
     1
290
     0
176
     1
 90
        1
176
     1
 40
0.0
176
     1
 90
        0
176
     1
290
     1
176
     1
290
     1
176
     1
290
     0
176
     1
290
     0
176
     1
290
     0
176
     1
290
     0
176
     1
290
     0
176
     1
290
     0
176
     1
290
     0
176
     1
 90
       50
176
     1
 40
0.0
176
     1
 40
1.0
176
     1
 90
        0
176
     1
 62
    18
420
        0
176
     1
 90
       50
176
     1
 90
        3
176
     1
 62
     5
420
      255
176
     1
290
     0
176
     1
 90
       50
176
     1
 90
       50
176
     1
 90
       50
176
     1
290
     0
176
     1
 90
       50
176
     1
 62
   256
176
     0
 40
1.0
176
     0
 90
        2
176
     1
  1
strokes_ogs.tif
176
     1
290
     0
176
     1
 40
1.0
176
     1
 40
1.0
176
     1
  0
VISUALSTYLE
  5
2E
102
{ACAD_REACTORS
330
29
102
}
330
29
100
AcDbVisualStyle
  2
Basic
 70
     7
177
     3
291
     1
 70
    58
 90
        1
176
     1
 90
        0
176
     1
 90
        1
176
     1
 90
        0
176
     1
 40
0.6
176
     1
 40
30.0
176
     1
 62
     7
420
 16777215
176
     1
 90
        0
176
     1
 90
        4
176
     1
 62
     7
176
     1
 62
   257
176
     1
 90
        1
176
     1
 90
        1
176
     1
 40
1.0
176
     1
 90
        8
176
     1
 62
     7
176
     1
 40
1.0
176
     1
 90
        1
176
     1
 90
        6
176
     1
 90
        2
176
     1
 62
     7
176
     1
 90
        5
176
     1
 90
        0
176
     1
 90
        0
176
     1
290
     0
176
     1
 90
        1
176
     1
 40
0.0
176
     1
 90
        0
176
     1
290
     0
176
     1
290
     1
176
     1
290
     1
176
     1
290
     0
176
     1
290
     0
176
     1
290
     0
176
     1
290
     0
176
     1
290
     0
176
     1
290
     0
176
     1
 90
       50
176
     1
 40
0.0
176
     1
 40
1.0
176
     1
 90
        0
176
     1
 62
    18
420
        0
176
     1
 90
       50
176
     1
 90
        3
176
     1
 62
     5
420
      255
176
     1
290
     0
176
     1
 90
       50
176
     1
 90
       50
176
     1
 90
       50
176
     1
290
     0
176
     1
 90
       50
176
     1
 62
   256
176
     0
 40
1.0
176
     0
 90
        2
176
     1
  1
strokes_ogs.tif
176
     1
290
     0
176
     1
 40
1.0
176
     1
 40
1.0
176
     1
  0
VISUALSTYLE
  5
35
102
{ACAD_REACTORS
330
29
102
}
330
29
100
AcDbVisualStyle
  2
Brighten
 70
    12
177
     3
291
     1
 70
    58
 90
        2
176
     1
 90
        2
176
     1
 90
        0
176
     1
 90
        0
176
     1
 40
0.6
176
     1
 40
30.0
176
     1
 62
     7
420
 16777215
176
     1
 90
        1
176
     1
 90
        4
176
     1
 62
     7
176
     1
 62
   257
176
     1
 90
        1
176
     1
 90
        1
176
     1
 40
1.0
176
     1
 90
        8
176
     1
 62
     7
176
     1
 40
1.0
176
     1
 90
        1
176
     1
 90
        6
176
     1
 90
        2
176
     1
 62
     7
176
     1
 90
        5
176
     1
 90
        0
176
     1
 90
        0
176
     1
290
     0
176
     1
 90
        1
176
     1
 40
50.0
176
     1
 90
        0
176
     1
290
     0
176
     1
290
     1
176
     1
290
     1
176
     1
290
     0
176
     1
290
     0
176
     1
290
     0
176
     1
290
     0
176
     1
290
     0
176
     1
290
     0
176
     1
 90
       50
176
     1
 40
0.0
176
     1
 40
1.0
176
     1
 90
        0
176
     1
 62
    18
420
        0
176
     1
 90
       50
176
     1
 90
        3
176
     1
 62
     5
420
      255
176
     1
290
     0
176
     1
 90
       50
176
     1
 90
       50
176
     1
 90
       50
176
     1
290
     0
176
     1
 90
       50
176
     1
 62
   256
176
     0
 40
1.0
176
     0
 90
        2
176
     1
  1
strokes_ogs.tif
176
     1
290
     0
176
     1
 40
1.0
176
     1
 40
1.0
176
     1
  0
VISUALSTYLE
  5
39
102
{ACAD_REACTORS
330
29
102
}
330
29
100
AcDbVisualStyle
  2
ColorChange
 70
    16
177
     3
291
     1
 70
    58
 90
        2
176
     1
 90
        2
176
     1
 90
        3
176
     1
 90
        0
176
     1
 40
0.6
176
     1
 40
30.0
176
     1
 62
     8
420
  8421504
176
     1
 90
        1
176
     1
 90
        4
176
     1
 62
     7
176
     1
 62
   257
176
     1
 90
        1
176
     1
 90
        1
176
     1
 40
1.0
176
     1
 90
        8
176
     1
 62
     8
420
  8421504
176
     1
 40
1.0
176
     1
 90
        1
176
     1
 90
        6
176
     1
 90
        2
176
     1
 62
     7
176
     1
 90
        5
176
     1
 90
        0
176
     1
 90
        0
176
     1
290
     0
176
     1
 90
        1
176
     1
 40
0.0
176
     1
 90
        0
176
     1
290
     0
176
     1
290
     1
176
     1
290
     1
176
     1
290
     0
176
     1
290
     0
176
     1
290
     0
176
     1
290
     0
176
     1
290
     0
176
     1
290
     0
176
     1
 90
       50
176
     1
 40
0.0
176
     1
 40
1.0
176
     1
 90
        0
176
     1
 62
    18
420
        0
176
     1
 90
       50
176
     1
 90
        3
176
     1
 62
     5
420
      255
176
     1
290
     0
176
     1
 90
       50
176
     1
 90
       50
176
     1
 90
       50
176
     1
290
     0
176
     1
 90
       50
176
     1
 62
   256
176
     0
 40
1.0
176
     0
 90
        2
176
     1
  1
strokes_ogs.tif
176
     1
290
     0
176
     1
 40
1.0
176
     1
 40
1.0
176
     1
  0
VISUALSTYLE
  5
32
102
{ACAD_REACTORS
330
29
102
}
330
29
100
AcDbVisualStyle
  2
Conceptual
 70
     9
177
     3
291
     0
 70
    58
 90
        3
176
     1
 90
        2
176
     1
 90
        0
176
     1
 90
        0
176
     1
 40
0.6
176
     1
 40
30.0
176
     1
 62
     7
420
 16777215
176
     1
 90
        2
176
     1
 90
        2
176
     1
 62
     7
176
     1
 62
   257
176
     1
 90
        1
176
     1
 90
        1
176
     1
 40
179.0
176
     1
 90
        8
176
     1
 62
     7
176
     1
 40
1.0
176
     1
 90
        1
176
     1
 90
        6
176
     1
 90
        2
176
     1
 62
     7
176
     1
 90
        3
176
     1
 90
        0
176
     1
 90
        0
176
     1
290
     0
176
     1
 90
        1
176
     1
 40
0.0
176
     1
 90
        0
176
     1
290
     0
176
     1
290
     1
176
     1
290
     1
176
     1
290
     0
176
     1
290
     0
176
     1
290
     0
176
     1
290
     0
176
     1
290
     0
176
     1
290
     0
176
     1
 90
       50
176
     1
 40
0.0
176
     1
 40
1.0
176
     1
 90
        0
176
     1
 62
    18
420
        0
176
     1
 90
       50
176
     1
 90
        3
176
     1
 62
     5
420
      255
176
     1
290
     0
176
     1
 90
       50
176
     1
 90
       50
176
     1
 90
       50
176
     1
290
     0
176
     1
 90
       50
176
     1
 62
   256
176
     0
 40
1.0
176
     0
 90
        2
176
     1
  1
strokes_ogs.tif
176
     1
290
     0
176
     1
 40
1.0
176
     1
 40
1.0
176
     1
  0
VISUALSTYLE
  5
34
102
{ACAD_REACTORS
330
29
102
}
330
29
100
AcDbVisualStyle
  2
Dim
 70
    11
177
     3
291
     1
 70
    58
 90
        2
176
     1
 90
        2
176
     1
 90
        0
176
     1
 90
        0
176
     1
 40
0.6
176
     1
 40
30.0
176
     1
 62
     7
420
 16777215
176
     1
 90
        1
176
     1
 90
        4
176
     1
 62
     7
176
     1
 62
   257
176
     1
 90
        1
176
     1
 90
        1
176
     1
 40
1.0
176
     1
 90
        8
176
     1
 62
     7
176
     1
 40
1.0
176
     1
 90
        1
176
     1
 90
        6
176
     1
 90
        2
176
     1
 62
     7
176
     1
 90
        5
176
     1
 90
        0
176
     1
 90
        0
176
     1
290
     0
176
     1
 90
        1
176
     1
 40
-50.0
176
     1
 90
        0
176
     1
290
     0
176
     1
290
     1
176
     1
290
     1
176
     1
290
     0
176
     1
290
     0
176
     1
290
     0
176
     1
290
     0
176
     1
290
     0
176
     1
290
     0
176
     1
 90
       50
176
     1
 40
0.0
176
     1
 40
1.0
176
     1
 90
        0
176
     1
 62
    18
420
        0
176
     1
 90
       50
176
     1
 90
        3
176
     1
 62
     5
420
      255
176
     1
290
     0
176
     1
 90
       50
176
     1
 90
       50
176
     1
 90
       50
176
     1
290
     0
176
     1
 90
       50
176
     1
 62
   256
176
     0
 40
1.0
176
     0
 90
        2
176
     1
  1
strokes_ogs.tif
176
     1
290
     0
176
     1
 40
1.0
176
     1
 40
1.0
176
     1
  0
VISUALSTYLE
  5
41
102
{ACAD_REACTORS
330
29
102
}
330
29
100
AcDbVisualStyle
  2
EdgeColorOff
 70
    22
177
     3
291
     1
 70
    58
 90
        2
176
     0
 90
        2
176
     0
 90
        0
176
     0
 90
        0
176
     0
 40
0.6
176
     0
 40
30.0
176
     0
 62
     7
420
 16777215
176
     0
 90
        1
176
     0
 90
        4
176
     0
 62
     7
176
     0
 62
   257
176
     0
 90
        1
176
     0
 90
        1
176
     0
 40
1.0
176
     0
 90
        8
176
     2
 62
     7
176
     0
 40
1.0
176
     0
 90
        1
176
     0
 90
        6
176
     0
 90
        2
176
     0
 62
     7
176
     0
 90
        5
176
     0
 90
        0
176
     0
 90
        0
176
     0
290
     0
176
     0
 90
        1
176
     0
 40
0.0
176
     0
 90
        0
176
     0
290
     0
176
     0
290
     1
176
     0
290
     1
176
     0
290
     0
176
     0
290
     0
176
     0
290
     0
176
     0
290
     0
176
     0
290
     0
176
     0
290
     0
176
     0
 90
       50
176
     0
 40
0.0
176
     0
 40
1.0
176
     0
 90
        0
176
     0
 62
    18
420
        0
176
     0
 90
       50
176
     0
 90
        3
176
     0
 62
     5
420
      255
176
     0
290
     0
176
     0
 90
       50
176
     0
 90
       50
176
     0
 90
       50
176
     0
290
     0
176
     0
 90
       50
176
     0
 62
   256
176
     0
 40
1.0
176
     0
 90
        2
176
     0
  1
strokes_ogs.tif
176
     0
290
     0
176
     0
 40
1.0
176
     0
 40
1.0
176
     0
  0
VISUALSTYLE
  5
38
102
{ACAD_REACTORS
330
29
102
}
330
29
100
AcDbVisualStyle
  2
Facepattern
 70
    15
177
     3
291
     1
 70
    58
 90
        2
176
     1
 90
        2
176
     1
 90
        0
176
     1
 90
        0
176
     1
 40
0.6
176
     1
 40
30.0
176
     1
 62
     7
420
 16777215
176
     1
 90
        1
176
     1
 90
        4
176
     1
 62
     7
176
     1
 62
   257
176
     1
 90
        1
176
     1
 90
        1
176
     1
 40
1.0
176
     1
 90
        8
176
     1
 62
     7
176
     1
 40
1.0
176
     1
 90
        1
176
     1
 90
        6
176
     1
 90
        2
176
     1
 62
     7
176
     1
 90
        5
176
     1
 90
        0
176
     1
 90
        0
176
     1
290
     0
176
     1
 90
        1
176
     1
 40
0.0
176
     1
 90
        0
176
     1
290
     0
176
     1
290
     1
176
     1
290
     1
176
     1
290
     0
176
     1
290
     0
176
     1
290
     0
176
     1
290
     0
176
     1
290
     0
176
     1
290
     0
176
     1
 90
       50
176
     1
 40
0.0
176
     1
 40
1.0
176
     1
 90
        0
176
     1
 62
    18
420
        0
176
     1
 90
       50
176
     1
 90
        3
176
     1
 62
     5
420
      255
176
     1
290
     0
176
     1
 90
       50
176
     1
 90
       50
176
     1
 90
       50
176
     1
290
     0
176
     1
 90
       50
176
     1
 62
   256
176
     0
 40
1.0
176
     0
 90
        2
176
     1
  1
strokes_ogs.tif
176
     1
290
     0
176
     1
 40
1.0
176
     1
 40
1.0
176
     1
  0
VISUALSTYLE
  5
2A
102
{ACAD_REACTORS
330
29
102
}
330
29
100
AcDbVisualStyle
  2
Flat
 70
     0
177
     3
291
     1
 70
    58
 90
        2
176
     1
 90
        1
176
     1
 90
        1
176
     1
 90
        2
176
     1
 40
0.6
176
     1
 40
30.0
176
     1
 62
     7
420
 16777215
176
     1
 90
        0
176
     1
 90
        0
176
     1
 62
     7
176
     1
 62
   257
176
     1
 90
        1
176
     1
 90
        1
176
     1
 40
1.0
176
     1
 90
        8
176
     1
 62
     7
176
     1
 40
1.0
176
     1
 90
        1
176
     1
 90
        6
176
     1
 90
        2
176
     1
 62
     7
176
     1
 90
        5
176
     1
 90
        0
176
     1
 90
        0
176
     1
290
     0
176
     1
 90
       13
176
     1
 40
0.0
176
     1
 90
        0
176
     1
290
     0
176
     1
290
     1
176
     1
290
     1
176
     1
290
     0
176
     1
290
     0
176
     1
290
     0
176
     1
290
     0
176
     1
290
     0
176
     1
290
     0
176
     1
 90
       50
176
     1
 40
0.0
176
     1
 40
1.0
176
     1
 90
        0
176
     1
 62
    18
420
        0
176
     1
 90
       50
176
     1
 90
        3
176
     1
 62
     5
420
      255
176
     1
290
     0
176
     1
 90
       50
176
     1
 90
       50
176
     1
 90
       50
176
     1
290
     0
176
     1
 90
       50
176
     1
 62
   256
176
     0
 40
1.0
176
     0
 90
        2
176
     1
  1
strokes_ogs.tif
176
     1
290
     0
176
     1
 40
1.0
176
     1
 40
1.0
176
     1
  0
VISUALSTYLE
  5
2B
102
{ACAD_REACTORS
330
29
102
}
330
29
100
AcDbVisualStyle
  2
FlatWithEdges
 70
     1
177
     3
291
     1
 70
    58
 90
        2
176
     1
 90
        1
176
     1
 90
        1
176
     1
 90
        2
176
     1
 40
0.6
176
     1
 40
30.0
176
     1
 62
     7
420
 16777215
176
     1
 90
        1
176
     1
 90
        0
176
     1
 62
     7
176
     1
 62
   257
176
     1
 90
        1
176
     1
 90
        1
176
     1
 40
1.0
176
     1
 90
        0
176
     1
 62
   257
176
     1
 40
1.0
176
     1
 90
        1
176
     1
 90
        6
176
     1
 90
        2
176
     1
 62
     7
176
     1
 90
        5
176
     1
 90
        0
176
     1
 90
        0
176
     1
290
     0
176
     1
 90
       13
176
     1
 40
0.0
176
     1
 90
        0
176
     1
290
     0
176
     1
290
     1
176
     1
290
     1
176
     1
290
     0
176
     1
290
     0
176
     1
290
     0
176
     1
290
     0
176
     1
290
     0
176
     1
290
     0
176
     1
 90
       50
176
     1
 40
0.0
176
     1
 40
1.0
176
     1
 90
        0
176
     1
 62
    18
420
        0
176
     1
 90
       50
176
     1
 90
        3
176
     1
 62
     5
420
      255
176
     1
290
     0
176
     1
 90
       50
176
     1
 90
       50
176
     1
 90
       50
176
     1
290
     0
176
     1
 90
       50
176
     1
 62
   256
176
     0
 40
1.0
176
     0
 90
        2
176
     1
  1
strokes_ogs.tif
176
     1
290
     0
176
     1
 40
1.0
176
     1
 40
1.0
176
     1
  0
VISUALSTYLE
  5
2C
102
{ACAD_REACTORS
330
29
102
}
330
29
100
AcDbVisualStyle
  2
Gouraud
 70
     2
177
     3
291
     1
 70
    58
 90
        2
176
     1
 90
        2
176
     1
 90
        1
176
     1
 90
        2
176
     1
 40
0.6
176
     1
 40
30.0
176
     1
 62
     7
420
 16777215
176
     1
 90
        0
176
     1
 90
        0
176
     1
 62
     7
176
     1
 62
   257
176
     1
 90
        1
176
     1
 90
        1
176
     1
 40
1.0
176
     1
 90
        0
176
     1
 62
     7
176
     1
 40
1.0
176
     1
 90
        1
176
     1
 90
        6
176
     1
 90
        2
176
     1
 62
     7
176
     1
 90
        5
176
     1
 90
        0
176
     1
 90
        0
176
     1
290
     0
176
     1
 90
       13
176
     1
 40
0.0
176
     1
 90
        0
176
     1
290
     0
176
     1
290
     1
176
     1
290
     1
176
     1
290
     0
176
     1
290
     0
176
     1
290
     0
176
     1
290
     0
176
     1
290
     0
176
     1
290
     0
176
     1
 90
       50
176
     1
 40
0.0
176
     1
 40
1.0
176
     1
 90
        0
176
     1
 62
    18
420
        0
176
     1
 90
       50
176
     1
 90
        3
176
     1
 62
     5
420
      255
176
     1
290
     0
176
     1
 90
       50
176
     1
 90
       50
176
     1
 90
       50
176
     1
290
     0
176
     1
 90
       50
176
     1
 62
   256
176
     0
 40
1.0
176
     0
 90
        2
176
     1
  1
strokes_ogs.tif
176
     1
290
     0
176
     1
 40
1.0
176
     1
 40
1.0
176
     1
  0
VISUALSTYLE
  5
2D
102
{ACAD_REACTORS
330
29
102
}
330
29
100
AcDbVisualStyle
  2
GouraudWithEdges
 70
     3
177
     3
291
     1
 70
    58
 90
        2
176
     1
 90
        2
176
     1
 90
        1
176
     1
 90
        2
176
     1
 40
0.6
176
     1
 40
30.0
176
     1
 62
     7
420
 16777215
176
     1
 90
        1
176
     1
 90
        0
176
     1
 62
     7
176
     1
 62
   257
176
     1
 90
        1
176
     1
 90
        1
176
     1
 40
1.0
176
     1
 90
        0
176
     1
 62
   257
176
     1
 40
1.0
176
     1
 90
        1
176
     1
 90
        6
176
     1
 90
        2
176
     1
 62
     7
176
     1
 90
        5
176
     1
 90
        0
176
     1
 90
        0
176
     1
290
     0
176
     1
 90
       13
176
     1
 40
0.0
176
     1
 90
        0
176
     1
290
     0
176
     1
290
     1
176
     1
290
     1
176
     1
290
     0
176
     1
290
     0
176
     1
290
     0
176
     1
290
     0
176
     1
290
     0
176
     1
290
     0
176
     1
 90
       50
176
     1
 40
0.0
176
     1
 40
1.0
176
     1
 90
        0
176
     1
 62
    18
420
        0
176
     1
 90
       50
176
     1
 90
        3
176
     1
 62
     5
420
      255
176
     1
290
     0
176
     1
 90
       50
176
     1
 90
       50
176
     1
 90
       50
176
     1
290
     0
176
     1
 90
       50
176
     1
 62
   256
176
     0
 40
1.0
176
     0
 90
        2
176
     1
  1
strokes_ogs.tif
176
     1
290
     0
176
     1
 40
1.0
176
     1
 40
1.0
176
     1
  0
VISUALSTYLE
  5
31
102
{ACAD_REACTORS
330
29
102
}
330
29
100
AcDbVisualStyle
  2
Hidden
 70
     6
177
     3
291
     0
 70
    58
 90
        1
176
     1
 90
        2
176
     1
 90
        2
176
     1
 90
        0
176
     1
 40
0.6
176
     1
 40
30.0
176
     1
 62
     7
420
 16777215
176
     1
 90
        2
176
     1
 90
        2
176
     1
 62
     7
176
     1
 62
   257
176
     1
 90
        2
176
     1
 90
        1
176
     1
 40
40.0
176
     1
 90
        0
176
     1
 62
   257
176
     1
 40
1.0
176
     1
 90
        1
176
     1
 90
        6
176
     1
 90
        2
176
     1
 62
     7
176
     1
 90
        3
176
     1
 90
        0
176
     1
 90
        0
176
     1
290
     0
176
     1
 90
        1
176
     1
 40
0.0
176
     1
 90
        0
176
     1
290
     0
176
     1
290
     1
176
     1
290
     1
176
     1
290
     0
176
     1
290
     0
176
     1
290
     0
176
     1
290
     0
176
     1
290
     0
176
     1
290
     0
176
     1
 90
       50
176
     1
 40
0.0
176
     1
 40
1.0
176
     1
 90
        0
176
     1
 62
    18
420
        0
176
     1
 90
       50
176
     1
 90
        3
176
     1
 62
     5
420
      255
176
     1
290
     0
176
     1
 90
       50
176
     1
 90
       50
176
     1
 90
       50
176
     1
290
     0
176
     1
 90
       50
176
     1
 62
   256
176
     0
 40
1.0
176
     0
 90
        2
176
     1
  1
strokes_ogs.tif
176
     1
290
     0
176
     1
 40
1.0
176
     1
 40
1.0
176
     1
  0
VISUALSTYLE
  5
3F
102
{ACAD_REACTORS
330
29
102
}
330
29
100
AcDbVisualStyle
  2
JitterOff
 70
    20
177
     3
291
     1
 70
    58
 90
        2
176
     0
 90
        2
176
     0
 90
        0
176
     0
 90
        0
176
     0
 40
0.6
176
     0
 40
30.0
176
     0
 62
     7
420
 16777215
176
     0
 90
        1
176
     0
 90
        4
176
     0
 62
     7
176
     0
 62
   257
176
     0
 90
        1
176
     0
 90
        1
176
     0
 40
1.0
176
     0
 90
       10
176
     2
 62
     7
176
     0
 40
1.0
176
     0
 90
        1
176
     0
 90
        6
176
     0
 90
        2
176
     0
 62
     7
176
     0
 90
        5
176
     0
 90
        0
176
     0
 90
        0
176
     0
290
     0
176
     0
 90
        1
176
     0
 40
0.0
176
     0
 90
        0
176
     0
290
     0
176
     0
290
     1
176
     0
290
     1
176
     0
290
     0
176
     0
290
     0
176
     0
290
     0
176
     0
290
     0
176
     0
290
     0
176
     0
290
     0
176
     0
 90
       50
176
     0
 40
0.0
176
     0
 40
1.0
176
     0
 90
        0
176
     0
 62
    18
420
        0
176
     0
 90
       50
176
     0
 90
        3
176
     0
 62
     5
420
      255
176
     0
290
     0
176
     0
 90
       50
176
     0
 90
       50
176
     0
 90
       50
176
     0
290
     0
176
     0
 90
       50
176
     0
 62
   256
176
     0
 40
1.0
176
     0
 90
        2
176
     0
  1
strokes_ogs.tif
176
     0
290
     0
176
     0
 40
1.0
176
     0
 40
1.0
176
     0
  0
VISUALSTYLE
  5
37
102
{ACAD_REACTORS
330
29
102
}
330
29
100
AcDbVisualStyle
  2
Linepattern
 70
    14
177
     3
291
     1
 70
    58
 90
        2
176
     1
 90
        2
176
     1
 90
        0
176
     1
 90
        0
176
     1
 40
0.6
176
     1
 40
30.0
176
     1
 62
     7
420
 16777215
176
     1
 90
        1
176
     1
 90
        4
176
     1
 62
     7
176
     1
 62
   257
176
     1
 90
        7
176
     1
 90
        7
176
     1
 40
1.0
176
     1
 90
        8
176
     1
 62
     7
176
     1
 40
1.0
176
     1
 90
        1
176
     1
 90
        6
176
     1
 90
        2
176
     1
 62
     7
176
     1
 90
        5
176
     1
 90
        0
176
     1
 90
        0
176
     1
290
     0
176
     1
 90
        1
176
     1
 40
0.0
176
     1
 90
        0
176
     1
290
     0
176
     1
290
     1
176
     1
290
     1
176
     1
290
     0
176
     1
290
     0
176
     1
290
     0
176
     1
290
     0
176
     1
290
     0
176
     1
290
     0
176
     1
 90
       50
176
     1
 40
0.0
176
     1
 40
1.0
176
     1
 90
        0
176
     1
 62
    18
420
        0
176
     1
 90
       50
176
     1
 90
        3
176
     1
 62
     5
420
      255
176
     1
290
     0
176
     1
 90
       50
176
     1
 90
       50
176
     1
 90
       50
176
     1
290
     0
176
     1
 90
       50
176
     1
 62
   256
176
     0
 40
1.0
176
     0
 90
        2
176
     1
  1
strokes_ogs.tif
176
     1
290
     0
176
     1
 40
1.0
176
     1
 40
1.0
176
     1
  0
VISUALSTYLE
  5
40
102
{ACAD_REACTORS
330
29
102
}
330
29
100
AcDbVisualStyle
  2
OverhangOff
 70
    21
177
     3
291
     1
 70
    58
 90
        2
176
     0
 90
        2
176
     0
 90
        0
176
     0
 90
        0
176
     0
 40
0.6
176
     0
 40
30.0
176
     0
 62
     7
420
 16777215
176
     0
 90
        1
176
     0
 90
        4
176
     0
 62
     7
176
     0
 62
   257
176
     0
 90
        1
176
     0
 90
        1
176
     0
 40
1.0
176
     0
 90
        9
176
     2
 62
     7
176
     0
 40
1.0
176
     0
 90
        1
176
     0
 90
        6
176
     0
 90
        2
176
     0
 62
     7
176
     0
 90
        5
176
     0
 90
        0
176
     0
 90
        0
176
     0
290
     0
176
     0
 90
        1
176
     0
 40
0.0
176
     0
 90
        0
176
     0
290
     0
176
     0
290
     1
176
     0
290
     1
176
     0
290
     0
176
     0
290
     0
176
     0
290
     0
176
     0
290
     0
176
     0
290
     0
176
     0
290
     0
176
     0
 90
       50
176
     0
 40
0.0
176
     0
 40
1.0
176
     0
 90
        0
176
     0
 62
    18
420
        0
176
     0
 90
       50
176
     0
 90
        3
176
     0
 62
     5
420
      255
176
     0
290
     0
176
     0
 90
       50
176
     0
 90
       50
176
     0
 90
       50
176
     0
290
     0
176
     0
 90
       50
176
     0
 62
   256
176
     0
 40
1.0
176
     0
 90
        2
176
     0
  1
strokes_ogs.tif
176
     0
290
     0
176
     0
 40
1.0
176
     0
 40
1.0
176
     0
  0
VISUALSTYLE
  5
33
102
{ACAD_REACTORS
330
29
102
}
330
29
100
AcDbVisualStyle
  2
Realistic
 70
     8
177
     3
291
     0
 70
    58
 90
        2
176
     1
 90
        3
176
     1
 90
        0
176
     1
 90
        2
176
     1
 40
0.6
176
     1
 40
30.0
176
     1
 62
     7
420
 16777215
176
     1
 90
        0
176
     1
 90
        0
176
     1
 62
     7
176
     1
 62
   257
176
     1
 90
        1
176
     1
 90
        1
176
     1
 40
1.0
176
     1
 90
        8
176
     1
 62
   257
176
     1
 40
1.0
176
     1
 90
        1
176
     1
 90
        6
176
     1
 90
        2
176
     1
 62
     7
176
     1
 90
        3
176
     1
 90
        0
176
     1
 90
        0
176
     1
290
     0
176
     1
 90
       13
176
     1
 40
0.0
176
     1
 90
        0
176
     1
290
     0
176
     1
290
     1
176
     1
290
     1
176
     1
290
     0
176
     1
290
     0
176
     1
290
     0
176
     1
290
     0
176
     1
290
     0
176
     1
290
     0
176
     1
 90
       50
176
     1
 40
0.0
176
     1
 40
1.0
176
     1
 90
        0
176
     1
 62
    18
420
        0
176
     1
 90
       50
176
     1
 90
        3
176
     1
 62
     5
420
      255
176
     1
290
     0
176
     1
 90
       50
176
     1
 90
       50
176
     1
 90
       50
176
     1
290
     0
176
     1
 90
       50
176
     1
 62
   256
176
     0
 40
1.0
176
     0
 90
        2
176
     1
  1
strokes_ogs.tif
176
     1
290
     0
176
     1
 40
1.0
176
     1
 40
1.0
176
     1
  0
VISUALSTYLE
  5
3E
102
{ACAD_REACTORS
330
29
102
}
330
29
100
AcDbVisualStyle
  2
Shaded
 70
    27
177
     3
291
     0
 70
    58
 90
        2
176
     1
 90
        2
176
     1
 90
        1
176
     1
 90
        2
176
     1
 40
0.6
176
     1
 40
30.0
176
     1
 62
     7
420
 16777215
176
     1
 90
        0
176
     1
 90
        4
176
     1
 62
     7
176
     1
 62
   257
176
     1
 90
        1
176
     1
 90
        1
176
     1
 40
1.0
176
     1
 90
        8
176
     1
 62
   257
176
     1
 40
1.0
176
     1
 90
        1
176
     1
 90
        6
176
     1
 90
        2
176
     1
 62
     8
420
  7895160
176
     1
 90
        3
176
     1
 90
        0
176
     1
 90
        0
176
     1
290
     0
176
     1
 90
        5
176
     1
 40
0.0
176
     1
 90
        0
176
     1
290
     0
176
     1
290
     1
176
     1
290
     1
176
     1
290
     0
176
     1
290
     0
176
     1
290
     0
176
     1
290
     0
176
     1
290
     0
176
     1
290
     0
176
     1
 90
       50
176
     1
 40
0.0
176
     1
 40
1.0
176
     1
 90
        0
176
     1
 62
    18
420
        0
176
     1
 90
       50
176
     1
 90
        3
176
     1
 62
     5
420
      255
176
     1
290
     0
176
     1
 90
       50
176
     1
 90
       50
176
     1
 90
       50
176
     1
290
     0
176
     1
 90
       50
176
     1
 62
   256
176
     0
 40
1.0
176
     0
 90
        2
176
     1
  1
strokes_ogs.tif
176
     1
290
     0
176
     1
 40
1.0
176
     1
 40
1.0
176
     1
  0
VISUALSTYLE
  5
3D
102
{ACAD_REACTORS
330
29
102
}
330
29
100
AcDbVisualStyle
  2
Shaded with edges
 70
    26
177
     3
291
     0
 70
    58
 90
        2
176
     1
 90
        2
176
     1
 90
        1
176
     1
 90
        2
176
     1
 40
0.6
176
     1
 40
30.0
176
     1
 62
     7
420
 16777215
176
     1
 90
        1
176
     1
 90
        2
176
     1
 62
     7
176
     1
 62
   257
176
     1
 90
        2
176
     1
 90
        1
176
     1
 40
1.0
176
     1
 90
        8
176
     1
 62
   257
176
     1
 40
1.0
176
     1
 90
        1
176
     1
 90
        6
176
     1
 90
        2
176
     1
 62
     7
176
     1
 90
        3
176
     1
 90
        0
176
     1
 90
        0
176
     1
290
     0
176
     1
 90
        5
176
     1
 40
0.0
176
     1
 90
        0
176
     1
290
     0
176
     1
290
     1
176
     1
290
     1
176
     1
290
     0
176
     1
290
     0
176
     1
290
     0
176
     1
290
     0
176
     1
290
     0
176
     1
290
     0
176
     1
 90
       50
176
     1
 40
0.0
176
     1
 40
1.0
176
     1
 90
        0
176
     1
 62
    18
420
        0
176
     1
 90
       50
176
     1
 90
        3
176
     1
 62
     5
420
      255
176
     1
290
     0
176
     1
 90
       50
176
     1
 90
       50
176
     1
 90
       50
176
     1
290
     0
176
     1
 90
       50
176
     1
 62
   256
176
     0
 40
1.0
176
     0
 90
        2
176
     1
  1
strokes_ogs.tif
176
     1
290
     0
176
     1
 40
1.0
176
     1
 40
1.0
176
     1
  0
VISUALSTYLE
  5
3A
102
{ACAD_REACTORS
330
29
102
}
330
29
100
AcDbVisualStyle
  2
Shades of Gray
 70
    23
177
     3
291
     0
 70
    58
 90
        2
176
     1
 90
        2
176
     1
 90
        3
176
     1
 90
        0
176
     1
 40
0.6
176
     1
 40
30.0
176
     1
 62
     7
420
 16777215
176
     1
 90
        2
176
     1
 90
        2
176
     1
 62
     7
176
     1
 62
     7
176
     1
 90
        1
176
     1
 90
        1
176
     1
 40
40.0
176
     1
 90
        8
176
     1
 62
     7
176
     1
 40
1.0
176
     1
 90
        1
176
     1
 90
        6
176
     1
 90
        2
176
     1
 62
     7
176
     1
 90
        3
176
     1
 90
        0
176
     1
 90
        0
176
     1
290
     0
176
     1
 90
        1
176
     1
 40
0.0
176
     1
 90
        0
176
     1
290
     0
176
     1
290
     1
176
     1
290
     1
176
     1
290
     0
176
     1
290
     0
176
     1
290
     0
176
     1
290
     0
176
     1
290
     0
176
     1
290
     0
176
     1
 90
       50
176
     1
 40
0.0
176
     1
 40
1.0
176
     1
 90
        0
176
     1
 62
    18
420
        0
176
     1
 90
       50
176
     1
 90
        3
176
     1
 62
     5
420
      255
176
     1
290
     0
176
     1
 90
       50
176
     1
 90
       50
176
     1
 90
       50
176
     1
290
     0
176
     1
 90
       50
176
     1
 62
   256
176
     0
 40
1.0
176
     0
 90
        2
176
     1
  1
strokes_ogs.tif
176
     1
290
     0
176
     1
 40
1.0
176
     1
 40
1.0
176
     1
  0
VISUALSTYLE
  5
3B
102
{ACAD_REACTORS
330
29
102
}
330
29
100
AcDbVisualStyle
  2
Sketchy
 70
    24
177
     3
291
     0
 70
    58
 90
        1
176
     1
 90
        2
176
     1
 90
        2
176
     1
 90
        0
176
     1
 40
0.6
176
     1
 40
30.0
176
     1
 62
     7
420
 16777215
176
     1
 90
        2
176
     1
 90
        2
176
     1
 62
     7
176
     1
 62
     7
176
     1
 90
        1
176
     1
 90
        1
176
     1
 40
40.0
176
     1
 90
       11
176
     1
 62
     7
176
     1
 40
1.0
176
     1
 90
        1
176
     1
 90
        6
176
     1
 90
        2
176
     1
 62
     7
176
     1
 90
        6
176
     1
 90
        0
176
     1
 90
        0
176
     1
290
     0
176
     1
 90
        1
176
     1
 40
0.0
176
     1
 90
        0
176
     1
290
     0
176
     1
290
     1
176
     1
290
     1
176
     1
290
     0
176
     1
290
     0
176
     1
290
     0
176
     1
290
     0
176
     1
290
     0
176
     1
290
     0
176
     1
 90
       50
176
     1
 40
0.0
176
     1
 40
1.0
176
     1
 90
        0
176
     1
 62
    18
420
        0
176
     1
 90
       50
176
     1
 90
        3
176
     1
 62
     5
420
      255
176
     1
290
     0
176
     1
 90
       50
176
     1
 90
       50
176
     1
 90
       50
176
     1
290
     0
176
     1
 90
       50
176
     1
 62
   256
176
     0
 40
1.0
176
     0
 90
        2
176
     1
  1
strokes_ogs.tif
176
     1
290
     0
176
     1
 40
1.0
176
     1
 40
1.0
176
     1
  0
VISUALSTYLE
  5
36
102
{ACAD_REACTORS
330
29
102
}
330
29
100
AcDbVisualStyle
  2
Thicken
 70
    13
177
     3
291
     1
 70
    58
 90
        2
176
     1
 90
        2
176
     1
 90
        0
176
     1
 90
        0
176
     1
 40
0.6
176
     1
 40
30.0
176
     1
 62
     7
420
 16777215
176
     1
 90
        1
176
     1
 90
        4
176
     1
 62
     7
176
     1
 62
   257
176
     1
 90
        1
176
     1
 90
        1
176
     1
 40
1.0
176
     1
 90
       12
176
     1
 62
     7
176
     1
 40
1.0
176
     1
 90
        1
176
     1
 90
        6
176
     1
 90
        2
176
     1
 62
     7
176
     1
 90
        5
176
     1
 90
        0
176
     1
 90
        0
176
     1
290
     0
176
     1
 90
        1
176
     1
 40
0.0
176
     1
 90
        0
176
     1
290
     0
176
     1
290
     1
176
     1
290
     1
176
     1
290
     0
176
     1
290
     0
176
     1
290
     0
176
     1
290
     0
176
     1
290
     0
176
     1
290
     0
176
     1
 90
       50
176
     1
 40
0.0
176
     1
 40
1.0
176
     1
 90
        0
176
     1
 62
    18
420
        0
176
     1
 90
       50
176
     1
 90
        3
176
     1
 62
     5
420
      255
176
     1
290
     0
176
     1
 90
       50
176
     1
 90
       50
176
     1
 90
       50
176
     1
290
     0
176
     1
 90
       50
176
     1
 62
   256
176
     0
 40
1.0
176
     0
 90
        2
176
     1
  1
strokes_ogs.tif
176
     1
290
     0
176
     1
 40
1.0
176
     1
 40
1.0
176
     1
  0
VISUALSTYLE
  5
30
102
{ACAD_REACTORS
330
29
102
}
330
29
100
AcDbVisualStyle
  2
Wireframe
 70
     5
177
     3
291
     0
 70
    58
 90
        0
176
     1
 90
        2
176
     1
 90
        0
176
     1
 90
        0
176
     1
 40
0.6
176
     1
 40
30.0
176
     1
 62
     7
420
 16777215
176
     1
 90
        1
176
     1
 90
        4
176
     1
 62
     7
176
     1
 62
   257
176
     1
 90
        1
176
     1
 90
        1
176
     1
 40
1.0
176
     1
 90
        0
176
     1
 62
   257
176
     1
 40
1.0
176
     1
 90
        1
176
     1
 90
        6
176
     1
 90
        2
176
     1
 62
     7
176
     1
 90
        3
176
     1
 90
        0
176
     1
 90
        0
176
     1
290
     0
176
     1
 90
        1
176
     1
 40
0.0
176
     1
 90
        0
176
     1
290
     0
176
     1
290
     1
176
     1
290
     1
176
     1
290
     0
176
     1
290
     0
176
     1
290
     0
176
     1
290
     0
176
     1
290
     0
176
     1
290
     0
176
     1
 90
       50
176
     1
 40
0.0
176
     1
 40
1.0
176
     1
 90
        0
176
     1
 62
    18
420
        0
176
     1
 90
       50
176
     1
 90
        3
176
     1
 62
     5
420
      255
176
     1
290
     0
176
     1
 90
       50
176
     1
 90
       50
176
     1
 90
       50
176
     1
290
     0
176
     1
 90
       50
176
     1
 62
   256
176
     0
 40
1.0
176
     0
 90
        2
176
     1
  1
strokes_ogs.tif
176
     1
290
     0
176
     1
 40
1.0
176
     1
 40
1.0
176
     1
  0
VISUALSTYLE
  5
3C
102
{ACAD_REACTORS
330
29
102
}
330
29
100
AcDbVisualStyle
  2
X-Ray
 70
    25
177
     3
291
     0
 70
    58
 90
        2
176
     1
 90
        2
176
     1
 90
        1
176
     1
 90
        1
176
     1
 40
0.5
176
     1
 40
30.0
176
     1
 62
     7
420
 16777215
176
     1
 90
        1
176
     1
 90
        0
176
     1
 62
     7
176
     1
 62
   257
176
     1
 90
        1
176
     1
 90
        1
176
     1
 40
1.0
176
     1
 90
        8
176
     1
 62
     7
176
     1
 40
1.0
176
     1
 90
        1
176
     1
 90
        6
176
     1
 90
        2
176
     1
 62
     7
176
     1
 90
        3
176
     1
 90
        0
176
     1
 90
        0
176
     1
290
     0
176
     1
 90
       13
176
     1
 40
0.0
176
     1
 90
        0
176
     1
290
     0
176
     1
290
     1
176
     1
290
     1
176
     1
290
     0
176
     1
290
     0
176
     1
290
     0
176
     1
290
     0
176
     1
290
     0
176
     1
290
     0
176
     1
 90
       50
176
     1
 40
0.0
176
     1
 40
1.0
176
     1
 90
        0
176
     1
 62
    18
420
        0
176
     1
 90
       50
176
     1
 90
        3
176
     1
 62
     5
420
      255
176
     1
290
     0
176
     1
 90
       50
176
     1
 90
       50
176
     1
 90
       50
176
     1
290
     0
176
     1
 90
       50
176
     1
 62
   256
176
     0
 40
1.0
176
     0
 90
        2
176
     1
  1
strokes_ogs.tif
176
     1
290
     0
176
     1
 40
1.0
176
     1
 40
1.0
176
     1
  0
DICTIONARYVAR
  5
35D
102
{ACAD_REACTORS
330
358
102
}
330
358
100
DictionaryVariables
280
     0
  1
1:1
  0
DICTIONARYVAR
  5
35A
102
{ACAD_REACTORS
330
358
102
}
330
358
100
DictionaryVariables
280
     0
  1
STANDARD
  0
DICTIONARYVAR
  5
359
102
{ACAD_REACTORS
330
358
102
}
330
358
100
DictionaryVariables
280
     0
  1
STANDARD
  0
DICTIONARYVAR
  5
35B
102
{ACAD_REACTORS
330
358
102
}
330
358
100
DictionaryVariables
280
     0
  1
Imperial24
  0
DICTIONARYVAR
  5
35C
102
{ACAD_REACTORS
330
358
102
}
330
358
100
DictionaryVariables
280
     0
  1
Imperial24
  0
DICTIONARY
  5
1A
330
19
100
AcDbDictionary
280
     1
281
     1
  3
BUMPTILE
360
1C
  3
DIFFUSETILE
360
1B
  3
OPACITYTILE
360
1F
  3
REFLECTIONTILE
360
1E
  3
REFRACTIONTILE
360
20
  3
SPECULARTILE
360
1D
  0
DICTIONARY
  5
12
330
11
100
AcDbDictionary
280
     1
281
     1
  3
BUMPTILE
360
14
  3
DIFFUSETILE
360
13
  3
OPACITYTILE
360
17
  3
REFLECTIONTILE
360
16
  3
REFRACTIONTILE
360
18
  3
SPECULARTILE
360
15
  0
DICTIONARY
  5
22
330
21
100
AcDbDictionary
280
     1
281
     1
  3
BUMPTILE
360
24
  3
DIFFUSETILE
360
23
  3
OPACITYTILE
360
27
  3
REFLECTIONTILE
360
26
  3
REFRACTIONTILE
360
28
  3
SPECULARTILE
360
25
  0
DICTIONARY
  5
35E
330
65
100
AcDbDictionary
280
     1
281
     1
  3
ACAD_ROUNDTRIP_2008_TABLESTYLE_CELLSTYLEMAP
360
35F
  0
XRECORD
  5
1C
102
{ACAD_REACTORS
330
1A
102
}
330
1A
100
AcDbXrecord
280
     1
270
     1
271
     1
  0
XRECORD
  5
1B
102
{ACAD_REACTORS
330
1A
102
}
330
1A
100
AcDbXrecord
280
     1
270
     1
271
     1
  0
XRECORD
  5
1F
102
{ACAD_REACTORS
330
1A
102
}
330
1A
100
AcDbXrecord
280
     1
270
     1
271
     1
  0
XRECORD
  5
1E
102
{ACAD_REACTORS
330
1A
102
}
330
1A
100
AcDbXrecord
280
     1
270
     1
271
     1
  0
XRECORD
  5
20
102
{ACAD_REACTORS
330
1A
102
}
330
1A
100
AcDbXrecord
280
     1
270
     1
271
     1
  0
XRECORD
  5
1D
102
{ACAD_REACTORS
330
1A
102
}
330
1A
100
AcDbXrecord
280
     1
270
     1
271
     1
  0
XRECORD
  5
14
102
{ACAD_REACTORS
330
12
102
}
330
12
100
AcDbXrecord
280
     1
270
     1
271
     1
  0
XRECORD
  5
13
102
{ACAD_REACTORS
330
12
102
}
330
12
100
AcDbXrecord
280
     1
270
     1
271
     1
  0
XRECORD
  5
17
102
{ACAD_REACTORS
330
12
102
}
330
12
100
AcDbXrecord
280
     1
270
     1
271
     1
  0
XRECORD
  5
16
102
{ACAD_REACTORS
330
12
102
}
330
12
100
AcDbXrecord
280
     1
270
     1
271
     1
  0
XRECORD
  5
18
102
{ACAD_REACTORS
330
12
102
}
330
12
100
AcDbXrecord
280
     1
270
     1
271
     1
  0
XRECORD
  5
15
102
{ACAD_REACTORS
330
12
102
}
330
12
100
AcDbXrecord
280
     1
270
     1
271
     1
  0
XRECORD
  5
24
102
{ACAD_REACTORS
330
22
102
}
330
22
100
AcDbXrecord
280
     1
270
     1
271
     1
  0
XRECORD
  5
23
102
{ACAD_REACTORS
330
22
102
}
330
22
100
AcDbXrecord
280
     1
270
     1
271
     1
  0
XRECORD
  5
27
102
{ACAD_REACTORS
330
22
102
}
330
22
100
AcDbXrecord
280
     1
270
     1
271
     1
  0
XRECORD
  5
26
102
{ACAD_REACTORS
330
22
102
}
330
22
100
AcDbXrecord
280
     1
270
     1
271
     1
  0
XRECORD
  5
28
102
{ACAD_REACTORS
330
22
102
}
330
22
100
AcDbXrecord
280
     1
270
     1
271
     1
  0
XRECORD
  5
25
102
{ACAD_REACTORS
330
22
102
}
330
22
100
AcDbXrecord
280
     1
270
     1
271
     1
  0
CELLSTYLEMAP
  5
35F
102
{ACAD_REACTORS
330
35E
102
}
330
35E
100
AcDbCellStyleMap
 90
        3
300
CELLSTYLE
  1
TABLEFORMAT_BEGIN
 90
        5
170
     1
 91
        0
 92
    32768
 62
   257
 93
        1
300
CONTENTFORMAT
  1
CONTENTFORMAT_BEGIN
 90
        0
 91
        0
 92
      512
 93
        0
300

 40
0.0
140
1.0
 94
        5
 62
     0
340
55
144
0.25
309
CONTENTFORMAT_END
171
     0
 94
        0
309
TABLEFORMAT_END
  1
CELLSTYLE_BEGIN
 90
        1
 91
        1
300
_TITLE
309
CELLSTYLE_END
300
CELLSTYLE
  1
TABLEFORMAT_BEGIN
 90
        5
170
     1
 91
        0
 92
        0
 62
   257
 93
        1
300
CONTENTFORMAT
  1
CONTENTFORMAT_BEGIN
 90
        0
 91
        0
 92
      512
 93
        0
300

 40
0.0
140
1.0
 94
        5
 62
     0
340
55
144
0.18
309
CONTENTFORMAT_END
171
     0
 94
        0
309
TABLEFORMAT_END
  1
CELLSTYLE_BEGIN
 90
        2
 91
        1
300
_HEADER
309
CELLSTYLE_END
300
CELLSTYLE
  1
TABLEFORMAT_BEGIN
 90
        5
170
     1
 91
        0
 92
        0
 62
   257
 93
        1
300
CONTENTFORMAT
  1
CONTENTFORMAT_BEGIN
 90
        0
 91
        0
 92
      512
 93
        0
300

 40
0.0
140
1.0
 94
        2
 62
     0
340
55
144
0.18
309
CONTENTFORMAT_END
171
     0
 94
        0
309
TABLEFORMAT_END
  1
CELLSTYLE_BEGIN
 90
        3
 91
        2
300
_DATA
309
CELLSTYLE_END
  0
ENDSEC
  0
EOF
