  0
SECTION
  2
HEADER
  9
$ACADVER
  1
AC1032
  9
$ACADMAINTVER
 90
      155
  9
$DWGCODEPAGE
  3
ANSI_1251
  9
$REQUIREDVERSIONS
160
                 0
  9
$INSBASE
 10
0.0
 20
0.0
 30
0.0
  9
$EXTMIN
 10
1.000000000000000E+20
 20
1.000000000000000E+20
 30
1.000000000000000E+20
  9
$EXTMAX
 10
-1.000000000000000E+20
 20
-1.000000000000000E+20
 30
-1.000000000000000E+20
  9
$LIMMIN
 10
0.0
 20
0.0
  9
$LIMMAX
 10
12.0
 20
9.0
  9
$ORTHOMODE
 70
     0
  9
$REGENMODE
 70
     1
  9
$FILLMODE
 70
     1
  9
$QTEXTMODE
 70
     0
  9
$MIRRTEXT
 70
     0
  9
$LTSCALE
 40
1.0
  9
$ATTMODE
 70
     1
  9
$TEXTSIZE
 40
0.2
  9
$TRACEWID
 40
0.05
  9
$TEXTSTYLE
  7
Standard
  9
$CLAYER
  8
0
  9
$CELTYPE
  6
ByLayer
  9
$CECOLOR
 62
   256
  9
$CELTSCALE
 40
1.0
  9
$DISPSILH
 70
     0
  9
$DIMSCALE
 40
1.0
  9
$DIMASZ
 40
0.18
  9
$DIMEXO
 40
0.0625
  9
$DIMDLI
 40
0.38
  9
$DIMRND
 40
0.0
  9
$DIMDLE
 40
0.0
  9
$DIMEXE
 40
0.18
  9
$DIMTP
 40
0.0
  9
$DIMTM
 40
0.0
  9
$DIMTXT
 40
0.18
  9
$DIMCEN
 40
0.09
  9
$DIMTSZ
 40
0.0
  9
$DIMTOL
 70
     0
  9
$DIMLIM
 70
     0
  9
$DIMTIH
 70
     1
  9
$DIMTOH
 70
     1
  9
$DIMSE1
 70
     0
  9
$DIMSE2
 70
     0
  9
$DIMTAD
 70
     0
  9
$DIMZIN
 70
     0
  9
$DIMBLK
  1

  9
$DIMASO
 70
     1
  9
$DIMSHO
 70
     1
  9
$DIMPOST
  1

  9
$DIMAPOST
  1

  9
$DIMALT
 70
     0
  9
$DIMALTD
 70
     2
  9
$DIMALTF
 40
25.4
  9
$DIMLFAC
 40
1.0
  9
$DIMTOFL
 70
     0
  9
$DIMTVP
 40
0.0
  9
$DIMTIX
 70
     0
  9
$DIMSOXD
 70
     0
  9
$DIMSAH
 70
     0
  9
$DIMBLK1
  1

  9
$DIMBLK2
  1

  9
$DIMSTYLE
  2
Standard
  9
$DIMCLRD
 70
     0
  9
$DIMCLRE
 70
     0
  9
$DIMCLRT
 70
     0
  9
$DIMTFAC
 40
1.0
  9
$DIMGAP
 40
0.09
  9
$DIMJUST
 70
     0
  9
$DIMSD1
 70
     0
  9
$DIMSD2
 70
     0
  9
$DIMTOLJ
 70
     1
  9
$DIMTZIN
 70
     0
  9
$DIMALTZ
 70
     0
  9
$DIMALTTZ
 70
     0
  9
$DIMUPT
 70
     0
  9
$DIMDEC
 70
     4
  9
$DIMTDEC
 70
     4
  9
$DIMALTU
 70
     2
  9
$DIMALTTD
 70
     2
  9
$DIMTXSTY
  7
Standard
  9
$DIMAUNIT
 70
     0
  9
$DIMADEC
 70
     0
  9
$DIMALTRND
 40
0.0
  9
$DIMAZIN
 70
     0
  9
$DIMDSEP
 70
    46
  9
$DIMATFIT
 70
     3
  9
$DIMFRAC
 70
     0
  9
$DIMLDRBLK
  1

  9
$DIMLUNIT
 70
     2
  9
$DIMLWD
 70
    -2
  9
$DIMLWE
 70
    -2
  9
$DIMTMOVE
 70
     0
  9
$DIMFXL
 40
1.0
  9
$DIMFXLON
 70
     0
  9
$DIMJOGANG
 40
0.7853981633974483
  9
$DIMTFILL
 70
     0
  9
$DIMTFILLCLR
 70
     0
  9
$DIMARCSYM
 70
     0
  9
$DIMLTYPE
  6

  9
$DIMLTEX1
  6

  9
$DIMLTEX2
  6

  9
$DIMTXTDIRECTION
 70
     0
  9
$LUNITS
 70
     2
  9
$LUPREC
 70
     4
  9
$SKETCHINC
 40
0.1
  9
$FILLETRAD
 40
0.0
  9
$AUNITS
 70
     0
  9
$AUPREC
 70
     0
  9
$MENU
  1
.
  9
$ELEVATION
 40
0.0
  9
$PELEVATION
 40
0.0
  9
$THICKNESS
 40
0.0
  9
$LIMCHECK
 70
     0
  9
$CHAMFERA
 40
0.0
  9
$CHAMFERB
 40
0.0
  9
$CHAMFERC
 40
0.0
  9
$CHAMFERD
 40
0.0
  9
$SKPOLY
 70
     0
  9
$TDCREATE
 40
2460539.668726852
  9
$TDUCREATE
 40
2460539.543726852
  9
$TDUPDATE
 40
2460539.668726852
  9
$TDUUPDATE
 40
2460539.543726852
  9
$TDINDWG
 40
0.0000000000
  9
$TDUSRTIMER
 40
0.0000000000
  9
$USRTIMER
 70
     1
  9
$ANGBASE
 50
0.0
  9
$ANGDIR
 70
     0
  9
$PDMODE
 70
     0
  9
$PDSIZE
 40
0.0
  9
$PLINEWID
 40
0.0
  9
$SPLFRAME
 70
     0
  9
$SPLINETYPE
 70
     6
  9
$SPLINESEGS
 70
     8
  9
$HANDSEED
  5
3CF
  9
$SURFTAB1
 70
     6
  9
$SURFTAB2
 70
     6
  9
$SURFTYPE
 70
     6
  9
$SURFU
 70
     6
  9
$SURFV
 70
     6
  9
$UCSBASE
  2

  9
$UCSNAME
  2

  9
$UCSORG
 10
0.0
 20
0.0
 30
0.0
  9
$UCSXDIR
 10
1.0
 20
0.0
 30
0.0
  9
$UCSYDIR
 10
0.0
 20
1.0
 30
0.0
  9
$UCSORTHOREF
  2

  9
$UCSORTHOVIEW
 70
     0
  9
$UCSORGTOP
 10
0.0
 20
0.0
 30
0.0
  9
$UCSORGBOTTOM
 10
0.0
 20
0.0
 30
0.0
  9
$UCSORGLEFT
 10
0.0
 20
0.0
 30
0.0
  9
$UCSORGRIGHT
 10
0.0
 20
0.0
 30
0.0
  9
$UCSORGFRONT
 10
0.0
 20
0.0
 30
0.0
  9
$UCSORGBACK
 10
0.0
 20
0.0
 30
0.0
  9
$PUCSBASE
  2

  9
$PUCSNAME
  2

  9
$PUCSORG
 10
0.0
 20
0.0
 30
0.0
  9
$PUCSXDIR
 10
1.0
 20
0.0
 30
0.0
  9
$PUCSYDIR
 10
0.0
 20
1.0
 30
0.0
  9
$PUCSORTHOREF
  2

  9
$PUCSORTHOVIEW
 70
     0
  9
$PUCSORGTOP
 10
0.0
 20
0.0
 30
0.0
  9
$PUCSORGBOTTOM
 10
0.0
 20
0.0
 30
0.0
  9
$PUCSORGLEFT
 10
0.0
 20
0.0
 30
0.0
  9
$PUCSORGRIGHT
 10
0.0
 20
0.0
 30
0.0
  9
$PUCSORGFRONT
 10
0.0
 20
0.0
 30
0.0
  9
$PUCSORGBACK
 10
0.0
 20
0.0
 30
0.0
  9
$USERI1
 70
     0
  9
$USERI2
 70
     0
  9
$USERI3
 70
     0
  9
$USERI4
 70
     0
  9
$USERI5
 70
     0
  9
$USERR1
 40
0.0
  9
$USERR2
 40
0.0
  9
$USERR3
 40
0.0
  9
$USERR4
 40
0.0
  9
$USERR5
 40
0.0
  9
$WORLDVIEW
 70
     1
  9
$SHADEDGE
 70
     3
  9
$SHADEDIF
 70
    70
  9
$TILEMODE
 70
     1
  9
$MAXACTVP
 70
    64
  9
$PINSBASE
 10
0.0
 20
0.0
 30
0.0
  9
$PLIMCHECK
 70
     0
  9
$PEXTMIN
 10
1.000000000000000E+20
 20
1.000000000000000E+20
 30
1.000000000000000E+20
  9
$PEXTMAX
 10
-1.000000000000000E+20
 20
-1.000000000000000E+20
 30
-1.000000000000000E+20
  9
$PLIMMIN
 10
0.0
 20
0.0
  9
$PLIMMAX
 10
12.0
 20
9.0
  9
$UNITMODE
 70
     0
  9
$VISRETAIN
 70
     1
  9
$PLINEGEN
 70
     0
  9
$PSLTSCALE
 70
     1
  9
$TREEDEPTH
 70
  3020
  9
$CMLSTYLE
  2
Standard
  9
$CMLJUST
 70
     0
  9
$CMLSCALE
 40
1.0
  9
$PROXYGRAPHICS
 70
     1
  9
$MEASUREMENT
 70
     0
  9
$CELWEIGHT
370
    -1
  9
$ENDCAPS
280
     0
  9
$JOINSTYLE
280
     0
  9
$LWDISPLAY
290
     1
  9
$INSUNITS
 70
     4
  9
$HYPERLINKBASE
  1

  9
$STYLESHEET
  1

  9
$XEDIT
290
     1
  9
$CEPSNTYPE
380
     0
  9
$PSTYLEMODE
290
     1
  9
$FINGERPRINTGUID
  2
{7117D5A4-C7CF-534F-9B03-19838BE76100}
  9
$VERSIONGUID
  2
{78B92EC4-F737-1A4F-BAE8-050215A4DB50}
  9
$EXTNAMES
290
     1
  9
$PSVPSCALE
 40
0.0
  9
$OLESTARTUP
290
     0
  9
$SORTENTS
280
   127
  9
$INDEXCTL
280
     0
  9
$HIDETEXT
280
     1
  9
$XCLIPFRAME
280
     2
  9
$HALOGAP
280
     0
  9
$OBSCOLOR
 70
   257
  9
$OBSLTYPE
280
     0
  9
$INTERSECTIONDISPLAY
280
     0
  9
$INTERSECTIONCOLOR
 70
   257
  9
$DIMASSOC
280
     2
  9
$PROJECTNAME
  1

  9
$CAMERADISPLAY
290
     0
  9
$LENSLENGTH
 40
50.0
  9
$CAMERAHEIGHT
 40
0.0
  9
$STEPSPERSEC
 40
2.0
  9
$STEPSIZE
 40
6.0
  9
$3DDWFPREC
 40
2.0
  9
$PSOLWIDTH
 40
0.25
  9
$PSOLHEIGHT
 40
4.0
  9
$LOFTANG1
 40
1.570796326794896
  9
$LOFTANG2
 40
1.570796326794896
  9
$LOFTMAG1
 40
0.0
  9
$LOFTMAG2
 40
0.0
  9
$LOFTPARAM
 70
     7
  9
$LOFTNORMALS
280
     1
  9
$LATITUDE
 40
37.795
  9
$LONGITUDE
 40
-122.394
  9
$NORTHDIRECTION
 40
0.0
  9
$TIMEZONE
 70
 -8000
  9
$LIGHTGLYPHDISPLAY
280
     1
  9
$TILEMODELIGHTSYNCH
280
     1
  9
$CMATERIAL
347
11
  9
$SOLIDHIST
280
     0
  9
$SHOWHIST
280
     1
  9
$DWFFRAME
280
     2
  9
$DGNFRAME
280
     0
  9
$REALWORLDSCALE
290
     1
  9
$INTERFERECOLOR
 62
     1
  9
$INTERFEREOBJVS
345
33
  9
$INTERFEREVPVS
346
30
  9
$CSHADOW
280
     0
  9
$SHADOWPLANELOCATION
 40
0.0
  0
ENDSEC
  0
SECTION
  2
CLASSES
  0
CLASS
  1
ACDBDICTIONARYWDFLT
  2
AcDbDictionaryWithDefault
  3
ObjectDBX Classes
 90
        0
 91
        1
280
     0
281
     0
  0
CLASS
  1
MATERIAL
  2
AcDbMaterial
  3
ObjectDBX Classes
 90
     1153
 91
        3
280
     0
281
     0
  0
CLASS
  1
VISUALSTYLE
  2
AcDbVisualStyle
  3
ObjectDBX Classes
 90
     4095
 91
       24
280
     0
281
     0
  0
CLASS
  1
SCALE
  2
AcDbScale
  3
ObjectDBX Classes
 90
     1153
 91
       17
280
     0
281
     0
  0
CLASS
  1
TABLESTYLE
  2
AcDbTableStyle
  3
ObjectDBX Classes
 90
     4095
 91
        1
280
     0
281
     0
  0
CLASS
  1
MLEADERSTYLE
  2
AcDbMLeaderStyle
  3
ACDB_MLEADERSTYLE_CLASS
 90
     4095
 91
        1
280
     0
281
     0
  0
CLASS
  1
ACDBSECTIONVIEWSTYLE
  2
AcDbSectionViewStyle
  3
ObjectDBX Classes
 90
     1025
 91
        1
280
     0
281
     0
  0
CLASS
  1
ACDBDETAILVIEWSTYLE
  2
AcDbDetailViewStyle
  3
ObjectDBX Classes
 90
     1025
 91
        1
280
     0
281
     0
  0
CLASS
  1
DICTIONARYVAR
  2
AcDbDictionaryVar
  3
ObjectDBX Classes
 90
        0
 91
        5
280
     0
281
     0
  0
CLASS
  1
CELLSTYLEMAP
  2
AcDbCellStyleMap
  3
ObjectDBX Classes
 90
     1152
 91
        1
280
     0
281
     0
  0
ENDSEC
  0
SECTION
  2
TABLES
  0
TABLE
  2
VPORT
  5
8
330
0
100
AcDbSymbolTable
 70
     1
  0
VPORT
  5
57
330
8
100
AcDbSymbolTableRecord
100
AcDbViewportTableRecord
  2
*Active
 70
     0
 10
0.0
 20
0.0
 11
1.0
 21
1.0
 12
0.0
 22
0.0
 13
0.0
 23
0.0
 14
1.0
 24
1.0
 15
0.0
 25
0.0
 16
0.0
 26
0.0
 36
1.0
 17
105.6535468009907
 27
-147.9782796564918
 37
0.0
 40
214.172459946457
 41
1.00113195111493
 42
50.0
 43
0.0
 44
0.0
 50
0.0
 51
0.0
 71
     0
 72
   100
 73
     1
 74
     0
 75
     1
 76
     0
 77
     0
 78
     0
281
     0
 65
     1
110
0.0
120
0.0
130
0.0
111
1.0
121
0.0
131
0.0
112
0.0
122
1.0
132
0.0
 79
     0
146
0.0
 60
     3
 61
     5
292
     1
282
     1
141
0.0
142
0.0
 63
   250
421
  3355443
  0
ENDTAB
  0
TABLE
  2
LTYPE
  5
5
330
0
100
AcDbSymbolTable
 70
     1
  0
LTYPE
  5
5B
330
5
100
AcDbSymbolTableRecord
100
AcDbLinetypeTableRecord
  2
ByBlock
 70
     0
  3

 72
    65
 73
     0
 40
0.0
  0
LTYPE
  5
5C
330
5
100
AcDbSymbolTableRecord
100
AcDbLinetypeTableRecord
  2
ByLayer
 70
     0
  3

 72
    65
 73
     0
 40
0.0
  0
LTYPE
  5
5D
330
5
100
AcDbSymbolTableRecord
100
AcDbLinetypeTableRecord
  2
Continuous
 70
     0
  3
Solid line
 72
    65
 73
     0
 40
0.0
  0
ENDTAB
  0
TABLE
  2
LAYER
  5
2
330
0
100
AcDbSymbolTable
 70
     2
  0
LAYER
  5
54
330
2
100
AcDbSymbolTableRecord
100
AcDbLayerTableRecord
  2
0
 70
     0
 62
     7
  6
Continuous
370
    -3
390
F
347
21
348
0
  0
LAYER
  5
78
330
2
100
AcDbSymbolTableRecord
100
AcDbLayerTableRecord
  2
Слой 1
 70
     0
 62
     7
  6
Continuous
370
     0
390
F
347
21
348
0
  0
ENDTAB
  0
TABLE
  2
STYLE
  5
3
330
0
100
AcDbSymbolTable
 70
     2
  0
STYLE
  5
55
330
3
100
AcDbSymbolTableRecord
100
AcDbTextStyleTableRecord
  2
Standard
 70
     0
 40
0.0
 41
1.0
 50
0.0
 71
     0
 42
0.2
  3
txt
  4

  0
STYLE
  5
5A
330
3
100
AcDbSymbolTableRecord
100
AcDbTextStyleTableRecord
  2
Annotative
 70
     0
 40
0.0
 41
1.0
 50
0.0
 71
     0
 42
0.2
  3
txt
  4

1001
AcadAnnotative
1000
AnnotativeData
1002
{
1070
     1
1070
     1
1002
}
  0
ENDTAB
  0
TABLE
  2
VIEW
  5
6
330
0
100
AcDbSymbolTable
 70
     0
  0
ENDTAB
  0
TABLE
  2
UCS
  5
7
330
0
100
AcDbSymbolTable
 70
     0
  0
ENDTAB
  0
TABLE
  2
APPID
  5
9
330
0
100
AcDbSymbolTable
 70
     2
  0
APPID
  5
56
330
9
100
AcDbSymbolTableRecord
100
AcDbRegAppTableRecord
  2
ACAD
 70
     0
  0
APPID
  5
5E
330
9
100
AcDbSymbolTableRecord
100
AcDbRegAppTableRecord
  2
AcadAnnotative
 70
     0
  0
ENDTAB
  0
TABLE
  2
DIMSTYLE
  5
A
330
0
100
AcDbSymbolTable
 70
     2
100
AcDbDimStyleTable
 71
     0
  0
DIMSTYLE
105
58
330
A
100
AcDbSymbolTableRecord
100
AcDbDimStyleTableRecord
  2
Standard
 70
     0
340
55
  0
DIMSTYLE
105
59
330
A
100
AcDbSymbolTableRecord
100
AcDbDimStyleTableRecord
  2
Annotative
 70
     0
340
55
1001
AcadAnnotative
1000
AnnotativeData
1002
{
1070
     1
1070
     1
1002
}
  0
ENDTAB
  0
TABLE
  2
BLOCK_RECORD
  5
1
330
0
100
AcDbSymbolTable
 70
     9
  0
BLOCK_RECORD
  5
70
330
1
100
AcDbSymbolTableRecord
100
AcDbBlockTableRecord
  2
*Model_Space
340
73
 70
     0
280
     1
281
     0
  0
BLOCK_RECORD
  5
6C
330
1
100
AcDbSymbolTableRecord
100
AcDbBlockTableRecord
  2
*Paper_Space
340
6F
 70
     0
280
     1
281
     0
  0
BLOCK_RECORD
  5
74
330
1
100
AcDbSymbolTableRecord
100
AcDbBlockTableRecord
  2
*Paper_Space0
340
77
 70
     0
280
     1
281
     0
  0
BLOCK_RECORD
  5
7A
330
1
100
AcDbSymbolTableRecord
100
AcDbBlockTableRecord
  2
Block_0
340
0
102
{BLKREFS
331
7B
102
}
 70
     0
280
     1
281
     0
  0
BLOCK_RECORD
  5
7E
330
1
100
AcDbSymbolTableRecord
100
AcDbBlockTableRecord
  2
Block_1
340
0
102
{BLKREFS
331
7F
102
}
 70
     0
280
     1
281
     0
  0
BLOCK_RECORD
  5
82
330
1
100
AcDbSymbolTableRecord
100
AcDbBlockTableRecord
  2
Block_2
340
0
102
{BLKREFS
331
83
102
}
 70
     0
280
     1
281
     0
  0
BLOCK_RECORD
  5
A1
330
1
100
AcDbSymbolTableRecord
100
AcDbBlockTableRecord
  2
Block_3
340
0
102
{BLKREFS
331
A2
102
}
 70
     0
280
     1
281
     0
  0
BLOCK_RECORD
  5
A7
330
1
100
AcDbSymbolTableRecord
100
AcDbBlockTableRecord
  2
Block_4
340
0
102
{BLKREFS
331
A8
102
}
 70
     0
280
     1
281
     0
  0
BLOCK_RECORD
  5
AE
330
1
100
AcDbSymbolTableRecord
100
AcDbBlockTableRecord
  2
Block_5
340
0
102
{BLKREFS
331
AF
102
}
 70
     0
280
     1
281
     0
  0
BLOCK_RECORD
  5
B5
330
1
100
AcDbSymbolTableRecord
100
AcDbBlockTableRecord
  2
Block_6
340
0
102
{BLKREFS
331
B6
102
}
 70
     0
280
     1
281
     0
  0
BLOCK_RECORD
  5
D2
330
1
100
AcDbSymbolTableRecord
100
AcDbBlockTableRecord
  2
Block_7
340
0
102
{BLKREFS
331
D3
102
}
 70
     0
280
     1
281
     0
  0
ENDTAB
  0
ENDSEC
  0
SECTION
  2
BLOCKS
  0
BLOCK
  5
71
330
70
100
AcDbEntity
  8
0
100
AcDbBlockBegin
  2
*Model_Space
 70
     0
 10
0.0
 20
0.0
 30
0.0
  3
*Model_Space
  1

  0
ENDBLK
  5
72
330
70
100
AcDbEntity
  8
0
100
AcDbBlockEnd
  0
BLOCK
  5
6D
330
6C
100
AcDbEntity
 67
     1
  8
0
100
AcDbBlockBegin
  2
*Paper_Space
 70
     0
 10
0.0
 20
0.0
 30
0.0
  3
*Paper_Space
  1

  0
ENDBLK
  5
6E
330
6C
100
AcDbEntity
 67
     1
  8
0
100
AcDbBlockEnd
  0
BLOCK
  5
75
330
74
100
AcDbEntity
 67
     1
  8
0
100
AcDbBlockBegin
  2
*Paper_Space0
 70
     0
 10
0.0
 20
0.0
 30
0.0
  3
*Paper_Space0
  1

  0
ENDBLK
  5
76
330
74
100
AcDbEntity
 67
     1
  8
0
100
AcDbBlockEnd
  0
BLOCK
  5
7C
330
7A
100
AcDbEntity
  8
0
100
AcDbBlockBegin
  2
Block_0
 70
     0
 10
0.0
 20
0.0
 30
0.0
  3
Block_0
  1

  0
INSERT
  5
7F
330
7A
100
AcDbEntity
  8
Слой 1
100
AcDbBlockReference
  2
Block_1
 10
0.0
 20
0.0
 30
0.0
  0
ENDBLK
  5
7D
330
7A
100
AcDbEntity
  8
0
100
AcDbBlockEnd
  0
BLOCK
  5
80
330
7E
100
AcDbEntity
  8
0
100
AcDbBlockBegin
  2
Block_1
 70
     0
 10
0.0
 20
0.0
 30
0.0
  3
Block_1
  1

  0
INSERT
  5
83
330
7E
100
AcDbEntity
  8
Слой 1
100
AcDbBlockReference
  2
Block_2
 10
0.0
 20
0.0
 30
0.0
  0
ENDBLK
  5
81
330
7E
100
AcDbEntity
  8
0
100
AcDbBlockEnd
  0
BLOCK
  5
84
330
82
100
AcDbEntity
  8
0
100
AcDbBlockBegin
  2
Block_2
 70
     0
 10
0.0
 20
0.0
 30
0.0
  3
Block_2
  1

  0
SPLINE
  5
86
330
82
100
AcDbEntity
  8
Слой 1
100
AcDbSpline
210
0.0
220
0.0
230
1.0
 70
     9
 71
     3
 72
    26
 73
    22
 74
     0
 42
0.0000000001
 43
0.0000000001
 40
0.0
 40
0.0
 40
0.0
 40
0.0
 40
1.0
 40
1.0
 40
1.0
 40
2.0
 40
2.0
 40
2.0
 40
3.0
 40
3.0
 40
3.0
 40
4.0
 40
4.0
 40
4.0
 40
5.0
 40
5.0
 40
5.0
 40
6.0
 40
6.0
 40
6.0
 40
7.0
 40
7.0
 40
7.0
 40
7.0
 10
180.2682137402014
 20
-71.66176649527891
 30
0.0
 10
180.091531519365
 20
-71.46628581436755
 30
0.0
 10
179.7654326127627
 20
-71.35376693246856
 30
0.0
 10
179.3750926876373
 20
-71.35376693246856
 30
0.0
 10
179.1923902988023
 20
-71.35376693246856
 30
0.0
 10
179.0029297858902
 20
-71.38021683187223
 30
0.0
 10
178.8270243609253
 20
-71.43004828699033
 30
0.0
 10
178.5718857571296
 20
-71.50174654587428
 30
0.0
 10
177.9664510553526
 20
-71.73579514177564
 30
0.0
 10
177.8509026695561
 20
-72.35179426739698
 30
0.0
 10
177.7852634184661
 20
-72.70282832145531
 30
0.0
 10
177.9943768669108
 20
-72.97459035688844
 30
0.0
 10
178.4254208956721
 20
-73.09841161870956
 30
0.0
 10
178.5681182971566
 20
-73.13915456213847
 30
0.0
 10
178.7349352104307
 20
-73.1618370015682
 30
0.0
 10
178.910840635395
 20
-73.1618370015682
 30
0.0
 10
179.4747555978735
 20
-73.1618370015682
 30
0.0
 10
180.1285070028196
 20
-72.93233266151192
 30
0.0
 10
180.3527679707487
 20
-72.36313548711216
 30
0.0
 10
180.4901054807223
 20
-72.01283938913127
 30
0.0
 10
180.382946490332
 20
-71.78861726099684
 30
0.0
 10
180.2682137402014
 20
-71.66176649527891
 30
0.0
  0
HATCH
  5
87
330
82
100
AcDbEntity
  8
Слой 1
 62
   254
420
 13421772
440
 33554687
100
AcDbHatch
 10
0.0
 20
0.0
 30
0.0
210
0.0
220
0.0
230
1.0
  2
SOLID
 70
     1
 71
     1
 91
        1
 92
        1
 93
        2
 72
     4
 94
        3
 73
     0
 74
     0
 95
       26
 96
       22
 40
0.0
 40
0.0
 40
0.0
 40
0.0
 40
1.0
 40
1.0
 40
1.0
 40
2.0
 40
2.0
 40
2.0
 40
3.0
 40
3.0
 40
3.0
 40
4.0
 40
4.0
 40
4.0
 40
5.0
 40
5.0
 40
5.0
 40
6.0
 40
6.0
 40
6.0
 40
7.0
 40
7.0
 40
7.0
 40
7.0
 10
180.2682137402014
 20
-71.66176649527891
 10
180.091531519365
 20
-71.46628581436755
 10
179.7654326127627
 20
-71.35376693246856
 10
179.3750926876373
 20
-71.35376693246856
 10
179.1923902988023
 20
-71.35376693246856
 10
179.0029297858902
 20
-71.38021683187223
 10
178.8270243609253
 20
-71.43004828699033
 10
178.5718857571296
 20
-71.50174654587428
 10
177.9664510553526
 20
-71.73579514177564
 10
177.8509026695561
 20
-72.35179426739698
 10
177.7852634184661
 20
-72.70282832145531
 10
177.9943768669108
 20
-72.97459035688844
 10
178.4254208956721
 20
-73.09841161870956
 10
178.5681182971566
 20
-73.13915456213847
 10
178.7349352104307
 20
-73.1618370015682
 10
178.910840635395
 20
-73.1618370015682
 10
179.4747555978735
 20
-73.1618370015682
 10
180.1285070028196
 20
-72.93233266151192
 10
180.3527679707487
 20
-72.36313548711216
 10
180.4901054807223
 20
-72.01283938913127
 10
180.382946490332
 20
-71.78861726099684
 10
180.2682137402014
 20
-71.66176649527891
 97
        0
 72
     1
 10
180.2682137402014
 20
-71.66176649527891
 11
180.2682137402014
 21
-71.66176649527891
 97
        0
 75
     2
 76
     1
 98
        1
 10
0.0
 20
0.0
450
        0
451
        0
460
0.0
461
0.0
452
        0
462
0.0
453
        0
470

  0
SPLINE
  5
88
330
82
100
AcDbEntity
  8
Слой 1
100
AcDbSpline
210
0.0
220
0.0
230
1.0
 70
     9
 71
     3
 72
    98
 73
    94
 74
     0
 42
0.0000000001
 43
0.0000000001
 40
0.0
 40
0.0
 40
0.0
 40
0.0
 40
1.0
 40
1.0
 40
1.0
 40
2.0
 40
2.0
 40
2.0
 40
3.0
 40
3.0
 40
3.0
 40
4.0
 40
4.0
 40
4.0
 40
5.0
 40
5.0
 40
5.0
 40
6.0
 40
6.0
 40
6.0
 40
7.0
 40
7.0
 40
7.0
 40
8.0
 40
8.0
 40
8.0
 40
9.0
 40
9.0
 40
9.0
 40
10.0
 40
10.0
 40
10.0
 40
11.0
 40
11.0
 40
11.0
 40
12.0
 40
12.0
 40
12.0
 40
13.0
 40
13.0
 40
13.0
 40
14.0
 40
14.0
 40
14.0
 40
15.0
 40
15.0
 40
15.0
 40
16.0
 40
16.0
 40
16.0
 40
17.0
 40
17.0
 40
17.0
 40
18.0
 40
18.0
 40
18.0
 40
19.0
 40
19.0
 40
19.0
 40
20.0
 40
20.0
 40
20.0
 40
21.0
 40
21.0
 40
21.0
 40
22.0
 40
22.0
 40
22.0
 40
23.0
 40
23.0
 40
23.0
 40
24.0
 40
24.0
 40
24.0
 40
25.0
 40
25.0
 40
25.0
 40
26.0
 40
26.0
 40
26.0
 40
27.0
 40
27.0
 40
27.0
 40
28.0
 40
28.0
 40
28.0
 40
29.0
 40
29.0
 40
29.0
 40
30.0
 40
30.0
 40
30.0
 40
31.0
 40
31.0
 40
31.0
 40
31.0
 10
173.0090563266681
 20
-73.19706469431401
 30
0.0
 10
172.9071407084062
 20
-73.13290135537761
 30
0.0
 10
172.7274678234677
 20
-73.07402022836339
 30
0.0
 10
172.4904285634629
 20
-73.02648032106532
 30
0.0
 10
172.4904285634629
 20
-73.02648032106532
 30
0.0
 10
172.4783493876699
 20
-73.02418877324561
 30
0.0
 10
172.4783493876699
 20
-73.02418877324561
 30
0.0
 10
172.4383055605257
 20
-73.01587705742694
 30
0.0
 10
172.3952710692781
 20
-73.00834213747906
 30
0.0
 10
172.3499838700047
 20
-73.00080721753214
 30
0.0
 10
172.3499838700047
 20
-73.00080721753214
 30
0.0
 10
172.3145231384986
 20
-72.99548616581595
 30
0.0
 10
172.3145231384986
 20
-72.99548616581595
 30
0.0
 10
172.279800363069
 20
-72.99020395389375
 30
0.0
 10
172.2443396315629
 20
-72.98418378589413
 30
0.0
 10
172.2065485124444
 20
-72.97890157397226
 30
0.0
 10
172.2065485124444
 20
-72.97890157397226
 30
0.0
 10
171.3897476541958
 20
-72.9124855270105
 30
0.0
 10
171.3897476541958
 20
-72.9124855270105
 30
0.0
 10
171.341430951026
 20
-72.91019397919176
 30
0.0
 10
171.2900847439596
 20
-72.90945602311431
 30
0.0
 10
171.2387385368926
 20
-72.90794127116575
 30
0.0
 10
171.2387385368926
 20
-72.90794127116575
 30
0.0
 10
171.1624960221652
 20
-72.90642651921782
 30
0.0
 10
171.1624960221652
 20
-72.90642651921782
 30
0.0
 10
171.004728780785
 20
-72.90339701532101
 30
0.0
 10
170.8325908157943
 20
-72.90339701532101
 30
0.0
 10
170.6642591505716
 20
-72.90642651921782
 30
0.0
 10
170.6642591505716
 20
-72.90642651921782
 30
0.0
 10
170.5962895118679
 20
-72.90794127116575
 30
0.0
 10
170.5962895118679
 20
-72.90794127116575
 30
0.0
 10
170.5261448447266
 20
-72.90945602311431
 30
0.0
 10
170.4559224979965
 20
-72.91170873114001
 30
0.0
 10
170.3728830193977
 20
-72.9147382350365
 30
0.0
 10
170.3728830193977
 20
-72.9147382350365
 30
0.0
 10
170.3434424558909
 20
-72.9154761911133
 30
0.0
 10
170.3434424558909
 20
-72.9154761911133
 30
0.0
 10
170.2596261814213
 20
-72.91928249088126
 30
0.0
 10
170.1765867028225
 20
-72.92378790693295
 30
0.0
 10
170.0942851803008
 20
-72.92833216277802
 30
0.0
 10
170.0942851803008
 20
-72.92833216277802
 30
0.0
 10
170.0512506890525
 20
-72.93132282688017
 30
0.0
 10
170.0512506890525
 20
-72.93132282688017
 30
0.0
 10
169.9795524301695
 20
-72.93586708272461
 30
0.0
 10
169.9093300834401
 20
-72.94037249877533
 30
0.0
 10
169.826329444635
 20
-72.94716946264641
 30
0.0
 10
169.826329444635
 20
-72.94716946264641
 30
0.0
 10
169.7968888811282
 20
-72.9494610104658
 30
0.0
 10
169.7968888811282
 20
-72.9494610104658
 30
0.0
 10
169.6315090402133
 20
-72.96305493820603
 30
0.0
 10
169.4722270468858
 20
-72.97963953004938
 30
0.0
 10
169.3212567693776
 20
-72.99855450950613
 30
0.0
 10
169.3212567693776
 20
-72.99855450950613
 30
0.0
 10
169.2948068699729
 20
-73.00154517360862
 30
0.0
 10
169.2948068699729
 20
-73.00154517360862
 30
0.0
 10
169.1385543805426
 20
-73.02193606522057
 30
0.0
 10
168.991351563008
 20
-73.04384170877948
 30
0.0
 10
168.8524216214977
 20
-73.06873801644184
 30
0.0
 10
168.6101001495708
 20
-73.11251046376662
 30
0.0
 10
168.4070457089185
 20
-73.16234191888407
 30
0.0
 10
168.2485016716694
 20
-73.21594083397674
 30
0.0
 10
168.0884817222641
 20
-73.27031654493928
 30
0.0
 10
167.9616309565461
 20
-73.39184625894164
 30
0.0
 10
167.9020118734542
 20
-73.55039029619108
 30
0.0
 10
167.9020118734542
 20
-73.55039029619108
 30
0.0
 10
166.5590094922607
 20
-77.1060568758421
 30
0.0
 10
166.5590094922607
 20
-77.1060568758421
 30
0.0
 10
166.5590094922607
 20
-77.1060568758421
 30
0.0
 10
168.84566349742
 20
-77.1060568758421
 30
0.0
 10
168.84566349742
 20
-77.1060568758421
 30
0.0
 10
168.84566349742
 20
-77.1060568758421
 30
0.0
 10
169.5462168535895
 20
-75.23992131539213
 30
0.0
 10
169.5462168535895
 20
-75.23992131539213
 30
0.0
 10
169.6715528673588
 20
-74.90923931315172
 30
0.0
 10
169.9621910424544
 20
-74.31359223934797
 30
0.0
 10
170.5027244492185
 20
-74.03957749588883
 30
0.0
 10
170.9903968969676
 20
-73.83046404744323
 30
0.0
 10
171.3255454754657
 20
-73.74893932079266
 30
0.0
 10
171.6992619689544
 20
-73.74893932079266
 30
0.0
 10
171.894004693788
 20
-73.74893932079266
 30
0.0
 10
172.1023801861568
 20
-73.77158292042932
 30
0.0
 10
172.3560428777984
 20
-73.81989962359885
 30
0.0
 10
172.400592120994
 20
-73.82821133941753
 30
0.0
 10
172.5402600185813
 20
-73.87198378674263
 30
0.0
 10
172.6701014484021
 20
-73.94896425754845
 30
0.0
 10
172.6701014484021
 20
-73.94896425754845
 30
0.0
 10
172.7984281262742
 20
-74.01615710038135
 30
0.0
 10
172.7984281262742
 20
-74.01615710038135
 30
0.0
 10
172.7984281262742
 20
-74.01615710038135
 30
0.0
 10
173.0950864693703
 20
-73.25066360940539
 30
0.0
 10
173.0950864693703
 20
-73.25066360940539
 30
0.0
 10
173.0950864693703
 20
-73.25066360940539
 30
0.0
 10
173.0090563266681
 20
-73.19706469431401
 30
0.0
 10
173.0090563266681
 20
-73.19706469431401
 30
0.0
  0
HATCH
  5
89
330
82
100
AcDbEntity
  8
Слой 1
 62
   254
420
 13421772
440
 33554687
100
AcDbHatch
 10
0.0
 20
0.0
 30
0.0
210
0.0
220
0.0
230
1.0
  2
SOLID
 70
     1
 71
     1
 91
        1
 92
        1
 93
        1
 72
     4
 94
        3
 73
     0
 74
     0
 95
       98
 96
       94
 40
0.0
 40
0.0
 40
0.0
 40
0.0
 40
1.0
 40
1.0
 40
1.0
 40
2.0
 40
2.0
 40
2.0
 40
3.0
 40
3.0
 40
3.0
 40
4.0
 40
4.0
 40
4.0
 40
5.0
 40
5.0
 40
5.0
 40
6.0
 40
6.0
 40
6.0
 40
7.0
 40
7.0
 40
7.0
 40
8.0
 40
8.0
 40
8.0
 40
9.0
 40
9.0
 40
9.0
 40
10.0
 40
10.0
 40
10.0
 40
11.0
 40
11.0
 40
11.0
 40
12.0
 40
12.0
 40
12.0
 40
13.0
 40
13.0
 40
13.0
 40
14.0
 40
14.0
 40
14.0
 40
15.0
 40
15.0
 40
15.0
 40
16.0
 40
16.0
 40
16.0
 40
17.0
 40
17.0
 40
17.0
 40
18.0
 40
18.0
 40
18.0
 40
19.0
 40
19.0
 40
19.0
 40
20.0
 40
20.0
 40
20.0
 40
21.0
 40
21.0
 40
21.0
 40
22.0
 40
22.0
 40
22.0
 40
23.0
 40
23.0
 40
23.0
 40
24.0
 40
24.0
 40
24.0
 40
25.0
 40
25.0
 40
25.0
 40
26.0
 40
26.0
 40
26.0
 40
27.0
 40
27.0
 40
27.0
 40
28.0
 40
28.0
 40
28.0
 40
29.0
 40
29.0
 40
29.0
 40
30.0
 40
30.0
 40
30.0
 40
31.0
 40
31.0
 40
31.0
 40
31.0
 10
173.0090563266681
 20
-73.19706469431401
 10
172.9071407084062
 20
-73.13290135537761
 10
172.7274678234677
 20
-73.07402022836339
 10
172.4904285634629
 20
-73.02648032106532
 10
172.4904285634629
 20
-73.02648032106532
 10
172.4783493876699
 20
-73.02418877324561
 10
172.4783493876699
 20
-73.02418877324561
 10
172.4383055605257
 20
-73.01587705742694
 10
172.3952710692781
 20
-73.00834213747906
 10
172.3499838700047
 20
-73.00080721753214
 10
172.3499838700047
 20
-73.00080721753214
 10
172.3145231384986
 20
-72.99548616581595
 10
172.3145231384986
 20
-72.99548616581595
 10
172.279800363069
 20
-72.99020395389375
 10
172.2443396315629
 20
-72.98418378589413
 10
172.2065485124444
 20
-72.97890157397226
 10
172.2065485124444
 20
-72.97890157397226
 10
171.3897476541958
 20
-72.9124855270105
 10
171.3897476541958
 20
-72.9124855270105
 10
171.341430951026
 20
-72.91019397919176
 10
171.2900847439596
 20
-72.90945602311431
 10
171.2387385368926
 20
-72.90794127116575
 10
171.2387385368926
 20
-72.90794127116575
 10
171.1624960221652
 20
-72.90642651921782
 10
171.1624960221652
 20
-72.90642651921782
 10
171.004728780785
 20
-72.90339701532101
 10
170.8325908157943
 20
-72.90339701532101
 10
170.6642591505716
 20
-72.90642651921782
 10
170.6642591505716
 20
-72.90642651921782
 10
170.5962895118679
 20
-72.90794127116575
 10
170.5962895118679
 20
-72.90794127116575
 10
170.5261448447266
 20
-72.90945602311431
 10
170.4559224979965
 20
-72.91170873114001
 10
170.3728830193977
 20
-72.9147382350365
 10
170.3728830193977
 20
-72.9147382350365
 10
170.3434424558909
 20
-72.9154761911133
 10
170.3434424558909
 20
-72.9154761911133
 10
170.2596261814213
 20
-72.91928249088126
 10
170.1765867028225
 20
-72.92378790693295
 10
170.0942851803008
 20
-72.92833216277802
 10
170.0942851803008
 20
-72.92833216277802
 10
170.0512506890525
 20
-72.93132282688017
 10
170.0512506890525
 20
-72.93132282688017
 10
169.9795524301695
 20
-72.93586708272461
 10
169.9093300834401
 20
-72.94037249877533
 10
169.826329444635
 20
-72.94716946264641
 10
169.826329444635
 20
-72.94716946264641
 10
169.7968888811282
 20
-72.9494610104658
 10
169.7968888811282
 20
-72.9494610104658
 10
169.6315090402133
 20
-72.96305493820603
 10
169.4722270468858
 20
-72.97963953004938
 10
169.3212567693776
 20
-72.99855450950613
 10
169.3212567693776
 20
-72.99855450950613
 10
169.2948068699729
 20
-73.00154517360862
 10
169.2948068699729
 20
-73.00154517360862
 10
169.1385543805426
 20
-73.02193606522057
 10
168.991351563008
 20
-73.04384170877948
 10
168.8524216214977
 20
-73.06873801644184
 10
168.6101001495708
 20
-73.11251046376662
 10
168.4070457089185
 20
-73.16234191888407
 10
168.2485016716694
 20
-73.21594083397674
 10
168.0884817222641
 20
-73.27031654493928
 10
167.9616309565461
 20
-73.39184625894164
 10
167.9020118734542
 20
-73.55039029619108
 10
167.9020118734542
 20
-73.55039029619108
 10
166.5590094922607
 20
-77.1060568758421
 10
166.5590094922607
 20
-77.1060568758421
 10
166.5590094922607
 20
-77.1060568758421
 10
168.84566349742
 20
-77.1060568758421
 10
168.84566349742
 20
-77.1060568758421
 10
168.84566349742
 20
-77.1060568758421
 10
169.5462168535895
 20
-75.23992131539213
 10
169.5462168535895
 20
-75.23992131539213
 10
169.6715528673588
 20
-74.90923931315172
 10
169.9621910424544
 20
-74.31359223934797
 10
170.5027244492185
 20
-74.03957749588883
 10
170.9903968969676
 20
-73.83046404744323
 10
171.3255454754657
 20
-73.74893932079266
 10
171.6992619689544
 20
-73.74893932079266
 10
171.894004693788
 20
-73.74893932079266
 10
172.1023801861568
 20
-73.77158292042932
 10
172.3560428777984
 20
-73.81989962359885
 10
172.400592120994
 20
-73.82821133941753
 10
172.5402600185813
 20
-73.87198378674263
 10
172.6701014484021
 20
-73.94896425754845
 10
172.6701014484021
 20
-73.94896425754845
 10
172.7984281262742
 20
-74.01615710038135
 10
172.7984281262742
 20
-74.01615710038135
 10
172.7984281262742
 20
-74.01615710038135
 10
173.0950864693703
 20
-73.25066360940539
 10
173.0950864693703
 20
-73.25066360940539
 10
173.0950864693703
 20
-73.25066360940539
 10
173.0090563266681
 20
-73.19706469431401
 10
173.0090563266681
 20
-73.19706469431401
 97
        0
 97
        1
330
88
 75
     2
 76
     1
 98
        1
 10
0.0
 20
0.0
450
        0
451
        0
460
0.0
461
0.0
452
        0
462
0.0
453
        0
470

  0
SPLINE
  5
8A
330
82
100
AcDbEntity
  8
Слой 1
100
AcDbSpline
210
0.0
220
0.0
230
1.0
 70
    11
 71
     3
 72
    26
 73
    22
 74
     0
 42
0.0000000001
 43
0.0000000001
 40
0.0
 40
0.0
 40
0.0
 40
0.0
 40
1.0
 40
1.0
 40
1.0
 40
2.0
 40
2.0
 40
2.0
 40
3.0
 40
3.0
 40
3.0
 40
4.0
 40
4.0
 40
4.0
 40
5.0
 40
5.0
 40
5.0
 40
6.0
 40
6.0
 40
6.0
 40
7.0
 40
7.0
 40
7.0
 40
7.0
 10
179.6659639014944
 20
-73.66535608508394
 30
0.0
 10
179.6047912266614
 20
-73.57474284674355
 30
0.0
 10
179.5029144481933
 20
-73.52118277144587
 30
0.0
 10
179.3941630262669
 20
-73.52118277144587
 30
0.0
 10
179.3941630262669
 20
-73.52118277144587
 30
0.0
 10
177.6955823351707
 20
-73.52118277144587
 30
0.0
 10
177.6955823351707
 20
-73.52118277144587
 30
0.0
 10
177.5612354892986
 20
-73.52118277144587
 30
0.0
 10
177.4374142274766
 20
-73.60569816219923
 30
0.0
 10
177.389097524308
 20
-73.7317721320457
 30
0.0
 10
177.389097524308
 20
-73.7317721320457
 30
0.0
 10
176.0913823423866
 20
-77.10628991460335
 30
0.0
 10
176.0913823423866
 20
-77.10628991460335
 30
0.0
 10
176.0913823423866
 20
-77.10628991460335
 30
0.0
 10
178.4792140097314
 20
-77.10628991460335
 30
0.0
 10
178.4792140097314
 20
-77.10628991460335
 30
0.0
 10
178.4792140097314
 20
-77.10628991460335
 30
0.0
 10
179.6991719249748
 20
-73.97184089594637
 30
0.0
 10
179.6991719249748
 20
-73.97184089594637
 30
0.0
 10
179.7399537081974
 20
-73.86996411747851
 30
0.0
 10
179.7271365763274
 20
-73.75596932342434
 30
0.0
 10
179.6659639014944
 20
-73.66535608508394
 30
0.0
  0
HATCH
  5
8B
330
82
100
AcDbEntity
  8
Слой 1
 62
   254
420
 13421772
440
 33554687
100
AcDbHatch
 10
0.0
 20
0.0
 30
0.0
210
0.0
220
0.0
230
1.0
  2
SOLID
 70
     1
 71
     1
 91
        1
 92
        1
 93
        2
 72
     4
 94
        3
 73
     0
 74
     0
 95
       26
 96
       22
 40
0.0
 40
0.0
 40
0.0
 40
0.0
 40
1.0
 40
1.0
 40
1.0
 40
2.0
 40
2.0
 40
2.0
 40
3.0
 40
3.0
 40
3.0
 40
4.0
 40
4.0
 40
4.0
 40
5.0
 40
5.0
 40
5.0
 40
6.0
 40
6.0
 40
6.0
 40
7.0
 40
7.0
 40
7.0
 40
7.0
 10
179.6659639014944
 20
-73.66535608508394
 10
179.6047912266614
 20
-73.57474284674355
 10
179.5029144481933
 20
-73.52118277144587
 10
179.3941630262669
 20
-73.52118277144587
 10
179.3941630262669
 20
-73.52118277144587
 10
177.6955823351707
 20
-73.52118277144587
 10
177.6955823351707
 20
-73.52118277144587
 10
177.5612354892986
 20
-73.52118277144587
 10
177.4374142274766
 20
-73.60569816219923
 10
177.389097524308
 20
-73.7317721320457
 10
177.389097524308
 20
-73.7317721320457
 10
176.0913823423866
 20
-77.10628991460335
 10
176.0913823423866
 20
-77.10628991460335
 10
176.0913823423866
 20
-77.10628991460335
 10
178.4792140097314
 20
-77.10628991460335
 10
178.4792140097314
 20
-77.10628991460335
 10
178.4792140097314
 20
-77.10628991460335
 10
179.6991719249748
 20
-73.97184089594637
 10
179.6991719249748
 20
-73.97184089594637
 10
179.7399537081974
 20
-73.86996411747851
 10
179.7271365763274
 20
-73.75596932342434
 10
179.6659639014944
 20
-73.66535608508394
 97
        0
 72
     1
 10
179.6659639014944
 20
-73.66535608508394
 11
179.6659639014944
 21
-73.66535608508394
 97
        0
 75
     2
 76
     1
 98
        1
 10
0.0
 20
0.0
450
        0
451
        0
460
0.0
461
0.0
452
        0
462
0.0
453
        0
470

  0
SPLINE
  5
8C
330
82
100
AcDbEntity
  8
Слой 1
100
AcDbSpline
210
0.0
220
0.0
230
1.0
 70
     9
 71
     3
 72
    56
 73
    52
 74
     0
 42
0.0000000001
 43
0.0000000001
 40
0.0
 40
0.0
 40
0.0
 40
0.0
 40
1.0
 40
1.0
 40
1.0
 40
2.0
 40
2.0
 40
2.0
 40
3.0
 40
3.0
 40
3.0
 40
4.0
 40
4.0
 40
4.0
 40
5.0
 40
5.0
 40
5.0
 40
6.0
 40
6.0
 40
6.0
 40
7.0
 40
7.0
 40
7.0
 40
8.0
 40
8.0
 40
8.0
 40
9.0
 40
9.0
 40
9.0
 40
10.0
 40
10.0
 40
10.0
 40
11.0
 40
11.0
 40
11.0
 40
12.0
 40
12.0
 40
12.0
 40
13.0
 40
13.0
 40
13.0
 40
14.0
 40
14.0
 40
14.0
 40
15.0
 40
15.0
 40
15.0
 40
16.0
 40
16.0
 40
16.0
 40
17.0
 40
17.0
 40
17.0
 40
17.0
 10
192.8735910555966
 20
-73.03242280947722
 30
0.0
 10
192.0869298771395
 20
-73.03242280947722
 30
0.0
 10
191.373520549307
 20
-73.17512021096106
 30
0.0
 10
190.7484717517899
 20
-73.45822346610939
 30
0.0
 10
190.7484717517899
 20
-73.45822346610939
 30
0.0
 10
191.3923966889701
 20
-71.83060307781875
 30
0.0
 10
191.3923966889701
 20
-71.83060307781875
 30
0.0
 10
191.4233520044254
 20
-71.75284581114211
 30
0.0
 10
191.4135643764519
 20
-71.66530091649192
 30
0.0
 10
191.3659856293591
 20
-71.59659332171109
 30
0.0
 10
191.3191836781372
 20
-71.52788572693026
 30
0.0
 10
191.2414264114606
 20
-71.48636598763085
 30
0.0
 10
191.157648976784
 20
-71.48636598763085
 30
0.0
 10
191.157648976784
 20
-71.48636598763085
 30
0.0
 10
189.2967567884638
 20
-71.48407443981177
 30
0.0
 10
189.2967567884638
 20
-71.48407443981177
 30
0.0
 10
189.1918116663048
 20
-71.48407443981177
 30
0.0
 10
189.0997225158115
 20
-71.54676186659331
 30
0.0
 10
189.0619702364847
 20
-71.6441332290098
 30
0.0
 10
189.0619702364847
 20
-71.6441332290098
 30
0.0
 10
186.9285780566536
 20
-77.10601803604872
 30
0.0
 10
186.9285780566536
 20
-77.10601803604872
 30
0.0
 10
186.9285780566536
 20
-77.10601803604872
 30
0.0
 10
189.3337322719185
 20
-77.10601803604872
 30
0.0
 10
189.3337322719185
 20
-77.10601803604872
 30
0.0
 10
189.3337322719185
 20
-77.10601803604872
 30
0.0
 10
190.0886613390501
 20
-75.19754710063513
 30
0.0
 10
190.0886613390501
 20
-75.19754710063513
 30
0.0
 10
190.3279921468736
 20
-74.56189503947959
 30
0.0
 10
191.0149515753008
 20
-74.11803387884889
 30
0.0
 10
191.7585394227172
 20
-74.11803387884889
 30
0.0
 10
192.1601817277648
 20
-74.11803387884889
 30
0.0
 10
192.3639741244948
 20
-74.21315253324097
 30
0.0
 10
192.3639741244948
 20
-74.40113713399816
 30
0.0
 10
192.3639741244948
 20
-74.53396922792137
 30
0.0
 10
192.3367862690137
 20
-74.66684016163798
 30
0.0
 10
192.2832261937141
 20
-74.79066142345941
 30
0.0
 10
192.2832261937141
 20
-74.79066142345941
 30
0.0
 10
191.3750353012549
 20
-77.10601803604872
 30
0.0
 10
191.3750353012549
 20
-77.10601803604872
 30
0.0
 10
191.3750353012549
 20
-77.10601803604872
 30
0.0
 10
193.7809663123919
 20
-77.10601803604872
 30
0.0
 10
193.7809663123919
 20
-77.10601803604872
 30
0.0
 10
193.7809663123919
 20
-77.10601803604872
 30
0.0
 10
194.6838749929289
 20
-74.79066142345941
 30
0.0
 10
194.6838749929289
 20
-74.79066142345941
 30
0.0
 10
194.7676912673979
 20
-74.56418658729994
 30
0.0
 10
194.825834438335
 20
-74.28411283604749
 30
0.0
 10
194.825834438335
 20
-74.11123691497909
 30
0.0
 10
194.825834438335
 20
-73.43557986647271
 30
0.0
 10
194.0957628390727
 20
-73.03242280947722
 30
0.0
 10
192.8735910555966
 20
-73.03242280947722
 30
0.0
  0
HATCH
  5
8D
330
82
100
AcDbEntity
  8
Слой 1
 62
   254
420
 13421772
440
 33554687
100
AcDbHatch
 10
0.0
 20
0.0
 30
0.0
210
0.0
220
0.0
230
1.0
  2
SOLID
 70
     1
 71
     1
 91
        1
 92
        1
 93
        2
 72
     4
 94
        3
 73
     0
 74
     0
 95
       56
 96
       52
 40
0.0
 40
0.0
 40
0.0
 40
0.0
 40
1.0
 40
1.0
 40
1.0
 40
2.0
 40
2.0
 40
2.0
 40
3.0
 40
3.0
 40
3.0
 40
4.0
 40
4.0
 40
4.0
 40
5.0
 40
5.0
 40
5.0
 40
6.0
 40
6.0
 40
6.0
 40
7.0
 40
7.0
 40
7.0
 40
8.0
 40
8.0
 40
8.0
 40
9.0
 40
9.0
 40
9.0
 40
10.0
 40
10.0
 40
10.0
 40
11.0
 40
11.0
 40
11.0
 40
12.0
 40
12.0
 40
12.0
 40
13.0
 40
13.0
 40
13.0
 40
14.0
 40
14.0
 40
14.0
 40
15.0
 40
15.0
 40
15.0
 40
16.0
 40
16.0
 40
16.0
 40
17.0
 40
17.0
 40
17.0
 40
17.0
 10
192.8735910555966
 20
-73.03242280947722
 10
192.0869298771395
 20
-73.03242280947722
 10
191.373520549307
 20
-73.17512021096106
 10
190.7484717517899
 20
-73.45822346610939
 10
190.7484717517899
 20
-73.45822346610939
 10
191.3923966889701
 20
-71.83060307781875
 10
191.3923966889701
 20
-71.83060307781875
 10
191.4233520044254
 20
-71.75284581114211
 10
191.4135643764519
 20
-71.66530091649192
 10
191.3659856293591
 20
-71.59659332171109
 10
191.3191836781372
 20
-71.52788572693026
 10
191.2414264114606
 20
-71.48636598763085
 10
191.157648976784
 20
-71.48636598763085
 10
191.157648976784
 20
-71.48636598763085
 10
189.2967567884638
 20
-71.48407443981177
 10
189.2967567884638
 20
-71.48407443981177
 10
189.1918116663048
 20
-71.48407443981177
 10
189.0997225158115
 20
-71.54676186659331
 10
189.0619702364847
 20
-71.6441332290098
 10
189.0619702364847
 20
-71.6441332290098
 10
186.9285780566536
 20
-77.10601803604872
 10
186.9285780566536
 20
-77.10601803604872
 10
186.9285780566536
 20
-77.10601803604872
 10
189.3337322719185
 20
-77.10601803604872
 10
189.3337322719185
 20
-77.10601803604872
 10
189.3337322719185
 20
-77.10601803604872
 10
190.0886613390501
 20
-75.19754710063513
 10
190.0886613390501
 20
-75.19754710063513
 10
190.3279921468736
 20
-74.56189503947959
 10
191.0149515753008
 20
-74.11803387884889
 10
191.7585394227172
 20
-74.11803387884889
 10
192.1601817277648
 20
-74.11803387884889
 10
192.3639741244948
 20
-74.21315253324097
 10
192.3639741244948
 20
-74.40113713399816
 10
192.3639741244948
 20
-74.53396922792137
 10
192.3367862690137
 20
-74.66684016163798
 10
192.2832261937141
 20
-74.79066142345941
 10
192.2832261937141
 20
-74.79066142345941
 10
191.3750353012549
 20
-77.10601803604872
 10
191.3750353012549
 20
-77.10601803604872
 10
191.3750353012549
 20
-77.10601803604872
 10
193.7809663123919
 20
-77.10601803604872
 10
193.7809663123919
 20
-77.10601803604872
 10
193.7809663123919
 20
-77.10601803604872
 10
194.6838749929289
 20
-74.79066142345941
 10
194.6838749929289
 20
-74.79066142345941
 10
194.7676912673979
 20
-74.56418658729994
 10
194.825834438335
 20
-74.28411283604749
 10
194.825834438335
 20
-74.11123691497909
 10
194.825834438335
 20
-73.43557986647271
 10
194.0957628390727
 20
-73.03242280947722
 10
192.8735910555966
 20
-73.03242280947722
 97
        0
 72
     1
 10
192.8735910555966
 20
-73.03242280947722
 11
192.8735910555966
 21
-73.03242280947722
 97
        0
 75
     2
 76
     1
 98
        1
 10
0.0
 20
0.0
450
        0
451
        0
460
0.0
461
0.0
452
        0
462
0.0
453
        0
470

  0
SPLINE
  5
8E
330
82
100
AcDbEntity
  8
Слой 1
100
AcDbSpline
210
0.0
220
0.0
230
1.0
 70
     9
 71
     3
 72
    26
 73
    22
 74
     0
 42
0.0000000001
 43
0.0000000001
 40
0.0
 40
0.0
 40
0.0
 40
0.0
 40
1.0
 40
1.0
 40
1.0
 40
2.0
 40
2.0
 40
2.0
 40
3.0
 40
3.0
 40
3.0
 40
4.0
 40
4.0
 40
4.0
 40
5.0
 40
5.0
 40
5.0
 40
6.0
 40
6.0
 40
6.0
 40
7.0
 40
7.0
 40
7.0
 40
7.0
 10
176.920456575396
 20
-71.62168382834067
 30
0.0
 10
176.8736934639678
 20
-71.55301507335386
 30
0.0
 10
176.7958973574975
 20
-71.51149533405413
 30
0.0
 10
176.7121199228209
 20
-71.51149533405413
 30
0.0
 10
176.7121199228209
 20
-71.51149533405413
 30
0.0
 10
174.7991047315622
 20
-71.51149533405413
 30
0.0
 10
174.7991047315622
 20
-71.51149533405413
 30
0.0
 10
174.694936405276
 20
-71.51149533405413
 30
0.0
 10
174.6020704589099
 20
-71.57492071691279
 30
0.0
 10
174.5643570193775
 20
-71.6722920793299
 30
0.0
 10
174.5643570193775
 20
-71.6722920793299
 30
0.0
 10
172.4399756716478
 20
-77.10621223501691
 30
0.0
 10
172.4399756716478
 20
-77.10621223501691
 30
0.0
 10
172.4399756716478
 20
-77.10621223501691
 30
0.0
 10
174.9010203498248
 20
-77.10621223501691
 30
0.0
 10
174.9010203498248
 20
-77.10621223501691
 30
0.0
 10
174.9010203498248
 20
-77.10621223501691
 30
0.0
 10
176.9469064748006
 20
-71.85647038031946
 30
0.0
 10
176.9469064748006
 20
-71.85647038031946
 30
0.0
 10
176.9778617902547
 20
-71.77871311364251
 30
0.0
 10
176.9680353224881
 20
-71.69039142312183
 30
0.0
 10
176.920456575396
 20
-71.62168382834067
 30
0.0
  0
HATCH
  5
8F
330
82
100
AcDbEntity
  8
Слой 1
 62
   254
420
 13421772
440
 33554687
100
AcDbHatch
 10
0.0
 20
0.0
 30
0.0
210
0.0
220
0.0
230
1.0
  2
SOLID
 70
     1
 71
     1
 91
        1
 92
        1
 93
        2
 72
     4
 94
        3
 73
     0
 74
     0
 95
       26
 96
       22
 40
0.0
 40
0.0
 40
0.0
 40
0.0
 40
1.0
 40
1.0
 40
1.0
 40
2.0
 40
2.0
 40
2.0
 40
3.0
 40
3.0
 40
3.0
 40
4.0
 40
4.0
 40
4.0
 40
5.0
 40
5.0
 40
5.0
 40
6.0
 40
6.0
 40
6.0
 40
7.0
 40
7.0
 40
7.0
 40
7.0
 10
176.920456575396
 20
-71.62168382834067
 10
176.8736934639678
 20
-71.55301507335386
 10
176.7958973574975
 20
-71.51149533405413
 10
176.7121199228209
 20
-71.51149533405413
 10
176.7121199228209
 20
-71.51149533405413
 10
174.7991047315622
 20
-71.51149533405413
 10
174.7991047315622
 20
-71.51149533405413
 10
174.694936405276
 20
-71.51149533405413
 10
174.6020704589099
 20
-71.57492071691279
 10
174.5643570193775
 20
-71.6722920793299
 10
174.5643570193775
 20
-71.6722920793299
 10
172.4399756716478
 20
-77.10621223501691
 10
172.4399756716478
 20
-77.10621223501691
 10
172.4399756716478
 20
-77.10621223501691
 10
174.9010203498248
 20
-77.10621223501691
 10
174.9010203498248
 20
-77.10621223501691
 10
174.9010203498248
 20
-77.10621223501691
 10
176.9469064748006
 20
-71.85647038031946
 10
176.9469064748006
 20
-71.85647038031946
 10
176.9778617902547
 20
-71.77871311364251
 10
176.9680353224881
 20
-71.69039142312183
 10
176.920456575396
 20
-71.62168382834067
 97
        0
 72
     1
 10
176.920456575396
 20
-71.62168382834067
 11
176.920456575396
 21
-71.62168382834067
 97
        0
 75
     2
 76
     1
 98
        1
 10
0.0
 20
0.0
450
        0
451
        0
460
0.0
461
0.0
452
        0
462
0.0
453
        0
470

  0
SPLINE
  5
90
330
82
100
AcDbEntity
  8
Слой 1
100
AcDbSpline
210
0.0
220
0.0
230
1.0
 70
     9
 71
     3
 72
     8
 73
     4
 74
     0
 42
0.0000000001
 43
0.0000000001
 40
0.0
 40
0.0
 40
0.0
 40
0.0
 40
1.0
 40
1.0
 40
1.0
 40
1.0
 10
184.9632845032836
 20
-73.73985080910315
 30
0.0
 10
181.9405775706551
 20
-79.31347770217057
 30
0.0
 10
179.287780831748
 20
-73.70512803367418
 30
0.0
 10
184.9632845032836
 20
-73.73985080910315
 30
0.0
  0
SPLINE
  5
91
330
82
100
AcDbEntity
  8
Слой 1
100
AcDbSpline
210
0.0
220
0.0
230
1.0
 70
     9
 71
     3
 72
    62
 73
    58
 74
     0
 42
0.0000000001
 43
0.0000000001
 40
0.0
 40
0.0
 40
0.0
 40
0.0
 40
1.0
 40
1.0
 40
1.0
 40
2.0
 40
2.0
 40
2.0
 40
3.0
 40
3.0
 40
3.0
 40
4.0
 40
4.0
 40
4.0
 40
5.0
 40
5.0
 40
5.0
 40
6.0
 40
6.0
 40
6.0
 40
7.0
 40
7.0
 40
7.0
 40
8.0
 40
8.0
 40
8.0
 40
9.0
 40
9.0
 40
9.0
 40
10.0
 40
10.0
 40
10.0
 40
11.0
 40
11.0
 40
11.0
 40
12.0
 40
12.0
 40
12.0
 40
13.0
 40
13.0
 40
13.0
 40
14.0
 40
14.0
 40
14.0
 40
15.0
 40
15.0
 40
15.0
 40
16.0
 40
16.0
 40
16.0
 40
17.0
 40
17.0
 40
17.0
 40
18.0
 40
18.0
 40
18.0
 40
19.0
 40
19.0
 40
19.0
 40
19.0
 10
187.4461959852258
 20
-73.13212455950679
 30
0.0
 10
187.3994328737975
 20
-73.06345580451933
 30
0.0
 10
187.3208988112501
 20
-73.02267402129736
 30
0.0
 10
187.2378204928576
 20
-73.02267402129736
 30
0.0
 10
187.2378204928576
 20
-73.02267402129736
 30
0.0
 10
183.8187923068968
 20
-73.02267402129736
 30
0.0
 10
183.8187923068968
 20
-73.02267402129736
 30
0.0
 10
183.2631890602389
 20
-73.03475319708967
 30
0.0
 10
182.8442242072699
 20
-73.06951481231234
 30
0.0
 10
182.5309035927446
 20
-73.12913389540367
 30
0.0
 10
181.5434795214526
 20
-73.35106447571902
 30
0.0
 10
180.9251888480125
 20
-73.73153909328383
 30
0.0
 10
180.4594220438223
 20
-74.41022564568735
 30
0.0
 10
179.9988986117605
 20
-75.20213019627295
 30
0.0
 10
179.9143443812131
 20
-75.93367770769074
 30
0.0
 10
180.2223439440244
 20
-76.46966685861009
 30
0.0
 10
180.4820656434583
 20
-76.92261653092966
 30
0.0
 10
181.0014313627406
 20
-77.18156143449305
 30
0.0
 10
181.6476478477402
 20
-77.18156143449305
 30
0.0
 10
182.1609933990219
 20
-77.18156143449305
 30
0.0
 10
182.7226556534747
 20
-77.01847314139853
 30
0.0
 10
183.2730155280048
 20
-76.70748291448474
 30
0.0
 10
183.4300448133073
 20
-76.61686967614468
 30
0.0
 10
183.6255643340117
 20
-76.46512260276502
 30
0.0
 10
183.8542918781972
 20
-76.25678595019053
 30
0.0
 10
183.8542918781972
 20
-76.25678595019053
 30
0.0
 10
184.2853747467522
 20
-75.86497011290958
 30
0.0
 10
184.2853747467522
 20
-75.86497011290958
 30
0.0
 10
183.6678608691829
 20
-77.35894277161282
 30
0.0
 10
182.855526587192
 20
-77.64659028260621
 30
0.0
 10
181.9903701859805
 20
-77.63602585876151
 30
0.0
 10
181.2233619430566
 20
-77.62697618686572
 30
0.0
 10
180.7024814718264
 20
-77.44881805387513
 30
0.0
 10
180.3831795290942
 20
-77.34084342782058
 30
0.0
 10
180.3831795290942
 20
-77.34084342782058
 30
0.0
 10
180.27971031909
 20
-77.30538269631449
 30
0.0
 10
180.27971031909
 20
-77.30538269631449
 30
0.0
 10
180.27971031909
 20
-77.30538269631449
 30
0.0
 10
179.8645129260959
 20
-78.34640568269718
 30
0.0
 10
179.8645129260959
 20
-78.34640568269718
 30
0.0
 10
179.8645129260959
 20
-78.34640568269718
 30
0.0
 10
179.9996754076319
 20
-78.38866337807371
 30
0.0
 10
179.9996754076319
 20
-78.38866337807371
 30
0.0
 10
180.472239175693
 20
-78.538157743428
 30
0.0
 10
181.3034107575526
 20
-78.63024689392261
 30
0.0
 10
182.1670524068149
 20
-78.63024689392261
 30
0.0
 10
183.2624122643674
 20
-78.63024689392261
 30
0.0
 10
184.1351035855268
 20
-78.47849982054296
 30
0.0
 10
184.7617059747856
 20
-78.17807401747355
 30
0.0
 10
185.5233931659935
 20
-77.8171746558549
 30
0.0
 10
185.8200903488834
 20
-77.60883800328073
 30
0.0
 10
186.0307185492759
 20
-77.04566099687963
 30
0.0
 10
186.0307185492759
 20
-77.04566099687963
 30
0.0
 10
187.4726458846291
 20
-73.36691111148526
 30
0.0
 10
187.4726458846291
 20
-73.36691111148526
 30
0.0
 10
187.5028244042136
 20
-73.28915384480831
 30
0.0
 10
187.4929979364477
 20
-73.20160895015844
 30
0.0
 10
187.4461959852258
 20
-73.13212455950679
 30
0.0
  0
HATCH
  5
92
330
82
100
AcDbEntity
  8
Слой 1
 62
   254
420
 13421772
440
 33554687
100
AcDbHatch
 10
0.0
 20
0.0
 30
0.0
210
0.0
220
0.0
230
1.0
  2
SOLID
 70
     1
 71
     1
 91
        2
 92
        1
 93
        2
 72
     4
 94
        3
 73
     0
 74
     0
 95
        8
 96
        4
 40
0.0
 40
0.0
 40
0.0
 40
0.0
 40
1.0
 40
1.0
 40
1.0
 40
1.0
 10
184.9632845032836
 20
-73.73985080910315
 10
181.9405775706551
 20
-79.31347770217057
 10
179.287780831748
 20
-73.70512803367418
 10
184.9632845032836
 20
-73.73985080910315
 97
        0
 72
     1
 10
184.9632845032836
 20
-73.73985080910316
 11
184.9632845032836
 21
-73.73985080910315
 97
        0
 92
        1
 93
        2
 72
     4
 94
        3
 73
     0
 74
     0
 95
       62
 96
       58
 40
0.0
 40
0.0
 40
0.0
 40
0.0
 40
1.0
 40
1.0
 40
1.0
 40
2.0
 40
2.0
 40
2.0
 40
3.0
 40
3.0
 40
3.0
 40
4.0
 40
4.0
 40
4.0
 40
5.0
 40
5.0
 40
5.0
 40
6.0
 40
6.0
 40
6.0
 40
7.0
 40
7.0
 40
7.0
 40
8.0
 40
8.0
 40
8.0
 40
9.0
 40
9.0
 40
9.0
 40
10.0
 40
10.0
 40
10.0
 40
11.0
 40
11.0
 40
11.0
 40
12.0
 40
12.0
 40
12.0
 40
13.0
 40
13.0
 40
13.0
 40
14.0
 40
14.0
 40
14.0
 40
15.0
 40
15.0
 40
15.0
 40
16.0
 40
16.0
 40
16.0
 40
17.0
 40
17.0
 40
17.0
 40
18.0
 40
18.0
 40
18.0
 40
19.0
 40
19.0
 40
19.0
 40
19.0
 10
187.4461959852258
 20
-73.13212455950679
 10
187.3994328737975
 20
-73.06345580451933
 10
187.3208988112501
 20
-73.02267402129736
 10
187.2378204928576
 20
-73.02267402129736
 10
187.2378204928576
 20
-73.02267402129736
 10
183.8187923068968
 20
-73.02267402129736
 10
183.8187923068968
 20
-73.02267402129736
 10
183.2631890602389
 20
-73.03475319708967
 10
182.8442242072699
 20
-73.06951481231234
 10
182.5309035927446
 20
-73.12913389540367
 10
181.5434795214526
 20
-73.35106447571902
 10
180.9251888480125
 20
-73.73153909328383
 10
180.4594220438223
 20
-74.41022564568735
 10
179.9988986117605
 20
-75.20213019627295
 10
179.9143443812131
 20
-75.93367770769074
 10
180.2223439440244
 20
-76.46966685861009
 10
180.4820656434583
 20
-76.92261653092966
 10
181.0014313627406
 20
-77.18156143449305
 10
181.6476478477402
 20
-77.18156143449305
 10
182.1609933990219
 20
-77.18156143449305
 10
182.7226556534747
 20
-77.01847314139853
 10
183.2730155280048
 20
-76.70748291448474
 10
183.4300448133073
 20
-76.61686967614468
 10
183.6255643340117
 20
-76.46512260276502
 10
183.8542918781972
 20
-76.25678595019053
 10
183.8542918781972
 20
-76.25678595019053
 10
184.2853747467522
 20
-75.86497011290958
 10
184.2853747467522
 20
-75.86497011290958
 10
183.6678608691829
 20
-77.35894277161282
 10
182.855526587192
 20
-77.64659028260621
 10
181.9903701859805
 20
-77.63602585876151
 10
181.2233619430566
 20
-77.62697618686572
 10
180.7024814718264
 20
-77.44881805387513
 10
180.3831795290942
 20
-77.34084342782058
 10
180.3831795290942
 20
-77.34084342782058
 10
180.27971031909
 20
-77.30538269631449
 10
180.27971031909
 20
-77.30538269631449
 10
180.27971031909
 20
-77.30538269631449
 10
179.8645129260959
 20
-78.34640568269718
 10
179.8645129260959
 20
-78.34640568269718
 10
179.8645129260959
 20
-78.34640568269718
 10
179.9996754076319
 20
-78.38866337807371
 10
179.9996754076319
 20
-78.38866337807371
 10
180.472239175693
 20
-78.538157743428
 10
181.3034107575526
 20
-78.63024689392261
 10
182.1670524068149
 20
-78.63024689392261
 10
183.2624122643674
 20
-78.63024689392261
 10
184.1351035855268
 20
-78.47849982054296
 10
184.7617059747856
 20
-78.17807401747355
 10
185.5233931659935
 20
-77.8171746558549
 10
185.8200903488834
 20
-77.60883800328073
 10
186.0307185492759
 20
-77.04566099687963
 10
186.0307185492759
 20
-77.04566099687963
 10
187.4726458846291
 20
-73.36691111148526
 10
187.4726458846291
 20
-73.36691111148526
 10
187.5028244042136
 20
-73.28915384480831
 10
187.4929979364477
 20
-73.20160895015844
 10
187.4461959852258
 20
-73.13212455950679
 97
        0
 72
     1
 10
187.4461959852258
 20
-73.13212455950679
 11
187.4461959852258
 21
-73.13212455950679
 97
        0
 75
     2
 76
     1
 98
        1
 10
0.0
 20
0.0
450
        0
451
        0
460
0.0
461
0.0
452
        0
462
0.0
453
        0
470

  0
SPLINE
  5
93
330
82
100
AcDbEntity
  8
Слой 1
100
AcDbSpline
210
0.0
220
0.0
230
1.0
 70
     9
 71
     3
 72
     8
 73
     4
 74
     0
 42
0.0000000001
 43
0.0000000001
 40
0.0
 40
0.0
 40
0.0
 40
0.0
 40
1.0
 40
1.0
 40
1.0
 40
1.0
 10
164.4394831187245
 20
-73.73985080910315
 30
0.0
 10
161.4167373463029
 20
-79.31347770217057
 30
0.0
 10
158.7639406073952
 20
-73.70512803367418
 30
0.0
 10
164.4394831187245
 20
-73.73985080910315
 30
0.0
  0
SPLINE
  5
94
330
82
100
AcDbEntity
  8
Слой 1
100
AcDbSpline
210
0.0
220
0.0
230
1.0
 70
     9
 71
     3
 72
    44
 73
    40
 74
     0
 42
0.0000000001
 43
0.0000000001
 40
0.0
 40
0.0
 40
0.0
 40
0.0
 40
1.0
 40
1.0
 40
1.0
 40
2.0
 40
2.0
 40
2.0
 40
3.0
 40
3.0
 40
3.0
 40
4.0
 40
4.0
 40
4.0
 40
5.0
 40
5.0
 40
5.0
 40
6.0
 40
6.0
 40
6.0
 40
7.0
 40
7.0
 40
7.0
 40
8.0
 40
8.0
 40
8.0
 40
9.0
 40
9.0
 40
9.0
 40
10.0
 40
10.0
 40
10.0
 40
11.0
 40
11.0
 40
11.0
 40
12.0
 40
12.0
 40
12.0
 40
13.0
 40
13.0
 40
13.0
 40
13.0
 10
166.9850431876551
 20
-73.13212455950679
 30
0.0
 10
166.9382800762269
 20
-73.06345580451933
 30
0.0
 10
166.8604839697566
 20
-73.02267402129736
 30
0.0
 10
166.7766676952863
 20
-73.02267402129736
 30
0.0
 10
166.7766676952863
 20
-73.02267402129736
 30
0.0
 10
163.3598922173518
 20
-73.02267402129736
 30
0.0
 10
163.3598922173518
 20
-73.02267402129736
 30
0.0
 10
162.8050269267697
 20
-73.03475319708967
 30
0.0
 10
162.3845473218534
 20
-73.06951481231234
 30
0.0
 10
162.0720035031983
 20
-73.12913389540367
 30
0.0
 10
161.084579431907
 20
-73.35032651964191
 30
0.0
 10
160.4662887584669
 20
-73.73080113720767
 30
0.0
 10
160.0005219542766
 20
-74.41022564568735
 30
0.0
 10
159.5399596824218
 20
-75.20213019627295
 30
0.0
 10
159.4554442916681
 20
-75.93367770769074
 30
0.0
 10
159.7627058984017
 20
-76.46966685861009
 30
0.0
 10
160.0231267141203
 20
-76.9218785748519
 30
0.0
 10
160.542531273195
 20
-77.18156143449305
 30
0.0
 10
161.1887477581952
 20
-77.18156143449305
 30
0.0
 10
161.7020933094763
 20
-77.18156143449305
 30
0.0
 10
162.2629787680577
 20
-77.01773518532046
 30
0.0
 10
162.8141154384598
 20
-76.70748291448474
 30
0.0
 10
162.9703679278902
 20
-76.61686967614468
 30
0.0
 10
163.1666254046724
 20
-76.46512260276502
 30
0.0
 10
163.3953529488579
 20
-76.25678595019053
 30
0.0
 10
163.3953529488579
 20
-76.25678595019053
 30
0.0
 10
163.7162473231267
 20
-75.96537097922321
 30
0.0
 10
163.7162473231267
 20
-75.96537097922321
 30
0.0
 10
163.7162473231267
 20
-75.96537097922321
 30
0.0
 10
163.143243848958
 20
-77.12415621963434
 30
0.0
 10
163.143243848958
 20
-77.12415621963434
 30
0.0
 10
163.143243848958
 20
-77.12415621963434
 30
0.0
 10
165.5582633717845
 20
-77.12415621963434
 30
0.0
 10
165.5582633717845
 20
-77.12415621963434
 30
0.0
 10
165.5582633717845
 20
-77.12415621963434
 30
0.0
 10
167.0122310431356
 20
-73.36691111148526
 30
0.0
 10
167.0122310431356
 20
-73.36691111148526
 30
0.0
 10
167.0424484025138
 20
-73.28915384480831
 30
0.0
 10
167.0326219347465
 20
-73.20160895015844
 30
0.0
 10
166.9850431876551
 20
-73.13212455950679
 30
0.0
  0
HATCH
  5
95
330
82
100
AcDbEntity
  8
Слой 1
 62
   254
420
 13421772
440
 33554687
100
AcDbHatch
 10
0.0
 20
0.0
 30
0.0
210
0.0
220
0.0
230
1.0
  2
SOLID
 70
     1
 71
     1
 91
        2
 92
        1
 93
        2
 72
     4
 94
        3
 73
     0
 74
     0
 95
        8
 96
        4
 40
0.0
 40
0.0
 40
0.0
 40
0.0
 40
1.0
 40
1.0
 40
1.0
 40
1.0
 10
164.4394831187245
 20
-73.73985080910315
 10
161.4167373463029
 20
-79.31347770217057
 10
158.7639406073952
 20
-73.70512803367418
 10
164.4394831187245
 20
-73.73985080910315
 97
        0
 72
     1
 10
164.4394831187245
 20
-73.73985080910316
 11
164.4394831187245
 21
-73.73985080910315
 97
        0
 92
        1
 93
        2
 72
     4
 94
        3
 73
     0
 74
     0
 95
       44
 96
       40
 40
0.0
 40
0.0
 40
0.0
 40
0.0
 40
1.0
 40
1.0
 40
1.0
 40
2.0
 40
2.0
 40
2.0
 40
3.0
 40
3.0
 40
3.0
 40
4.0
 40
4.0
 40
4.0
 40
5.0
 40
5.0
 40
5.0
 40
6.0
 40
6.0
 40
6.0
 40
7.0
 40
7.0
 40
7.0
 40
8.0
 40
8.0
 40
8.0
 40
9.0
 40
9.0
 40
9.0
 40
10.0
 40
10.0
 40
10.0
 40
11.0
 40
11.0
 40
11.0
 40
12.0
 40
12.0
 40
12.0
 40
13.0
 40
13.0
 40
13.0
 40
13.0
 10
166.9850431876551
 20
-73.13212455950679
 10
166.9382800762269
 20
-73.06345580451933
 10
166.8604839697566
 20
-73.02267402129736
 10
166.7766676952863
 20
-73.02267402129736
 10
166.7766676952863
 20
-73.02267402129736
 10
163.3598922173518
 20
-73.02267402129736
 10
163.3598922173518
 20
-73.02267402129736
 10
162.8050269267697
 20
-73.03475319708967
 10
162.3845473218534
 20
-73.06951481231234
 10
162.0720035031983
 20
-73.12913389540367
 10
161.084579431907
 20
-73.35032651964191
 10
160.4662887584669
 20
-73.73080113720767
 10
160.0005219542766
 20
-74.41022564568735
 10
159.5399596824218
 20
-75.20213019627295
 10
159.4554442916681
 20
-75.93367770769074
 10
159.7627058984017
 20
-76.46966685861009
 10
160.0231267141203
 20
-76.9218785748519
 10
160.542531273195
 20
-77.18156143449305
 10
161.1887477581952
 20
-77.18156143449305
 10
161.7020933094763
 20
-77.18156143449305
 10
162.2629787680577
 20
-77.01773518532046
 10
162.8141154384598
 20
-76.70748291448474
 10
162.9703679278902
 20
-76.61686967614468
 10
163.1666254046724
 20
-76.46512260276502
 10
163.3953529488579
 20
-76.25678595019053
 10
163.3953529488579
 20
-76.25678595019053
 10
163.7162473231267
 20
-75.96537097922321
 10
163.7162473231267
 20
-75.96537097922321
 10
163.7162473231267
 20
-75.96537097922321
 10
163.143243848958
 20
-77.12415621963434
 10
163.143243848958
 20
-77.12415621963434
 10
163.143243848958
 20
-77.12415621963434
 10
165.5582633717845
 20
-77.12415621963434
 10
165.5582633717845
 20
-77.12415621963434
 10
165.5582633717845
 20
-77.12415621963434
 10
167.0122310431356
 20
-73.36691111148526
 10
167.0122310431356
 20
-73.36691111148526
 10
167.0424484025138
 20
-73.28915384480831
 10
167.0326219347465
 20
-73.20160895015844
 10
166.9850431876551
 20
-73.13212455950679
 97
        0
 72
     1
 10
166.9850431876551
 20
-73.13212455950679
 11
166.9850431876551
 21
-73.13212455950679
 97
        0
 75
     2
 76
     1
 98
        1
 10
0.0
 20
0.0
450
        0
451
        0
460
0.0
461
0.0
452
        0
462
0.0
453
        0
470

  0
SPLINE
  5
96
330
82
100
AcDbEntity
  8
Слой 1
100
AcDbSpline
210
0.0
220
0.0
230
1.0
 70
    11
 71
     3
 72
    62
 73
    58
 74
     0
 42
0.0000000001
 43
0.0000000001
 40
0.0
 40
0.0
 40
0.0
 40
0.0
 40
1.0
 40
1.0
 40
1.0
 40
2.0
 40
2.0
 40
2.0
 40
3.0
 40
3.0
 40
3.0
 40
4.0
 40
4.0
 40
4.0
 40
5.0
 40
5.0
 40
5.0
 40
6.0
 40
6.0
 40
6.0
 40
7.0
 40
7.0
 40
7.0
 40
8.0
 40
8.0
 40
8.0
 40
9.0
 40
9.0
 40
9.0
 40
10.0
 40
10.0
 40
10.0
 40
11.0
 40
11.0
 40
11.0
 40
12.0
 40
12.0
 40
12.0
 40
13.0
 40
13.0
 40
13.0
 40
14.0
 40
14.0
 40
14.0
 40
15.0
 40
15.0
 40
15.0
 40
16.0
 40
16.0
 40
16.0
 40
17.0
 40
17.0
 40
17.0
 40
18.0
 40
18.0
 40
18.0
 40
19.0
 40
19.0
 40
19.0
 40
19.0
 10
199.834148136357
 20
-71.54951949193455
 30
0.0
 10
199.834148136357
 20
-71.54951949193455
 30
0.0
 10
198.9780414070407
 20
-71.54951949193455
 30
0.0
 10
198.9780414070407
 20
-71.54951949193455
 30
0.0
 10
198.7712195064142
 20
-71.54951949193455
 30
0.0
 10
198.2065277480661
 20
-71.74356310048508
 30
0.0
 10
197.2817134239696
 20
-72.13157263799773
 30
0.0
 10
196.3576758957439
 20
-72.52109692745929
 30
0.0
 10
195.808869612956
 20
-72.81779411034817
 30
0.0
 10
195.6382463999127
 20
-73.02314009881985
 30
0.0
 10
195.6382463999127
 20
-73.02314009881985
 30
0.0
 10
195.0720398896148
 20
-73.74183163857421
 30
0.0
 10
195.0720398896148
 20
-73.74183163857421
 30
0.0
 10
195.0720398896148
 20
-73.74183163857421
 30
0.0
 10
196.3403145080294
 20
-73.74183163857421
 30
0.0
 10
196.3403145080294
 20
-73.74183163857421
 30
0.0
 10
196.3403145080294
 20
-73.74183163857421
 30
0.0
 10
195.6035624642768
 20
-75.55817458369915
 30
0.0
 10
195.6035624642768
 20
-75.55817458369915
 30
0.0
 10
195.5469340452889
 20
-75.7295357528193
 30
0.0
 10
195.5174934817815
 20
-75.87825332230181
 30
0.0
 10
195.5174934817815
 20
-76.00358933607182
 30
0.0
 10
195.5174934817815
 20
-76.30028651896068
 30
0.0
 10
195.6428294955508
 20
-76.54031644306797
 30
0.0
 10
195.8941617995792
 20
-76.72228087582553
 30
0.0
 10
196.2482641973278
 20
-76.97438997572511
 30
0.0
 10
196.8129171158828
 20
-77.09972598949383
 30
0.0
 10
197.5904897826517
 20
-77.09972598949383
 30
0.0
 10
198.4118348967441
 20
-77.09972598949383
 30
0.0
 10
199.0225906502369
 20
-76.96231079993281
 30
0.0
 10
199.423456159413
 20
-76.68903401255112
 30
0.0
 10
199.5487533333894
 20
-76.59768281813424
 30
0.0
 10
199.6680303393651
 20
-76.45424746057232
 30
0.0
 10
199.7827630894964
 20
-76.25950473573839
 30
0.0
 10
199.7827630894964
 20
-76.25950473573839
 30
0.0
 10
199.7827630894964
 20
-76.05415874726702
 30
0.0
 10
199.7827630894964
 20
-76.05415874726702
 30
0.0
 10
199.7827630894964
 20
-76.05415874726702
 30
0.0
 10
198.49790387924
 20
-76.05415874726702
 30
0.0
 10
198.49790387924
 20
-76.05415874726702
 30
0.0
 10
198.0743947704266
 20
-76.05415874726702
 30
0.0
 10
198.2404737276236
 20
-75.56042729172452
 30
0.0
 10
198.3272806661967
 20
-75.23203683730255
 30
0.0
 10
198.3272806661967
 20
-75.23203683730255
 30
0.0
 10
198.9432797918193
 20
-73.74183163857421
 30
0.0
 10
198.9432797918193
 20
-73.74183163857421
 30
0.0
 10
198.9432797918193
 20
-73.74183163857421
 30
0.0
 10
200.2968854366509
 20
-73.74183163857421
 30
0.0
 10
200.2968854366509
 20
-73.74183163857421
 30
0.0
 10
200.2968854366509
 20
-73.74183163857421
 30
0.0
 10
200.5883004076166
 20
-73.02314009881985
 30
0.0
 10
200.5883004076166
 20
-73.02314009881985
 30
0.0
 10
200.5883004076166
 20
-73.02314009881985
 30
0.0
 10
199.2165954189941
 20
-73.02314009881985
 30
0.0
 10
199.2165954189941
 20
-73.02314009881985
 30
0.0
 10
199.2165954189941
 20
-73.02314009881985
 30
0.0
 10
199.834148136357
 20
-71.54951949193455
 30
0.0
 10
199.834148136357
 20
-71.54951949193455
 30
0.0
  0
HATCH
  5
97
330
82
100
AcDbEntity
  8
Слой 1
 62
   254
420
 13421772
440
 33554687
100
AcDbHatch
 10
0.0
 20
0.0
 30
0.0
210
0.0
220
0.0
230
1.0
  2
SOLID
 70
     1
 71
     1
 91
        1
 92
        1
 93
        1
 72
     4
 94
        3
 73
     0
 74
     0
 95
       62
 96
       58
 40
0.0
 40
0.0
 40
0.0
 40
0.0
 40
1.0
 40
1.0
 40
1.0
 40
2.0
 40
2.0
 40
2.0
 40
3.0
 40
3.0
 40
3.0
 40
4.0
 40
4.0
 40
4.0
 40
5.0
 40
5.0
 40
5.0
 40
6.0
 40
6.0
 40
6.0
 40
7.0
 40
7.0
 40
7.0
 40
8.0
 40
8.0
 40
8.0
 40
9.0
 40
9.0
 40
9.0
 40
10.0
 40
10.0
 40
10.0
 40
11.0
 40
11.0
 40
11.0
 40
12.0
 40
12.0
 40
12.0
 40
13.0
 40
13.0
 40
13.0
 40
14.0
 40
14.0
 40
14.0
 40
15.0
 40
15.0
 40
15.0
 40
16.0
 40
16.0
 40
16.0
 40
17.0
 40
17.0
 40
17.0
 40
18.0
 40
18.0
 40
18.0
 40
19.0
 40
19.0
 40
19.0
 40
19.0
 10
199.834148136357
 20
-71.54951949193455
 10
199.834148136357
 20
-71.54951949193455
 10
198.9780414070407
 20
-71.54951949193455
 10
198.9780414070407
 20
-71.54951949193455
 10
198.7712195064142
 20
-71.54951949193455
 10
198.2065277480661
 20
-71.74356310048508
 10
197.2817134239696
 20
-72.13157263799773
 10
196.3576758957439
 20
-72.52109692745929
 10
195.808869612956
 20
-72.81779411034817
 10
195.6382463999127
 20
-73.02314009881985
 10
195.6382463999127
 20
-73.02314009881985
 10
195.0720398896148
 20
-73.74183163857421
 10
195.0720398896148
 20
-73.74183163857421
 10
195.0720398896148
 20
-73.74183163857421
 10
196.3403145080294
 20
-73.74183163857421
 10
196.3403145080294
 20
-73.74183163857421
 10
196.3403145080294
 20
-73.74183163857421
 10
195.6035624642768
 20
-75.55817458369915
 10
195.6035624642768
 20
-75.55817458369915
 10
195.5469340452889
 20
-75.7295357528193
 10
195.5174934817815
 20
-75.87825332230181
 10
195.5174934817815
 20
-76.00358933607182
 10
195.5174934817815
 20
-76.30028651896068
 10
195.6428294955508
 20
-76.54031644306797
 10
195.8941617995792
 20
-76.72228087582553
 10
196.2482641973278
 20
-76.97438997572511
 10
196.8129171158828
 20
-77.09972598949383
 10
197.5904897826517
 20
-77.09972598949383
 10
198.4118348967441
 20
-77.09972598949383
 10
199.0225906502369
 20
-76.96231079993281
 10
199.423456159413
 20
-76.68903401255112
 10
199.5487533333894
 20
-76.59768281813424
 10
199.6680303393651
 20
-76.45424746057232
 10
199.7827630894964
 20
-76.25950473573839
 10
199.7827630894964
 20
-76.25950473573839
 10
199.7827630894964
 20
-76.05415874726702
 10
199.7827630894964
 20
-76.05415874726702
 10
199.7827630894964
 20
-76.05415874726702
 10
198.49790387924
 20
-76.05415874726702
 10
198.49790387924
 20
-76.05415874726702
 10
198.0743947704266
 20
-76.05415874726702
 10
198.2404737276236
 20
-75.56042729172452
 10
198.3272806661967
 20
-75.23203683730255
 10
198.3272806661967
 20
-75.23203683730255
 10
198.9432797918193
 20
-73.74183163857421
 10
198.9432797918193
 20
-73.74183163857421
 10
198.9432797918193
 20
-73.74183163857421
 10
200.2968854366509
 20
-73.74183163857421
 10
200.2968854366509
 20
-73.74183163857421
 10
200.2968854366509
 20
-73.74183163857421
 10
200.5883004076166
 20
-73.02314009881985
 10
200.5883004076166
 20
-73.02314009881985
 10
200.5883004076166
 20
-73.02314009881985
 10
199.2165954189941
 20
-73.02314009881985
 10
199.2165954189941
 20
-73.02314009881985
 10
199.2165954189941
 20
-73.02314009881985
 10
199.834148136357
 20
-71.54951949193455
 10
199.834148136357
 20
-71.54951949193455
 97
        0
 97
        1
330
96
 75
     2
 76
     1
 98
        1
 10
0.0
 20
0.0
450
        0
451
        0
460
0.0
461
0.0
452
        0
462
0.0
453
        0
470

  0
SPLINE
  5
98
330
82
100
AcDbEntity
  8
Слой 1
100
AcDbSpline
210
0.0
220
0.0
230
1.0
 70
     9
 71
     3
 72
    29
 73
    25
 74
     0
 42
0.0000000001
 43
0.0000000001
 40
0.0
 40
0.0
 40
0.0
 40
0.0
 40
1.0
 40
1.0
 40
1.0
 40
2.0
 40
2.0
 40
2.0
 40
3.0
 40
3.0
 40
3.0
 40
4.0
 40
4.0
 40
4.0
 40
5.0
 40
5.0
 40
5.0
 40
6.0
 40
6.0
 40
6.0
 40
7.0
 40
7.0
 40
7.0
 40
8.0
 40
8.0
 40
8.0
 40
8.0
 10
177.0364321989206
 20
-55.42921854031685
 30
0.0
 10
181.261696819285
 20
-52.78244196940968
 30
0.0
 10
186.8322553686629
 20
-54.06279576361528
 30
0.0
 10
189.4790707793637
 20
-58.28809922377274
 30
0.0
 10
189.8051308461723
 20
-58.80975649087378
 30
0.0
 10
190.0716495094776
 20
-59.35102785371563
 30
0.0
 10
190.2800250018458
 20
-59.90437839234883
 30
0.0
 10
190.0482679537632
 20
-59.01055822350103
 30
0.0
 10
189.6776198039647
 20
-58.13639099018711
 30
0.0
 10
189.1612059089927
 20
-57.31197753240356
 30
0.0
 10
186.4419931231236
 20
-52.96964977429574
 30
0.0
 10
180.7173959525473
 20
-51.65457320466021
 30
0.0
 10
176.3750681944392
 20
-54.37382483032245
 30
0.0
 10
172.0335172322019
 20
-57.09307645598471
 30
0.0
 10
170.7176638666958
 20
-62.81763478676758
 30
0.0
 10
173.4369543321518
 20
-67.15996254487571
 30
0.0
 10
173.9532905475369
 20
-67.98433716286524
 30
0.0
 10
174.5783781848478
 20
-68.69926124264599
 30
0.0
 10
175.281961044913
 20
-69.2978989805522
 30
0.0
 10
174.8742985718655
 20
-68.86833086394642
 30
0.0
 10
174.5036115822733
 20
-68.39277643178355
 30
0.0
 10
174.1767358798002
 20
-67.87185712075899
 30
0.0
 10
171.5307361047632
 20
-63.64655366060153
 30
0.0
 10
172.8110898989695
 20
-58.07595627143158
 30
0.0
 10
177.0364321989206
 20
-55.42921854031685
 30
0.0
  0
HATCH
  5
99
330
82
100
AcDbEntity
  8
Слой 1
 62
   254
420
 13421772
440
 33554687
100
AcDbHatch
 10
0.0
 20
0.0
 30
0.0
210
0.0
220
0.0
230
1.0
  2
SOLID
 70
     1
 71
     1
 91
        1
 92
        1
 93
        2
 72
     4
 94
        3
 73
     0
 74
     0
 95
       29
 96
       25
 40
0.0
 40
0.0
 40
0.0
 40
0.0
 40
1.0
 40
1.0
 40
1.0
 40
2.0
 40
2.0
 40
2.0
 40
3.0
 40
3.0
 40
3.0
 40
4.0
 40
4.0
 40
4.0
 40
5.0
 40
5.0
 40
5.0
 40
6.0
 40
6.0
 40
6.0
 40
7.0
 40
7.0
 40
7.0
 40
8.0
 40
8.0
 40
8.0
 40
8.0
 10
177.0364321989206
 20
-55.42921854031685
 10
181.261696819285
 20
-52.78244196940968
 10
186.8322553686629
 20
-54.06279576361528
 10
189.4790707793637
 20
-58.28809922377274
 10
189.8051308461723
 20
-58.80975649087378
 10
190.0716495094776
 20
-59.35102785371563
 10
190.2800250018458
 20
-59.90437839234883
 10
190.0482679537632
 20
-59.01055822350103
 10
189.6776198039647
 20
-58.13639099018711
 10
189.1612059089927
 20
-57.31197753240356
 10
186.4419931231236
 20
-52.96964977429574
 10
180.7173959525473
 20
-51.65457320466021
 10
176.3750681944392
 20
-54.37382483032245
 10
172.0335172322019
 20
-57.09307645598471
 10
170.7176638666958
 20
-62.81763478676758
 10
173.4369543321518
 20
-67.15996254487571
 10
173.9532905475369
 20
-67.98433716286524
 10
174.5783781848478
 20
-68.69926124264599
 10
175.281961044913
 20
-69.2978989805522
 10
174.8742985718655
 20
-68.86833086394642
 10
174.5036115822733
 20
-68.39277643178355
 10
174.1767358798002
 20
-67.87185712075899
 10
171.5307361047632
 20
-63.64655366060153
 10
172.8110898989695
 20
-58.07595627143158
 10
177.0364321989206
 20
-55.42921854031685
 97
        0
 72
     1
 10
177.0364321989206
 20
-55.42921854031685
 11
177.0364321989206
 21
-55.42921854031685
 97
        0
 75
     2
 76
     1
 98
        1
 10
0.0
 20
0.0
450
        0
451
        0
460
0.0
461
0.0
452
        0
462
0.0
453
        0
470

  0
SPLINE
  5
9A
330
82
100
AcDbEntity
  8
Слой 1
100
AcDbSpline
210
0.0
220
0.0
230
1.0
 70
     9
 71
     3
 72
    17
 73
    13
 74
     0
 42
0.0000000001
 43
0.0000000001
 40
0.0
 40
0.0
 40
0.0
 40
0.0
 40
1.0
 40
1.0
 40
1.0
 40
2.0
 40
2.0
 40
2.0
 40
3.0
 40
3.0
 40
3.0
 40
4.0
 40
4.0
 40
4.0
 40
4.0
 10
175.5254865504389
 20
-60.85020504475269
 30
0.0
 10
177.3591520434844
 20
-60.13683455671454
 30
0.0
 10
179.7885034501288
 20
-59.6815933365759
 30
0.0
 10
182.9176702568636
 20
-59.70124627210881
 30
0.0
 10
180.7094726346644
 20
-63.77328790693901
 30
0.0
 10
178.5549127673495
 20
-66.19809505773776
 30
0.0
 10
176.6918067107973
 20
-67.47541934804717
 30
0.0
 10
179.2140240638066
 20
-67.4142855130076
 30
0.0
 10
183.0195470353312
 20
-64.91622651158358
 30
0.0
 10
186.9836917236936
 20
-57.60556753180948
 30
0.0
 10
181.1299910793743
 20
-57.57010680030275
 30
0.0
 10
177.4920229772023
 20
-59.03689160352424
 30
0.0
 10
175.5254865504389
 20
-60.85020504475269
 30
0.0
  0
HATCH
  5
9B
330
82
100
AcDbEntity
  8
Слой 1
 62
   254
420
 13421772
440
 33554687
100
AcDbHatch
 10
0.0
 20
0.0
 30
0.0
210
0.0
220
0.0
230
1.0
  2
SOLID
 70
     1
 71
     1
 91
        1
 92
        1
 93
        2
 72
     4
 94
        3
 73
     0
 74
     0
 95
       17
 96
       13
 40
0.0
 40
0.0
 40
0.0
 40
0.0
 40
1.0
 40
1.0
 40
1.0
 40
2.0
 40
2.0
 40
2.0
 40
3.0
 40
3.0
 40
3.0
 40
4.0
 40
4.0
 40
4.0
 40
4.0
 10
175.5254865504389
 20
-60.85020504475269
 10
177.3591520434844
 20
-60.13683455671454
 10
179.7885034501288
 20
-59.6815933365759
 10
182.9176702568636
 20
-59.70124627210881
 10
180.7094726346644
 20
-63.77328790693901
 10
178.5549127673495
 20
-66.19809505773776
 10
176.6918067107973
 20
-67.47541934804717
 10
179.2140240638066
 20
-67.4142855130076
 10
183.0195470353312
 20
-64.91622651158358
 10
186.9836917236936
 20
-57.60556753180948
 10
181.1299910793743
 20
-57.57010680030275
 10
177.4920229772023
 20
-59.03689160352424
 10
175.5254865504389
 20
-60.85020504475269
 97
        0
 72
     1
 10
175.525486550439
 20
-60.85020504475269
 11
175.5254865504389
 21
-60.85020504475269
 97
        0
 75
     2
 76
     1
 98
        1
 10
0.0
 20
0.0
450
        0
451
        0
460
0.0
461
0.0
452
        0
462
0.0
453
        0
470

  0
SPLINE
  5
9C
330
82
100
AcDbEntity
  8
Слой 1
100
AcDbSpline
210
0.0
220
0.0
230
1.0
 70
     9
 71
     3
 72
    14
 73
    10
 74
     0
 42
0.0000000001
 43
0.0000000001
 40
0.0
 40
0.0
 40
0.0
 40
0.0
 40
1.0
 40
1.0
 40
1.0
 40
2.0
 40
2.0
 40
2.0
 40
3.0
 40
3.0
 40
3.0
 40
3.0
 10
176.6831454368366
 20
-67.47557470722101
 30
0.0
 10
176.6831454368366
 20
-67.47557470722101
 30
0.0
 10
176.6816306848887
 20
-67.47635150309183
 30
0.0
 10
176.6808538890172
 20
-67.47708945916959
 30
0.0
 10
176.6876508528886
 20
-67.47635150309183
 30
0.0
 10
176.693709860681
 20
-67.47557470722101
 30
0.0
 10
176.6997300286796
 20
-67.47557470722101
 30
0.0
 10
176.6944478167581
 20
-67.47557470722101
 30
0.0
 10
176.6892044446302
 20
-67.47557470722101
 30
0.0
 10
176.6831454368366
 20
-67.47557470722101
 30
0.0
  0
HATCH
  5
9D
330
82
100
AcDbEntity
  8
Слой 1
 62
   254
420
 13421772
440
 33554687
100
AcDbHatch
 10
0.0
 20
0.0
 30
0.0
210
0.0
220
0.0
230
1.0
  2
SOLID
 70
     1
 71
     1
 91
        1
 92
        1
 93
        2
 72
     4
 94
        3
 73
     0
 74
     0
 95
       14
 96
       10
 40
0.0
 40
0.0
 40
0.0
 40
0.0
 40
1.0
 40
1.0
 40
1.0
 40
2.0
 40
2.0
 40
2.0
 40
3.0
 40
3.0
 40
3.0
 40
3.0
 10
176.6831454368366
 20
-67.47557470722101
 10
176.6831454368366
 20
-67.47557470722101
 10
176.6816306848887
 20
-67.47635150309183
 10
176.6808538890172
 20
-67.47708945916959
 10
176.6876508528886
 20
-67.47635150309183
 10
176.693709860681
 20
-67.47557470722101
 10
176.6997300286796
 20
-67.47557470722101
 10
176.6944478167581
 20
-67.47557470722101
 10
176.6892044446302
 20
-67.47557470722101
 10
176.6831454368366
 20
-67.47557470722101
 97
        0
 72
     1
 10
176.6831454368366
 20
-67.47557470722101
 11
176.6831454368366
 21
-67.47557470722101
 97
        0
 75
     2
 76
     1
 98
        1
 10
0.0
 20
0.0
450
        0
451
        0
460
0.0
461
0.0
452
        0
462
0.0
453
        0
470

  0
ENDBLK
  5
85
330
82
100
AcDbEntity
  8
0
100
AcDbBlockEnd
  0
BLOCK
  5
A3
330
A1
100
AcDbEntity
  8
0
100
AcDbBlockBegin
  2
Block_3
 70
     0
 10
0.0
 20
0.0
 30
0.0
  3
Block_3
  1

  0
MTEXT
  5
A5
330
A1
100
AcDbEntity
  8
Слой 1
100
AcDbMText
 10
30.10843352518774
 20
-238.7610937581266
 30
0.0
 40
0.2
 41
0.0
 46
0.0
 71
     7
 72
     1
  1
\C250;\c3882044;\FDINPro-Light|b0|i0|c1;\H5.951021;\W1.000000;IP
 73
     1
 44
1.0
  0
MTEXT
  5
A6
330
A1
100
AcDbEntity
  8
Слой 1
100
AcDbMText
 10
37.78892940000373
 20
-238.7610937581266
 30
0.0
 40
0.2
 41
0.0
 46
0.0
 71
     7
 72
     1
  1
\C250;\c3882044;\FDINPro-Medium|b0|i0|c1;\H5.951021;\W1.000000;20
 73
     1
 44
1.0
  0
INSERT
  5
A8
330
A1
100
AcDbEntity
  8
Слой 1
100
AcDbBlockReference
  2
Block_4
 10
0.0
 20
0.0
 30
0.0
  0
ENDBLK
  5
A4
330
A1
100
AcDbEntity
  8
0
100
AcDbBlockEnd
  0
BLOCK
  5
A9
330
A7
100
AcDbEntity
  8
0
100
AcDbBlockBegin
  2
Block_4
 70
     0
 10
0.0
 20
0.0
 30
0.0
  3
Block_4
  1

  0
SPLINE
  5
AB
330
A7
100
AcDbEntity
  8
Слой 1
100
AcDbSpline
210
0.0
220
0.0
230
1.0
 70
     9
 71
     3
 72
    17
 73
    13
 74
     0
 42
0.0000000001
 43
0.0000000001
 40
0.0
 40
0.0
 40
0.0
 40
0.0
 40
1.0
 40
1.0
 40
1.0
 40
2.0
 40
2.0
 40
2.0
 40
3.0
 40
3.0
 40
3.0
 40
4.0
 40
4.0
 40
4.0
 40
4.0
 10
17.72721924311443
 20
-228.8049851918421
 30
0.0
 10
13.86155100840251
 20
-228.8049851918421
 30
0.0
 10
10.71681942196463
 20
-231.9496815799442
 30
0.0
 10
10.71681942196463
 20
-235.8153499123111
 30
0.0
 10
10.71681942196463
 20
-239.6812651891227
 30
0.0
 10
13.86155100840251
 20
-242.826032132781
 30
0.0
 10
17.72721924311443
 20
-242.826032132781
 30
0.0
 10
21.59278164449572
 20
-242.826032132781
 30
0.0
 10
24.73754850871048
 20
-239.6812651891227
 30
0.0
 10
24.73754850871048
 20
-235.8153499123111
 30
0.0
 10
24.73754850871048
 20
-231.9496815799442
 30
0.0
 10
21.59278164449572
 20
-228.8049851918421
 30
0.0
 10
17.72721924311443
 20
-228.8049851918421
 30
0.0
  0
SPLINE
  5
AC
330
A7
100
AcDbEntity
  8
Слой 1
100
AcDbSpline
210
0.0
220
0.0
230
1.0
 70
     9
 71
     3
 72
    17
 73
    13
 74
     0
 42
0.0000000001
 43
0.0000000001
 40
0.0
 40
0.0
 40
0.0
 40
0.0
 40
1.0
 40
1.0
 40
1.0
 40
2.0
 40
2.0
 40
2.0
 40
3.0
 40
3.0
 40
3.0
 40
4.0
 40
4.0
 40
4.0
 40
4.0
 10
17.72721924311443
 20
-242.9647796327463
 30
0.0
 10
13.78510406590839
 20
-242.9647796327463
 30
0.0
 10
10.57804322957871
 20
-239.7576768557701
 30
0.0
 10
10.57804322957871
 20
-235.8153499123111
 30
0.0
 10
10.57804322957871
 20
-231.8733051910749
 30
0.0
 10
13.78510406590839
 20
-228.6661671363206
 30
0.0
 10
17.72721924311443
 20
-228.6661671363206
 30
0.0
 10
21.66922858698984
 20
-228.6661671363206
 30
0.0
 10
24.87633128294761
 20
-231.8733051910749
 30
0.0
 10
24.87633128294761
 20
-235.8153499123111
 30
0.0
 10
24.87633128294761
 20
-239.7576768557701
 30
0.0
 10
21.66922858698984
 20
-242.9647796327463
 30
0.0
 10
17.72721924311443
 20
-242.9647796327463
 30
0.0
  0
HATCH
  5
AD
330
A7
100
AcDbEntity
  8
Слой 1
 62
   250
420
  3947579
440
 33554687
100
AcDbHatch
 10
0.0
 20
0.0
 30
0.0
210
0.0
220
0.0
230
1.0
  2
SOLID
 70
     1
 71
     1
 91
        2
 92
        1
 93
        1
 72
     4
 94
        3
 73
     0
 74
     0
 95
       17
 96
       13
 40
0.0
 40
0.0
 40
0.0
 40
0.0
 40
1.0
 40
1.0
 40
1.0
 40
2.0
 40
2.0
 40
2.0
 40
3.0
 40
3.0
 40
3.0
 40
4.0
 40
4.0
 40
4.0
 40
4.0
 10
17.72721924311443
 20
-228.8049851918421
 10
13.86155100840251
 20
-228.8049851918421
 10
10.71681942196463
 20
-231.9496815799442
 10
10.71681942196463
 20
-235.8153499123111
 10
10.71681942196463
 20
-239.6812651891227
 10
13.86155100840251
 20
-242.826032132781
 10
17.72721924311443
 20
-242.826032132781
 10
21.59278164449572
 20
-242.826032132781
 10
24.73754850871048
 20
-239.6812651891227
 10
24.73754850871048
 20
-235.8153499123111
 10
24.73754850871048
 20
-231.9496815799442
 10
21.59278164449572
 20
-228.8049851918421
 10
17.72721924311443
 20
-228.8049851918421
 97
        0
 97
        1
330
AB
 92
        1
 93
        1
 72
     4
 94
        3
 73
     0
 74
     0
 95
       17
 96
       13
 40
0.0
 40
0.0
 40
0.0
 40
0.0
 40
1.0
 40
1.0
 40
1.0
 40
2.0
 40
2.0
 40
2.0
 40
3.0
 40
3.0
 40
3.0
 40
4.0
 40
4.0
 40
4.0
 40
4.0
 10
17.72721924311443
 20
-242.9647796327463
 10
13.78510406590839
 20
-242.9647796327463
 10
10.57804322957871
 20
-239.7576768557701
 10
10.57804322957871
 20
-235.8153499123111
 10
10.57804322957871
 20
-231.8733051910749
 10
13.78510406590839
 20
-228.6661671363206
 10
17.72721924311443
 20
-228.6661671363206
 10
21.66922858698984
 20
-228.6661671363206
 10
24.87633128294761
 20
-231.8733051910749
 10
24.87633128294761
 20
-235.8153499123111
 10
24.87633128294761
 20
-239.7576768557701
 10
21.66922858698984
 20
-242.9647796327463
 10
17.72721924311443
 20
-242.9647796327463
 97
        0
 97
        1
330
AC
 75
     2
 76
     1
 98
        1
 10
0.0
 20
0.0
450
        0
451
        0
460
0.0
461
0.0
452
        0
462
0.0
453
        0
470

  0
INSERT
  5
AF
330
A7
100
AcDbEntity
  8
Слой 1
100
AcDbBlockReference
  2
Block_5
 10
0.0
 20
0.0
 30
0.0
  0
ENDBLK
  5
AA
330
A7
100
AcDbEntity
  8
0
100
AcDbBlockEnd
  0
BLOCK
  5
B0
330
AE
100
AcDbEntity
  8
0
100
AcDbBlockBegin
  2
Block_5
 70
     0
 10
0.0
 20
0.0
 30
0.0
  3
Block_5
  1

  0
SPLINE
  5
B2
330
AE
100
AcDbEntity
  8
Слой 1
100
AcDbSpline
210
0.0
220
0.0
230
1.0
 70
    11
 71
     3
 72
    17
 73
    13
 74
     0
 42
0.0000000001
 43
0.0000000001
 40
0.0
 40
0.0
 40
0.0
 40
0.0
 40
1.0
 40
1.0
 40
1.0
 40
2.0
 40
2.0
 40
2.0
 40
3.0
 40
3.0
 40
3.0
 40
4.0
 40
4.0
 40
4.0
 40
4.0
 10
16.77923482285508
 20
-237.4107521341351
 30
0.0
 10
16.77923482285508
 20
-237.4107521341351
 30
0.0
 10
18.68003671880603
 20
-237.4107521341351
 30
0.0
 10
18.68003671880603
 20
-237.4107521341351
 30
0.0
 10
18.68003671880603
 20
-237.4107521341351
 30
0.0
 10
18.68003671880603
 20
-235.5096679679431
 30
0.0
 10
18.68003671880603
 20
-235.5096679679431
 30
0.0
 10
18.68003671880603
 20
-235.5096679679431
 30
0.0
 10
16.77923482285508
 20
-235.5096679679431
 30
0.0
 10
16.77923482285508
 20
-235.5096679679431
 30
0.0
 10
16.77923482285508
 20
-235.5096679679431
 30
0.0
 10
16.77923482285508
 20
-237.4107521341351
 30
0.0
 10
16.77923482285508
 20
-237.4107521341351
 30
0.0
  0
SPLINE
  5
B3
330
AE
100
AcDbEntity
  8
Слой 1
100
AcDbSpline
210
0.0
220
0.0
230
1.0
 70
     9
 71
     3
 72
    29
 73
    25
 74
     0
 42
0.0000000001
 43
0.0000000001
 40
0.0
 40
0.0
 40
0.0
 40
0.0
 40
1.0
 40
1.0
 40
1.0
 40
2.0
 40
2.0
 40
2.0
 40
3.0
 40
3.0
 40
3.0
 40
4.0
 40
4.0
 40
4.0
 40
5.0
 40
5.0
 40
5.0
 40
6.0
 40
6.0
 40
6.0
 40
7.0
 40
7.0
 40
7.0
 40
8.0
 40
8.0
 40
8.0
 40
8.0
 10
18.90221615758221
 20
-237.8551815784684
 30
0.0
 10
18.90221615758221
 20
-237.8551815784684
 30
0.0
 10
16.55698482852515
 20
-237.8551815784684
 30
0.0
 10
16.55698482852515
 20
-237.8551815784684
 30
0.0
 10
16.43453566498243
 20
-237.8551815784684
 30
0.0
 10
16.3347701119721
 20
-237.7555218562707
 30
0.0
 10
16.3347701119721
 20
-237.6330021340799
 30
0.0
 10
16.3347701119721
 20
-237.6330021340799
 30
0.0
 10
16.3347701119721
 20
-235.287700190221
 30
0.0
 10
16.3347701119721
 20
-235.287700190221
 30
0.0
 10
16.3347701119721
 20
-235.165180468029
 30
0.0
 10
16.43453566498243
 20
-235.0657324124989
 30
0.0
 10
16.55698482852515
 20
-235.0657324124989
 30
0.0
 10
16.55698482852515
 20
-235.0657324124989
 30
0.0
 10
18.90221615758221
 20
-235.0657324124989
 30
0.0
 10
18.90221615758221
 20
-235.0657324124989
 30
0.0
 10
19.02470059890181
 20
-235.0657324124989
 30
0.0
 10
19.12453670746589
 20
-235.165180468029
 30
0.0
 10
19.12453670746589
 20
-235.287700190221
 30
0.0
 10
19.12453670746589
 20
-235.287700190221
 30
0.0
 10
19.12453670746589
 20
-237.6330021340799
 30
0.0
 10
19.12453670746589
 20
-237.6330021340799
 30
0.0
 10
19.12453670746589
 20
-237.7555218562707
 30
0.0
 10
19.02470059890181
 20
-237.8551815784684
 30
0.0
 10
18.90221615758221
 20
-237.8551815784684
 30
0.0
  0
HATCH
  5
B4
330
AE
100
AcDbEntity
  8
Слой 1
 62
   250
420
  3947579
440
 33554687
100
AcDbHatch
 10
0.0
 20
0.0
 30
0.0
210
0.0
220
0.0
230
1.0
  2
SOLID
 70
     1
 71
     1
 91
        2
 92
        1
 93
        1
 72
     4
 94
        3
 73
     0
 74
     0
 95
       17
 96
       13
 40
0.0
 40
0.0
 40
0.0
 40
0.0
 40
1.0
 40
1.0
 40
1.0
 40
2.0
 40
2.0
 40
2.0
 40
3.0
 40
3.0
 40
3.0
 40
4.0
 40
4.0
 40
4.0
 40
4.0
 10
16.77923482285508
 20
-237.4107521341351
 10
16.77923482285508
 20
-237.4107521341351
 10
18.68003671880603
 20
-237.4107521341351
 10
18.68003671880603
 20
-237.4107521341351
 10
18.68003671880603
 20
-237.4107521341351
 10
18.68003671880603
 20
-235.5096679679431
 10
18.68003671880603
 20
-235.5096679679431
 10
18.68003671880603
 20
-235.5096679679431
 10
16.77923482285508
 20
-235.5096679679431
 10
16.77923482285508
 20
-235.5096679679431
 10
16.77923482285508
 20
-235.5096679679431
 10
16.77923482285508
 20
-237.4107521341351
 10
16.77923482285508
 20
-237.4107521341351
 97
        0
 97
        1
330
B2
 92
        1
 93
        1
 72
     4
 94
        3
 73
     0
 74
     0
 95
       29
 96
       25
 40
0.0
 40
0.0
 40
0.0
 40
0.0
 40
1.0
 40
1.0
 40
1.0
 40
2.0
 40
2.0
 40
2.0
 40
3.0
 40
3.0
 40
3.0
 40
4.0
 40
4.0
 40
4.0
 40
5.0
 40
5.0
 40
5.0
 40
6.0
 40
6.0
 40
6.0
 40
7.0
 40
7.0
 40
7.0
 40
8.0
 40
8.0
 40
8.0
 40
8.0
 10
18.90221615758221
 20
-237.8551815784684
 10
18.90221615758221
 20
-237.8551815784684
 10
16.55698482852515
 20
-237.8551815784684
 10
16.55698482852515
 20
-237.8551815784684
 10
16.43453566498243
 20
-237.8551815784684
 10
16.3347701119721
 20
-237.7555218562707
 10
16.3347701119721
 20
-237.6330021340799
 10
16.3347701119721
 20
-237.6330021340799
 10
16.3347701119721
 20
-235.287700190221
 10
16.3347701119721
 20
-235.287700190221
 10
16.3347701119721
 20
-235.165180468029
 10
16.43453566498243
 20
-235.0657324124989
 10
16.55698482852515
 20
-235.0657324124989
 10
16.55698482852515
 20
-235.0657324124989
 10
18.90221615758221
 20
-235.0657324124989
 10
18.90221615758221
 20
-235.0657324124989
 10
19.02470059890181
 20
-235.0657324124989
 10
19.12453670746589
 20
-235.165180468029
 10
19.12453670746589
 20
-235.287700190221
 10
19.12453670746589
 20
-235.287700190221
 10
19.12453670746589
 20
-237.6330021340799
 10
19.12453670746589
 20
-237.6330021340799
 10
19.12453670746589
 20
-237.7555218562707
 10
19.02470059890181
 20
-237.8551815784684
 10
18.90221615758221
 20
-237.8551815784684
 97
        0
 97
        1
330
B3
 75
     2
 76
     1
 98
        1
 10
0.0
 20
0.0
450
        0
451
        0
460
0.0
461
0.0
452
        0
462
0.0
453
        0
470

  0
INSERT
  5
B6
330
AE
100
AcDbEntity
  8
Слой 1
100
AcDbBlockReference
  2
Block_6
 10
0.0
 20
0.0
 30
0.0
  0
ENDBLK
  5
B1
330
AE
100
AcDbEntity
  8
0
100
AcDbBlockEnd
  0
BLOCK
  5
B7
330
B5
100
AcDbEntity
  8
0
100
AcDbBlockBegin
  2
Block_6
 70
     0
 10
0.0
 20
0.0
 30
0.0
  3
Block_6
  1

  0
SPLINE
  5
B9
330
B5
100
AcDbEntity
  8
Слой 1
100
AcDbSpline
210
0.0
220
0.0
230
1.0
 70
     9
 71
     3
 72
    35
 73
    31
 74
     0
 42
0.0000000001
 43
0.0000000001
 40
0.0
 40
0.0
 40
0.0
 40
0.0
 40
1.0
 40
1.0
 40
1.0
 40
2.0
 40
2.0
 40
2.0
 40
3.0
 40
3.0
 40
3.0
 40
4.0
 40
4.0
 40
4.0
 40
5.0
 40
5.0
 40
5.0
 40
6.0
 40
6.0
 40
6.0
 40
7.0
 40
7.0
 40
7.0
 40
8.0
 40
8.0
 40
8.0
 40
9.0
 40
9.0
 40
9.0
 40
10.0
 40
10.0
 40
10.0
 40
10.0
 10
13.45744407426769
 20
-235.2492474124527
 30
0.0
 10
13.3953904647397
 20
-235.2492474124527
 30
0.0
 10
13.33390129964175
 20
-235.2234946346813
 30
0.0
 10
13.28998046742893
 20
-235.1730826902498
 30
0.0
 10
13.20951185837075
 20
-235.0803021347178
 30
0.0
 10
13.21921324701213
 20
-234.9402140791966
 30
0.0
 10
13.31164102243188
 20
-234.8598160236618
 30
0.0
 10
13.31164102243188
 20
-234.8598160236618
 30
0.0
 10
17.58402674676758
 20
-231.1437254690349
 30
0.0
 10
17.58402674676758
 20
-231.1437254690349
 30
0.0
 10
17.66752924463725
 20
-231.0710885246083
 30
0.0
 10
17.79223618590015
 20
-231.0710885246083
 30
0.0
 10
17.87570340599295
 20
-231.1437254690349
 30
0.0
 10
17.87570340599295
 20
-231.1437254690349
 30
0.0
 10
22.14777163033675
 20
-234.8598160236618
 30
0.0
 10
22.14777163033675
 20
-234.8598160236618
 30
0.0
 10
22.24005829464898
 20
-234.9402140791966
 30
0.0
 10
22.25032412772042
 20
-235.0803021347178
 30
0.0
 10
22.16957329644721
 20
-235.1730826902498
 30
0.0
 10
22.08924579849653
 20
-235.2652282457826
 30
0.0
 10
21.94940469095306
 20
-235.2752471346688
 30
0.0
 10
21.85627135999576
 20
-235.1947079680226
 30
0.0
 10
21.85627135999576
 20
-235.1947079680226
 30
0.0
 10
17.72982979860338
 20
-231.605511580031
 30
0.0
 10
17.72982979860338
 20
-231.605511580031
 30
0.0
 10
17.72982979860338
 20
-231.605511580031
 30
0.0
 10
13.60300018166536
 20
-235.1947079680226
 30
0.0
 10
13.60300018166536
 20
-235.1947079680226
 30
0.0
 10
13.56126657161896
 20
-235.2313615791239
 30
0.0
 10
13.50919657294738
 20
-235.2492474124527
 30
0.0
 10
13.45744407426769
 20
-235.2492474124527
 30
0.0
  0
HATCH
  5
BA
330
B5
100
AcDbEntity
  8
Слой 1
 62
   250
420
  3947579
440
 33554687
100
AcDbHatch
 10
0.0
 20
0.0
 30
0.0
210
0.0
220
0.0
230
1.0
  2
SOLID
 70
     1
 71
     1
 91
        1
 92
        1
 93
        1
 72
     4
 94
        3
 73
     0
 74
     0
 95
       35
 96
       31
 40
0.0
 40
0.0
 40
0.0
 40
0.0
 40
1.0
 40
1.0
 40
1.0
 40
2.0
 40
2.0
 40
2.0
 40
3.0
 40
3.0
 40
3.0
 40
4.0
 40
4.0
 40
4.0
 40
5.0
 40
5.0
 40
5.0
 40
6.0
 40
6.0
 40
6.0
 40
7.0
 40
7.0
 40
7.0
 40
8.0
 40
8.0
 40
8.0
 40
9.0
 40
9.0
 40
9.0
 40
10.0
 40
10.0
 40
10.0
 40
10.0
 10
13.45744407426769
 20
-235.2492474124527
 10
13.3953904647397
 20
-235.2492474124527
 10
13.33390129964175
 20
-235.2234946346813
 10
13.28998046742893
 20
-235.1730826902498
 10
13.20951185837075
 20
-235.0803021347178
 10
13.21921324701213
 20
-234.9402140791966
 10
13.31164102243188
 20
-234.8598160236618
 10
13.31164102243188
 20
-234.8598160236618
 10
17.58402674676758
 20
-231.1437254690349
 10
17.58402674676758
 20
-231.1437254690349
 10
17.66752924463725
 20
-231.0710885246083
 10
17.79223618590015
 20
-231.0710885246083
 10
17.87570340599295
 20
-231.1437254690349
 10
17.87570340599295
 20
-231.1437254690349
 10
22.14777163033675
 20
-234.8598160236618
 10
22.14777163033675
 20
-234.8598160236618
 10
22.24005829464898
 20
-234.9402140791966
 10
22.25032412772042
 20
-235.0803021347178
 10
22.16957329644721
 20
-235.1730826902498
 10
22.08924579849653
 20
-235.2652282457826
 10
21.94940469095306
 20
-235.2752471346688
 10
21.85627135999576
 20
-235.1947079680226
 10
21.85627135999576
 20
-235.1947079680226
 10
17.72982979860338
 20
-231.605511580031
 10
17.72982979860338
 20
-231.605511580031
 10
17.72982979860338
 20
-231.605511580031
 10
13.60300018166536
 20
-235.1947079680226
 10
13.60300018166536
 20
-235.1947079680226
 10
13.56126657161896
 20
-235.2313615791239
 10
13.50919657294738
 20
-235.2492474124527
 10
13.45744407426769
 20
-235.2492474124527
 97
        0
 97
        1
330
B9
 75
     2
 76
     1
 98
        1
 10
0.0
 20
0.0
450
        0
451
        0
460
0.0
461
0.0
452
        0
462
0.0
453
        0
470

  0
SPLINE
  5
BB
330
B5
100
AcDbEntity
  8
Слой 1
100
AcDbSpline
210
0.0
220
0.0
230
1.0
 70
     9
 71
     3
 72
    41
 73
    37
 74
     0
 42
0.0000000001
 43
0.0000000001
 40
0.0
 40
0.0
 40
0.0
 40
0.0
 40
1.0
 40
1.0
 40
1.0
 40
2.0
 40
2.0
 40
2.0
 40
3.0
 40
3.0
 40
3.0
 40
4.0
 40
4.0
 40
4.0
 40
5.0
 40
5.0
 40
5.0
 40
6.0
 40
6.0
 40
6.0
 40
7.0
 40
7.0
 40
7.0
 40
8.0
 40
8.0
 40
8.0
 40
9.0
 40
9.0
 40
9.0
 40
10.0
 40
10.0
 40
10.0
 40
11.0
 40
11.0
 40
11.0
 40
12.0
 40
12.0
 40
12.0
 40
12.0
 10
20.81716444206114
 20
-239.6644376891272
 30
0.0
 10
20.81716444206114
 20
-239.6644376891272
 30
0.0
 10
14.6528668215477
 20
-239.6644376891272
 30
0.0
 10
14.6528668215477
 20
-239.6644376891272
 30
0.0
 10
14.53031182467433
 20
-239.6644376891272
 30
0.0
 10
14.43065210499464
 20
-239.5647779669295
 30
0.0
 10
14.43065210499464
 20
-239.4422229669606
 30
0.0
 10
14.43065210499464
 20
-239.4422229669606
 30
0.0
 10
14.43065210499464
 20
-235.1545265791437
 30
0.0
 10
14.43065210499464
 20
-235.1545265791437
 30
0.0
 10
14.43065210499464
 20
-235.0321126902848
 30
0.0
 10
14.53031182467433
 20
-234.9326999125317
 30
0.0
 10
14.6528668215477
 20
-234.9326999125317
 30
0.0
 10
14.7753512628673
 20
-234.9326999125317
 30
0.0
 10
14.87508153810075
 20
-235.0321126902848
 30
0.0
 10
14.87508153810075
 20
-235.1545265791437
 30
0.0
 10
14.87508153810075
 20
-235.1545265791437
 30
0.0
 10
14.87508153810075
 20
-239.2200082447939
 30
0.0
 10
14.87508153810075
 20
-239.2200082447939
 30
0.0
 10
14.87508153810075
 20
-239.2200082447939
 30
0.0
 10
20.59494972550809
 20
-239.2200082447939
 30
0.0
 10
20.59494972550809
 20
-239.2200082447939
 30
0.0
 10
20.59494972550809
 20
-239.2200082447939
 30
0.0
 10
20.59494972550809
 20
-235.1545265791437
 30
0.0
 10
20.59494972550809
 20
-235.1545265791437
 30
0.0
 10
20.59494972550809
 20
-235.0321126902848
 30
0.0
 10
20.69471527851841
 20
-234.9326999125317
 30
0.0
 10
20.81716444206114
 20
-234.9326999125317
 30
0.0
 10
20.93968416115763
 20
-234.9326999125317
 30
0.0
 10
21.03937915861419
 20
-235.0321126902848
 30
0.0
 10
21.03937915861419
 20
-235.1545265791437
 30
0.0
 10
21.03937915861419
 20
-235.1545265791437
 30
0.0
 10
21.03937915861419
 20
-239.4422229669606
 30
0.0
 10
21.03937915861419
 20
-239.4422229669606
 30
0.0
 10
21.03937915861419
 20
-239.5647779669295
 30
0.0
 10
20.93968416115763
 20
-239.6644376891272
 30
0.0
 10
20.81716444206114
 20
-239.6644376891272
 30
0.0
  0
HATCH
  5
BC
330
B5
100
AcDbEntity
  8
Слой 1
 62
   250
420
  3947579
440
 33554687
100
AcDbHatch
 10
0.0
 20
0.0
 30
0.0
210
0.0
220
0.0
230
1.0
  2
SOLID
 70
     1
 71
     1
 91
        1
 92
        1
 93
        1
 72
     4
 94
        3
 73
     0
 74
     0
 95
       41
 96
       37
 40
0.0
 40
0.0
 40
0.0
 40
0.0
 40
1.0
 40
1.0
 40
1.0
 40
2.0
 40
2.0
 40
2.0
 40
3.0
 40
3.0
 40
3.0
 40
4.0
 40
4.0
 40
4.0
 40
5.0
 40
5.0
 40
5.0
 40
6.0
 40
6.0
 40
6.0
 40
7.0
 40
7.0
 40
7.0
 40
8.0
 40
8.0
 40
8.0
 40
9.0
 40
9.0
 40
9.0
 40
10.0
 40
10.0
 40
10.0
 40
11.0
 40
11.0
 40
11.0
 40
12.0
 40
12.0
 40
12.0
 40
12.0
 10
20.81716444206114
 20
-239.6644376891272
 10
20.81716444206114
 20
-239.6644376891272
 10
14.6528668215477
 20
-239.6644376891272
 10
14.6528668215477
 20
-239.6644376891272
 10
14.53031182467433
 20
-239.6644376891272
 10
14.43065210499464
 20
-239.5647779669295
 10
14.43065210499464
 20
-239.4422229669606
 10
14.43065210499464
 20
-239.4422229669606
 10
14.43065210499464
 20
-235.1545265791437
 10
14.43065210499464
 20
-235.1545265791437
 10
14.43065210499464
 20
-235.0321126902848
 10
14.53031182467433
 20
-234.9326999125317
 10
14.6528668215477
 20
-234.9326999125317
 10
14.7753512628673
 20
-234.9326999125317
 10
14.87508153810075
 20
-235.0321126902848
 10
14.87508153810075
 20
-235.1545265791437
 10
14.87508153810075
 20
-235.1545265791437
 10
14.87508153810075
 20
-239.2200082447939
 10
14.87508153810075
 20
-239.2200082447939
 10
14.87508153810075
 20
-239.2200082447939
 10
20.59494972550809
 20
-239.2200082447939
 10
20.59494972550809
 20
-239.2200082447939
 10
20.59494972550809
 20
-239.2200082447939
 10
20.59494972550809
 20
-235.1545265791437
 10
20.59494972550809
 20
-235.1545265791437
 10
20.59494972550809
 20
-235.0321126902848
 10
20.69471527851841
 20
-234.9326999125317
 10
20.81716444206114
 20
-234.9326999125317
 10
20.93968416115763
 20
-234.9326999125317
 10
21.03937915861419
 20
-235.0321126902848
 10
21.03937915861419
 20
-235.1545265791437
 10
21.03937915861419
 20
-235.1545265791437
 10
21.03937915861419
 20
-239.4422229669606
 10
21.03937915861419
 20
-239.4422229669606
 10
21.03937915861419
 20
-239.5647779669295
 10
20.93968416115763
 20
-239.6644376891272
 10
20.81716444206114
 20
-239.6644376891272
 97
        0
 97
        1
330
BB
 75
     2
 76
     1
 98
        1
 10
0.0
 20
0.0
450
        0
451
        0
460
0.0
461
0.0
452
        0
462
0.0
453
        0
470

  0
ENDBLK
  5
B8
330
B5
100
AcDbEntity
  8
0
100
AcDbBlockEnd
  0
BLOCK
  5
D4
330
D2
100
AcDbEntity
  8
0
100
AcDbBlockBegin
  2
Block_7
 70
     0
 10
0.0
 20
0.0
 30
0.0
  3
Block_7
  1

  0
LINE
  5
D6
330
D2
100
AcDbEntity
  8
Слой 1
 62
   250
420
  3947579
370
    25
100
AcDbLine
 10
38.9299969850857
 20
-164.1999874417066
 30
0.0
 11
38.66979252801336
 21
-173.6944616801684
 31
0.0
  0
LINE
  5
D7
330
D2
100
AcDbEntity
  8
Слой 1
 62
   250
420
  3947579
370
    25
100
AcDbLine
 10
38.9299969850857
 20
-163.8831940634521
 30
0.0
 11
39.70423521030006
 21
-134.3382320151678
 31
0.0
  0
LINE
  5
D8
330
D2
100
AcDbEntity
  8
Слой 1
 62
   250
420
  3947579
370
    25
100
AcDbLine
 10
39.93415392369519
 20
-163.8831940634521
 30
0.0
 11
39.93415392369519
 21
-164.1999874417066
 31
0.0
  0
LINE
  5
D9
330
D2
100
AcDbEntity
  8
Слой 1
 62
   250
420
  3947579
370
    25
100
AcDbLine
 10
53.61581311312122
 20
-133.647673281494
 30
0.0
 11
54.01946899572777
 21
-121.1136194160842
 31
0.0
  0
LINE
  5
DA
330
D2
100
AcDbEntity
  8
Слой 1
 62
   250
420
  3947579
370
    25
100
AcDbLine
 10
72.14770891944898
 20
-173.0043042432392
 30
0.0
 11
70.02622936037363
 21
-171.2557935263481
 31
0.0
  0
LINE
  5
DB
330
D2
100
AcDbEntity
  8
Слой 1
 62
   250
420
  3947579
370
    25
100
AcDbLine
 10
56.02738157620227
 20
-159.2357764692074
 30
0.0
 11
55.97079873527441
 21
-159.1791936282786
 31
0.0
  0
LINE
  5
DC
330
D2
100
AcDbEntity
  8
Слой 1
 62
   250
420
  3947579
370
    25
100
AcDbLine
 10
55.97079873527441
 20
-159.1791936282786
 30
0.0
 11
55.97079873527441
 21
-161.2142058994927
 31
0.0
  0
LINE
  5
DD
330
D2
100
AcDbEntity
  8
Слой 1
 62
   250
420
  3947579
370
    25
100
AcDbLine
 10
56.42825270261477
 20
-164.1999874417066
 30
0.0
 11
56.42825270261477
 21
-163.8831940634521
 31
0.0
  0
LINE
  5
DE
330
D2
100
AcDbEntity
  8
Слой 1
 62
   250
420
  3947579
370
    25
100
AcDbLine
 10
38.66979252801336
 20
-173.6944616801684
 30
0.0
 11
72.14770891944898
 21
-173.6944616801684
 31
0.0
  0
LINE
  5
DF
330
D2
100
AcDbEntity
  8
Слой 1
 62
   250
420
  3947579
370
    25
100
AcDbLine
 10
110.5029707389052
 20
-173.6944616801684
 30
0.0
 11
140.681908679935
 21
-173.6944616801684
 31
0.0
  0
LINE
  5
E0
330
D2
100
AcDbEntity
  8
Слой 1
 62
   250
420
  3947579
370
    25
100
AcDbLine
 10
69.62535823396146
 20
-169.3044577065477
 30
0.0
 11
73.72567460031996
 21
-170.4520691108176
 31
0.0
  0
LINE
  5
E1
330
D2
100
AcDbEntity
  8
Слой 1
 62
   250
420
  3947579
370
    25
100
AcDbLine
 10
62.10931342578525
 20
-161.1576230585646
 30
0.0
 11
62.16590234696713
 21
-161.2142058994927
 31
0.0
  0
LINE
  5
E2
330
D2
100
AcDbEntity
  8
Слой 1
 62
   250
420
  3947579
370
    25
100
AcDbLine
 10
61.70565754317902
 20
-163.8831940634521
 30
0.0
 11
61.70565754317902
 21
-164.1999874417066
 31
0.0
  0
LINE
  5
E3
330
D2
100
AcDbEntity
  8
Слой 1
 62
   250
420
  3947579
370
    25
100
AcDbLine
 10
70.02622936037363
 20
-171.2557935263481
 30
0.0
 11
69.56599063683921
 21
-171.2557935263481
 31
0.0
  0
LINE
  5
E4
330
D2
100
AcDbEntity
  8
Слой 1
 62
   250
420
  3947579
370
    25
100
AcDbLine
 10
109.7291368505622
 20
-169.3044577065477
 30
0.0
 11
76.85490148781467
 21
-169.3044577065477
 31
0.0
  0
LINE
  5
E5
330
D2
100
AcDbEntity
  8
Слой 1
 62
   250
420
  3947579
370
    25
100
AcDbLine
 10
62.16590234696713
 20
-161.2142058994927
 30
0.0
 11
62.16590234696713
 21
-159.1791936282786
 31
0.0
  0
LINE
  5
E6
330
D2
100
AcDbEntity
  8
Слой 1
 62
   250
420
  3947579
370
    25
100
AcDbLine
 10
64.03116609539637
 20
-120.5398258744573
 30
0.0
 11
64.31766764971968
 21
-109.8977402317246
 31
0.0
  0
LINE
  5
E7
330
D2
100
AcDbEntity
  8
Слой 1
 62
   250
420
  3947579
370
    25
100
AcDbLine
 10
140.4244950593111
 20
-164.1999874417066
 30
0.0
 11
38.9299969850857
 21
-164.1999874417066
 31
0.0
  0
LINE
  5
E8
330
D2
100
AcDbEntity
  8
Слой 1
 62
   250
420
  3947579
370
    25
100
AcDbLine
 10
38.9299969850857
 20
-163.8831940634521
 30
0.0
 11
140.4244950593111
 21
-163.8831940634521
 31
0.0
  0
LINE
  5
E9
330
D2
100
AcDbEntity
  8
Слой 1
 62
   250
420
  3947579
370
    25
100
AcDbLine
 10
123.384085485486
 20
-161.2142058994927
 30
0.0
 11
117.1885988178099
 21
-161.2142058994927
 31
0.0
  0
LINE
  5
EA
330
D2
100
AcDbEntity
  8
Слой 1
 62
   250
420
  3947579
370
    25
100
AcDbLine
 10
55.97079873527441
 20
-161.2142058994927
 30
0.0
 11
62.16590234696713
 21
-161.2142058994927
 31
0.0
  0
LINE
  5
EB
330
D2
100
AcDbEntity
  8
Слой 1
 62
   250
420
  3947579
370
    25
100
AcDbLine
 10
72.14770891944898
 20
-173.6944616801684
 30
0.0
 11
72.14770891944898
 21
-173.0043042432392
 31
0.0
  0
LINE
  5
EC
330
D2
100
AcDbEntity
  8
Слой 1
 62
   250
420
  3947579
370
    25
100
AcDbLine
 10
69.56599063683921
 20
-171.2557935263481
 30
0.0
 11
69.62535823396146
 21
-169.3044577065477
 31
0.0
  0
LINE
  5
ED
330
D2
100
AcDbEntity
  8
Слой 1
 62
   250
420
  3947579
370
    25
100
AcDbLine
 10
62.16590234696713
 20
-159.1791936282786
 30
0.0
 11
55.97079873527441
 21
-159.1791936282786
 31
0.0
  0
LINE
  5
EE
330
D2
100
AcDbEntity
  8
Слой 1
 62
   250
420
  3947579
370
    25
100
AcDbLine
 10
117.1885988178099
 20
-159.1791936282786
 30
0.0
 11
123.384085485486
 21
-159.1791936282786
 31
0.0
  0
LINE
  5
EF
330
D2
100
AcDbEntity
  8
Слой 1
 62
   250
420
  3947579
370
    25
100
AcDbLine
 10
81.64537529110273
 20
-163.8831940634521
 30
0.0
 11
81.67246890158802
 21
-164.1999874417066
 31
0.0
  0
LINE
  5
F0
330
D2
100
AcDbEntity
  8
Слой 1
 62
   250
420
  3947579
370
    25
100
AcDbLine
 10
81.78882671663663
 20
-164.1999874417066
 30
0.0
 11
81.75894226970326
 21
-163.8831940634521
 31
0.0
  0
LINE
  5
F1
330
D2
100
AcDbEntity
  8
Слой 1
 62
   250
420
  3947579
370
    25
100
AcDbLine
 10
56.02738157620227
 20
-161.1576230585646
 30
0.0
 11
55.97079873527441
 21
-161.2142058994927
 31
0.0
  0
LINE
  5
F2
330
D2
100
AcDbEntity
  8
Слой 1
 62
   250
420
  3947579
370
    25
100
AcDbLine
 10
62.10931342578525
 20
-159.2357764692074
 30
0.0
 11
62.16590234696713
 21
-159.1791936282786
 31
0.0
  0
LINE
  5
F3
330
D2
100
AcDbEntity
  8
Слой 1
 62
   250
420
  3947579
370
    25
100
AcDbLine
 10
39.93415392369519
 20
-134.1079120050288
 30
0.0
 11
53.61581311312122
 21
-133.647673281494
 31
0.0
  0
LINE
  5
F4
330
D2
100
AcDbEntity
  8
Слой 1
 62
   250
420
  3947579
370
    25
100
AcDbLine
 10
125.7358911349547
 20
-133.647673281494
 30
0.0
 11
139.4203411608278
 21
-134.1079120050288
 31
0.0
  0
LINE
  5
F5
330
D2
100
AcDbEntity
  8
Слой 1
 62
   250
420
  3947579
370
    25
100
AcDbLine
 10
117.2455707949748
 20
-159.2357764692074
 30
0.0
 11
117.1885988178099
 21
-159.1791936282786
 31
0.0
  0
LINE
  5
F6
330
D2
100
AcDbEntity
  8
Слой 1
 62
   250
420
  3947579
370
    25
100
AcDbLine
 10
97.56566228763334
 20
-164.1999874417066
 30
0.0
 11
97.56566228763334
 21
-163.8831940634521
 31
0.0
  0
LINE
  5
F7
330
D2
100
AcDbEntity
  8
Слой 1
 62
   250
420
  3947579
370
    25
100
AcDbLine
 10
97.67922926623388
 20
-163.8831940634521
 30
0.0
 11
97.67922926623388
 21
-164.1999874417066
 31
0.0
  0
LINE
  5
F8
330
D2
100
AcDbEntity
  8
Слой 1
 62
   250
420
  3947579
370
    25
100
AcDbLine
 10
123.327113508321
 20
-161.1576230585646
 30
0.0
 11
123.384085485486
 21
-161.2142058994927
 31
0.0
  0
LINE
  5
F9
330
D2
100
AcDbEntity
  8
Слой 1
 62
   250
420
  3947579
370
    25
100
AcDbLine
 10
110.5029707389052
 20
-173.6944616801684
 30
0.0
 11
109.7291368505622
 21
-169.3044577065477
 31
0.0
  0
LINE
  5
FA
330
D2
100
AcDbEntity
  8
Слой 1
 62
   250
420
  3947579
370
    25
100
AcDbLine
 10
74.2994803024549
 20
-170.3950849731453
 30
0.0
 11
76.85490148781467
 21
-169.3044577065477
 31
0.0
  0
LINE
  5
FB
330
D2
100
AcDbEntity
  8
Слой 1
 62
   250
420
  3947579
370
    25
100
AcDbLine
 10
54.24938770912291
 20
-120.8837007026891
 30
0.0
 11
64.03116609539637
 21
-120.5398258744573
 31
0.0
  0
LINE
  5
FC
330
D2
100
AcDbEntity
  8
Слой 1
 62
   250
420
  3947579
370
    25
100
AcDbLine
 10
115.2938458389377
 20
-120.5398258744573
 30
0.0
 11
125.1055025918909
 21
-120.8837007026891
 31
0.0
  0
LINE
  5
FD
330
D2
100
AcDbEntity
  8
Слой 1
 62
   250
420
  3947579
370
    25
100
AcDbLine
 10
115.0368213545499
 20
-109.8977402317246
 30
0.0
 11
115.2938458389377
 21
-120.5398258744573
 31
0.0
  0
LINE
  5
FE
330
D2
100
AcDbEntity
  8
Слой 1
 62
   250
420
  3947579
370
    25
100
AcDbLine
 10
117.1885988178099
 20
-161.2142058994927
 30
0.0
 11
117.1885988178099
 21
-159.1791936282786
 31
0.0
  0
LINE
  5
FF
330
D2
100
AcDbEntity
  8
Слой 1
 62
   250
420
  3947579
370
    25
100
AcDbLine
 10
125.3354213052863
 20
-121.1136194160842
 30
0.0
 11
125.7358911349547
 21
-133.647673281494
 31
0.0
  0
LINE
  5
100
330
D2
100
AcDbEntity
  8
Слой 1
 62
   250
420
  3947579
370
    25
100
AcDbLine
 10
123.384085485486
 20
-159.1791936282786
 30
0.0
 11
123.384085485486
 21
-161.2142058994927
 31
0.0
  0
LINE
  5
101
330
D2
100
AcDbEntity
  8
Слой 1
 62
   250
420
  3947579
370
    25
100
AcDbLine
 10
117.2455707949748
 20
-161.1576230585646
 30
0.0
 11
117.1885988178099
 21
-161.2142058994927
 31
0.0
  0
LINE
  5
102
330
D2
100
AcDbEntity
  8
Слой 1
 62
   250
420
  3947579
370
    25
100
AcDbLine
 10
123.327113508321
 20
-159.2357764692074
 30
0.0
 11
123.384085485486
 21
-159.1791936282786
 31
0.0
  0
LINE
  5
103
330
D2
100
AcDbEntity
  8
Слой 1
 62
   250
420
  3947579
370
    25
100
AcDbLine
 10
66.58340122781694
 20
-107.6889907913003
 30
0.0
 11
112.7683030202583
 21
-107.6889907913003
 31
0.0
  0
LINE
  5
104
330
D2
100
AcDbEntity
  8
Слой 1
 62
   250
420
  3947579
370
    25
100
AcDbLine
 10
139.4203411608278
 20
-164.1999874417066
 30
0.0
 11
139.3904506336417
 21
-163.8831940634521
 31
0.0
  0
LINE
  5
105
330
D2
100
AcDbEntity
  8
Слой 1
 62
   250
420
  3947579
370
    25
100
AcDbLine
 10
139.6506611709674
 20
-134.3382320151678
 30
0.0
 11
140.4244950593111
 21
-163.8831940634521
 31
0.0
  0
LINE
  5
106
330
D2
100
AcDbEntity
  8
Слой 1
 62
   250
420
  3947579
370
    25
100
AcDbLine
 10
140.681908679935
 20
-173.6944616801684
 30
0.0
 11
140.4244950593111
 21
-164.1999874417066
 31
0.0
  0
LINE
  5
107
330
D2
100
AcDbEntity
  8
Слой 1
 62
   250
420
  3947579
370
    25
100
AcDbLine
 10
168.2555605612444
 20
-173.6944616801684
 30
0.0
 11
188.4789951072971
 21
-173.6944616801684
 31
0.0
  0
LINE
  5
108
330
D2
100
AcDbEntity
  8
Слой 1
 62
   250
420
  3947579
370
    25
100
AcDbLine
 10
168.4826945184449
 20
-108.2627843329276
 30
0.0
 11
169.0565002205798
 21
-107.6889907913003
 31
0.0
  0
LINE
  5
109
330
D2
100
AcDbEntity
  8
Слой 1
 62
   250
420
  3947579
370
    25
100
AcDbLine
 10
170.1172369599907
 20
-113.2238092524885
 30
0.0
 11
170.2041116248504
 21
-113.1102422738886
 31
0.0
  0
LINE
  5
10A
330
D2
100
AcDbEntity
  8
Слой 1
 62
   250
420
  3947579
370
    25
100
AcDbLine
 10
168.4826945184449
 20
-164.1999874417066
 30
0.0
 11
188.2490763939023
 21
-164.1999874417066
 31
0.0
  0
LINE
  5
10B
330
D2
100
AcDbEntity
  8
Слой 1
 62
   250
420
  3947579
370
    25
100
AcDbLine
 10
168.4826945184449
 20
-163.8831940634521
 30
0.0
 11
188.2490763939023
 21
-163.8831940634521
 31
0.0
  0
LINE
  5
10C
330
D2
100
AcDbEntity
  8
Слой 1
 62
   250
420
  3947579
370
    25
100
AcDbLine
 10
171.7549776149824
 20
-111.9060480286899
 30
0.0
 11
171.6685042468674
 21
-112.0495055344778
 31
0.0
  0
LINE
  5
10D
330
D2
100
AcDbEntity
  8
Слой 1
 62
   250
420
  3947579
370
    25
100
AcDbLine
 10
169.0565002205798
 20
-120.5398258744573
 30
0.0
 11
168.4826945184449
 21
-121.0837410494046
 31
0.0
  0
LINE
  5
10E
330
D2
100
AcDbEntity
  8
Слой 1
 62
   250
420
  3947579
370
    25
100
AcDbLine
 10
170.1774071506016
 20
-120.4832308730217
 30
0.0
 11
170.0606541190625
 21
-120.5398258744573
 31
0.0
  0
LINE
  5
10F
330
D2
100
AcDbEntity
  8
Слой 1
 62
   250
420
  3947579
370
    25
100
AcDbLine
 10
181.9941978080888
 20
-161.8477804954944
 30
0.0
 11
177.8934923054935
 21
-161.8477804954944
 31
0.0
  0
LINE
  5
110
330
D2
100
AcDbEntity
  8
Слой 1
 62
   250
420
  3947579
370
    25
100
AcDbLine
 10
176.8028650388953
 20
-161.7314287607001
 30
0.0
 11
172.2423099490024
 21
-161.7314287607001
 31
0.0
  0
LINE
  5
111
330
D2
100
AcDbEntity
  8
Слой 1
 62
   250
420
  3947579
370
    25
100
AcDbLine
 10
175.4819177621588
 20
-111.9060480286899
 30
0.0
 11
175.3982413107457
 21
-112.0495055344778
 31
0.0
  0
LINE
  5
112
330
D2
100
AcDbEntity
  8
Слой 1
 62
   250
420
  3947579
370
    25
100
AcDbLine
 10
173.4767838576247
 20
-120.5398258744573
 30
0.0
 11
173.5899495394804
 21
-120.4832308730217
 31
0.0
  0
LINE
  5
113
330
D2
100
AcDbEntity
  8
Слой 1
 62
   250
420
  3947579
370
    25
100
AcDbLine
 10
177.2033348685637
 20
-120.5398258744573
 30
0.0
 11
177.3196866033586
 21
-120.4832308730217
 31
0.0
  0
LINE
  5
114
330
D2
100
AcDbEntity
  8
Слой 1
 62
   250
420
  3947579
370
    25
100
AcDbLine
 10
177.9504764431659
 20
-160.7272748622169
 30
0.0
 11
181.9671041976038
 21
-160.7272748622169
 31
0.0
  0
LINE
  5
115
330
D2
100
AcDbEntity
  8
Слой 1
 62
   250
420
  3947579
370
    25
100
AcDbLine
 10
181.9101200599315
 20
-160.7001690912238
 30
0.0
 11
177.9803548098452
 21
-160.7001690912238
 31
0.0
  0
LINE
  5
116
330
D2
100
AcDbEntity
  8
Слой 1
 62
   250
420
  3947579
370
    25
100
AcDbLine
 10
172.2988927899306
 20
-160.613707883617
 30
0.0
 11
176.745880901223
 21
-160.613707883617
 31
0.0
  0
LINE
  5
117
330
D2
100
AcDbEntity
  8
Слой 1
 62
   250
420
  3947579
370
    25
100
AcDbLine
 10
181.4498813363964
 20
-160.5838173564296
 30
0.0
 11
177.9803548098452
 21
-160.5838173564296
 31
0.0
  0
LINE
  5
118
330
D2
100
AcDbEntity
  8
Слой 1
 62
   250
420
  3947579
370
    25
100
AcDbLine
 10
176.7159903740362
 20
-160.5838173564296
 30
0.0
 11
172.328783317118
 21
-160.5838173564296
 31
0.0
  0
LINE
  5
119
330
D2
100
AcDbEntity
  8
Слой 1
 62
   250
420
  3947579
370
    25
100
AcDbLine
 10
179.2116426655289
 20
-111.9060480286899
 30
0.0
 11
179.1279662141152
 21
-112.0495055344778
 31
0.0
  0
LINE
  5
11A
330
D2
100
AcDbEntity
  8
Слой 1
 62
   250
420
  3947579
370
    25
100
AcDbLine
 10
180.9330597719345
 20
-120.5398258744573
 30
0.0
 11
181.0494115067287
 21
-120.4832308730217
 31
0.0
  0
LINE
  5
11B
330
D2
100
AcDbEntity
  8
Слой 1
 62
   250
420
  3947579
370
    25
100
AcDbLine
 10
173.1030185022052
 20
-123.2924904898298
 30
0.0
 11
173.2165854808051
 21
-123.1490329840422
 31
0.0
  0
LINE
  5
11C
330
D2
100
AcDbEntity
  8
Слой 1
 62
   250
420
  3947579
370
    25
100
AcDbLine
 10
182.9413797294065
 20
-111.9060480286899
 30
0.0
 11
182.8545050645474
 21
-112.0495055344778
 31
0.0
  0
LINE
  5
11D
330
D2
100
AcDbEntity
  8
Слой 1
 62
   250
420
  3947579
370
    25
100
AcDbLine
 10
186.2973392773578
 20
-111.9060480286899
 30
0.0
 11
186.154283068314
 21
-112.0495055344778
 31
0.0
  0
LINE
  5
11E
330
D2
100
AcDbEntity
  8
Слой 1
 62
   250
420
  3947579
370
    25
100
AcDbLine
 10
184.662796835812
 20
-120.5398258744573
 30
0.0
 11
184.7791485706069
 21
-120.4832308730217
 31
0.0
  0
LINE
  5
11F
330
D2
100
AcDbEntity
  8
Слой 1
 62
   250
420
  3947579
370
    25
100
AcDbLine
 10
177.9803548098452
 20
-155.5060515658366
 30
0.0
 11
181.9101200599315
 21
-155.5060515658366
 31
0.0
  0
LINE
  5
120
330
D2
100
AcDbEntity
  8
Слой 1
 62
   250
420
  3947579
370
    25
100
AcDbLine
 10
181.9372258309239
 20
-155.5060515658366
 30
0.0
 11
177.9504764431659
 21
-155.5060515658366
 31
0.0
  0
LINE
  5
121
330
D2
100
AcDbEntity
  8
Слой 1
 62
   250
420
  3947579
370
    25
100
AcDbLine
 10
172.328783317118
 20
-155.3924845872368
 30
0.0
 11
176.7159903740362
 21
-155.3924845872368
 31
0.0
  0
LINE
  5
122
330
D2
100
AcDbEntity
  8
Слой 1
 62
   250
420
  3947579
370
    25
100
AcDbLine
 10
176.745880901223
 20
-155.3924845872368
 30
0.0
 11
172.2988927899306
 21
-155.3924845872368
 31
0.0
  0
LINE
  5
123
330
D2
100
AcDbEntity
  8
Слой 1
 62
   250
420
  3947579
370
    25
100
AcDbLine
 10
172.2988927899306
 20
-155.3924845872368
 30
0.0
 11
172.328783317118
 21
-155.3924845872368
 31
0.0
  0
LINE
  5
124
330
D2
100
AcDbEntity
  8
Слой 1
 62
   250
420
  3947579
370
    25
100
AcDbLine
 10
176.745880901223
 20
-160.613707883617
 30
0.0
 11
176.7159903740362
 21
-160.5838173564296
 31
0.0
  0
LINE
  5
125
330
D2
100
AcDbEntity
  8
Слой 1
 62
   250
420
  3947579
370
    25
100
AcDbLine
 10
176.8327434055753
 20
-123.2924904898298
 30
0.0
 11
176.9463103841759
 21
-123.1490329840422
 31
0.0
  0
LINE
  5
126
330
D2
100
AcDbEntity
  8
Слой 1
 62
   250
420
  3947579
370
    25
100
AcDbLine
 10
169.0565002205798
 20
-133.647673281494
 30
0.0
 11
168.4826945184449
 21
-134.1947745093805
 31
0.0
  0
LINE
  5
127
330
D2
100
AcDbEntity
  8
Слой 1
 62
   250
420
  3947579
370
    25
100
AcDbLine
 10
170.6643503483848
 20
-130.3215921002228
 30
0.0
 11
170.5475973168457
 21
-130.3781749411509
 31
0.0
  0
LINE
  5
128
330
D2
100
AcDbEntity
  8
Слой 1
 62
   250
420
  3947579
370
    25
100
AcDbLine
 10
177.8934923054935
 20
-153.8145128261111
 30
0.0
 11
181.9941978080888
 21
-153.8145128261111
 31
0.0
  0
LINE
  5
129
330
D2
100
AcDbEntity
  8
Слой 1
 62
   250
420
  3947579
370
    25
100
AcDbLine
 10
172.2423099490024
 20
-153.7009580080186
 30
0.0
 11
176.8028650388953
 21
-153.7009580080186
 31
0.0
  0
LINE
  5
12A
330
D2
100
AcDbEntity
  8
Слой 1
 62
   250
420
  3947579
370
    25
100
AcDbLine
 10
186.440784622637
 20
-152.3800107312808
 30
0.0
 11
185.093145032159
 21
-152.3800107312808
 31
0.0
  0
LINE
  5
12B
330
D2
100
AcDbEntity
  8
Слой 1
 62
   250
420
  3947579
370
    25
100
AcDbLine
 10
181.9372258309239
 20
-152.3800107312808
 30
0.0
 11
180.646156920866
 21
-152.3800107312808
 31
0.0
  0
LINE
  5
12C
330
D2
100
AcDbEntity
  8
Слой 1
 62
   250
420
  3947579
370
    25
100
AcDbLine
 10
179.1845490550433
 20
-152.3800107312808
 30
0.0
 11
176.9164320174965
 21
-152.3800107312808
 31
0.0
  0
LINE
  5
12D
330
D2
100
AcDbEntity
  8
Слой 1
 62
   250
420
  3947579
370
    25
100
AcDbLine
 10
175.4548241516732
 20
-152.3800107312808
 30
0.0
 11
173.1898810065575
 21
-152.3800107312808
 31
0.0
  0
LINE
  5
12E
330
D2
100
AcDbEntity
  8
Слой 1
 62
   250
420
  3947579
370
    25
100
AcDbLine
 10
171.7250870877956
 20
-152.3800107312808
 30
0.0
 11
169.8905042995344
 21
-152.3800107312808
 31
0.0
  0
LINE
  5
12F
330
D2
100
AcDbEntity
  8
Слой 1
 62
   250
420
  3947579
370
    25
100
AcDbLine
 10
186.2973392773578
 20
-152.2365532254935
 30
0.0
 11
185.2935745151119
 21
-152.2365532254935
 31
0.0
  0
LINE
  5
130
330
D2
100
AcDbEntity
  8
Слой 1
 62
   250
420
  3947579
370
    25
100
AcDbLine
 10
181.7072949570217
 20
-152.2365532254935
 30
0.0
 11
180.762508655661
 21
-152.2365532254935
 31
0.0
  0
LINE
  5
131
330
D2
100
AcDbEntity
  8
Слой 1
 62
   250
420
  3947579
370
    25
100
AcDbLine
 10
178.9546303416486
 20
-152.2365532254935
 30
0.0
 11
177.0327837522915
 21
-152.2365532254935
 31
0.0
  0
LINE
  5
132
330
D2
100
AcDbEntity
  8
Слой 1
 62
   250
420
  3947579
370
    25
100
AcDbLine
 10
175.2249054382778
 20
-152.2365532254935
 30
0.0
 11
173.3034479851574
 21
-152.2365532254935
 31
0.0
  0
LINE
  5
133
330
D2
100
AcDbEntity
  8
Слой 1
 62
   250
420
  3947579
370
    25
100
AcDbLine
 10
171.4951683744008
 20
-152.2365532254935
 30
0.0
 11
170.0040712781349
 21
-152.2365532254935
 31
0.0
  0
LINE
  5
134
330
D2
100
AcDbEntity
  8
Слой 1
 62
   250
420
  3947579
370
    25
100
AcDbLine
 10
171.4951683744008
 20
-152.2365532254935
 30
0.0
 11
171.7250870877956
 21
-152.3800107312808
 31
0.0
  0
LINE
  5
135
330
D2
100
AcDbEntity
  8
Слой 1
 62
   250
420
  3947579
370
    25
100
AcDbLine
 10
175.2249054382778
 20
-152.2365532254935
 30
0.0
 11
175.4548241516732
 21
-152.3800107312808
 31
0.0
  0
LINE
  5
136
330
D2
100
AcDbEntity
  8
Слой 1
 62
   250
420
  3947579
370
    25
100
AcDbLine
 10
181.9671041976038
 20
-160.7272748622169
 30
0.0
 11
181.9101200599315
 21
-160.7001690912238
 31
0.0
  0
LINE
  5
137
330
D2
100
AcDbEntity
  8
Слой 1
 62
   250
420
  3947579
370
    25
100
AcDbLine
 10
169.2298360930477
 20
-164.1999874417066
 30
0.0
 11
169.2298360930477
 21
-163.8831940634521
 31
0.0
  0
LINE
  5
138
330
D2
100
AcDbEntity
  8
Слой 1
 62
   250
420
  3947579
370
    25
100
AcDbLine
 10
168.4826945184449
 20
-163.8831940634521
 30
0.0
 11
168.4826945184449
 21
-108.2627843329276
 31
0.0
  0
LINE
  5
139
330
D2
100
AcDbEntity
  8
Слой 1
 62
   250
420
  3947579
370
    25
100
AcDbLine
 10
168.4826945184449
 20
-164.1999874417066
 30
0.0
 11
168.2555605612444
 21
-173.6944616801684
 31
0.0
  0
LINE
  5
13A
330
D2
100
AcDbEntity
  8
Слой 1
 62
   250
420
  3947579
370
    25
100
AcDbLine
 10
172.0418804660502
 20
-133.647673281494
 30
0.0
 11
172.1554474446507
 21
-133.5639968300806
 31
0.0
  0
LINE
  5
13B
330
D2
100
AcDbEntity
  8
Слой 1
 62
   250
420
  3947579
370
    25
100
AcDbLine
 10
178.9546303416486
 20
-152.2365532254935
 30
0.0
 11
179.1845490550433
 21
-152.3800107312808
 31
0.0
  0
LINE
  5
13C
330
D2
100
AcDbEntity
  8
Слой 1
 62
   250
420
  3947579
370
    25
100
AcDbLine
 10
177.9504764431659
 20
-155.5060515658366
 30
0.0
 11
177.9803548098452
 21
-155.5060515658366
 31
0.0
  0
LINE
  5
13D
330
D2
100
AcDbEntity
  8
Слой 1
 62
   250
420
  3947579
370
    25
100
AcDbLine
 10
173.1898810065575
 20
-152.3800107312808
 30
0.0
 11
169.9172087737826
 21
-145.2943141194523
 31
0.0
  0
LINE
  5
13E
330
D2
100
AcDbEntity
  8
Слой 1
 62
   250
420
  3947579
370
    25
100
AcDbLine
 10
170.0335605085775
 20
-145.1237630031797
 30
0.0
 11
173.3034479851574
 21
-152.2365532254935
 31
0.0
  0
LINE
  5
13F
330
D2
100
AcDbEntity
  8
Слой 1
 62
   250
420
  3947579
370
    25
100
AcDbLine
 10
171.4951683744008
 20
-152.2365532254935
 30
0.0
 11
170.0335605085775
 21
-149.0539295500101
 31
0.0
  0
LINE
  5
140
330
D2
100
AcDbEntity
  8
Слой 1
 62
   250
420
  3947579
370
    25
100
AcDbLine
 10
169.9172087737826
 20
-148.4231397102025
 30
0.0
 11
171.7250870877956
 21
-152.3800107312808
 31
0.0
  0
LINE
  5
141
330
D2
100
AcDbEntity
  8
Слой 1
 62
   250
420
  3947579
370
    25
100
AcDbLine
 10
169.9172087737826
 20
-148.4231397102025
 30
0.0
 11
170.0335605085775
 21
-149.0539295500101
 31
0.0
  0
LINE
  5
142
330
D2
100
AcDbEntity
  8
Слой 1
 62
   250
420
  3947579
370
    25
100
AcDbLine
 10
170.8345001679129
 20
-138.7553295992737
 30
0.0
 11
170.8077956936653
 21
-136.5167017921698
 31
0.0
  0
LINE
  5
143
330
D2
100
AcDbEntity
  8
Слой 1
 62
   250
420
  3947579
370
    25
100
AcDbLine
 10
170.5475973168457
 20
-130.3781749411509
 30
0.0
 11
170.5475973168457
 21
-125.5008386335105
 31
0.0
  0
LINE
  5
144
330
D2
100
AcDbEntity
  8
Слой 1
 62
   250
420
  3947579
370
    25
100
AcDbLine
 10
170.6910426621263
 20
-126.1344132295128
 30
0.0
 11
170.6643503483848
 21
-130.3215921002228
 31
0.0
  0
LINE
  5
145
330
D2
100
AcDbEntity
  8
Слой 1
 62
   250
420
  3947579
370
    25
100
AcDbLine
 10
169.8905042995344
 20
-152.3800107312808
 30
0.0
 11
169.9172087737826
 21
-148.4231397102025
 31
0.0
  0
LINE
  5
146
330
D2
100
AcDbEntity
  8
Слой 1
 62
   250
420
  3947579
370
    25
100
AcDbLine
 10
169.9172087737826
 20
-145.2943141194523
 30
0.0
 11
169.9470871404626
 21
-140.3898720408195
 31
0.0
  0
LINE
  5
147
330
D2
100
AcDbEntity
  8
Слой 1
 62
   250
420
  3947579
370
    25
100
AcDbLine
 10
169.9737916147114
 20
-137.263843366771
 30
0.0
 11
169.9737916147114
 21
-136.3732442863816
 31
0.0
  0
LINE
  5
148
330
D2
100
AcDbEntity
  8
Слой 1
 62
   250
420
  3947579
370
    25
100
AcDbLine
 10
170.0606541190625
 20
-120.5398258744573
 30
0.0
 11
170.0905446462498
 21
-116.3797406142314
 31
0.0
  0
LINE
  5
149
330
D2
100
AcDbEntity
  8
Слой 1
 62
   250
420
  3947579
370
    25
100
AcDbLine
 10
170.1172369599907
 20
-113.2238092524885
 30
0.0
 11
170.1172369599907
 21
-111.9060480286899
 31
0.0
  0
LINE
  5
14A
330
D2
100
AcDbEntity
  8
Слой 1
 62
   250
420
  3947579
370
    25
100
AcDbLine
 10
170.0905446462498
 20
-136.5167017921698
 30
0.0
 11
170.0905446462498
 21
-137.1203858609838
 31
0.0
  0
LINE
  5
14B
330
D2
100
AcDbEntity
  8
Слой 1
 62
   250
420
  3947579
370
    25
100
AcDbLine
 10
170.0606541190625
 20
-141.0206618806268
 30
0.0
 11
170.0335605085775
 21
-145.1237630031797
 31
0.0
  0
LINE
  5
14C
330
D2
100
AcDbEntity
  8
Слой 1
 62
   250
420
  3947579
370
    25
100
AcDbLine
 10
170.0335605085775
 20
-149.0539295500101
 30
0.0
 11
170.0040712781349
 21
-152.2365532254935
 31
0.0
  0
LINE
  5
14D
330
D2
100
AcDbEntity
  8
Слой 1
 62
   250
420
  3947579
370
    25
100
AcDbLine
 10
170.1774071506016
 20
-120.4832308730217
 30
0.0
 11
170.2041116248504
 21
-116.9535463163661
 31
0.0
  0
LINE
  5
14E
330
D2
100
AcDbEntity
  8
Слой 1
 62
   250
420
  3947579
370
    25
100
AcDbLine
 10
170.2041116248504
 20
-113.1102422738886
 30
0.0
 11
170.2041116248504
 21
-112.0495055344778
 31
0.0
  0
LINE
  5
14F
330
D2
100
AcDbEntity
  8
Слой 1
 62
   250
420
  3947579
370
    25
100
AcDbLine
 10
169.3999859125758
 20
-163.8831940634521
 30
0.0
 11
169.373281438327
 21
-164.1999874417066
 31
0.0
  0
LINE
  5
150
330
D2
100
AcDbEntity
  8
Слой 1
 62
   250
420
  3947579
370
    25
100
AcDbLine
 10
169.8303341089235
 20
-164.1999874417066
 30
0.0
 11
169.8602246361103
 21
-163.8831940634521
 31
0.0
  0
LINE
  5
151
330
D2
100
AcDbEntity
  8
Слой 1
 62
   250
420
  3947579
370
    25
100
AcDbLine
 10
180.6760474480534
 20
-123.1490329840422
 30
0.0
 11
180.5592944165143
 21
-123.2924904898298
 31
0.0
  0
LINE
  5
152
330
D2
100
AcDbEntity
  8
Слой 1
 62
   250
420
  3947579
370
    25
100
AcDbLine
 10
171.8386540663962
 20
-136.3732442863816
 30
0.0
 11
171.7250870877956
 21
-136.5167017921698
 31
0.0
  0
LINE
  5
153
330
D2
100
AcDbEntity
  8
Слой 1
 62
   250
420
  3947579
370
    25
100
AcDbLine
 10
170.0905446462498
 20
-137.1203858609838
 30
0.0
 11
169.9737916147114
 21
-137.263843366771
 31
0.0
  0
LINE
  5
154
330
D2
100
AcDbEntity
  8
Слой 1
 62
   250
420
  3947579
370
    25
100
AcDbLine
 10
175.768820613226
 20
-133.647673281494
 30
0.0
 11
175.8851723480215
 21
-133.5639968300806
 31
0.0
  0
LINE
  5
155
330
D2
100
AcDbEntity
  8
Слой 1
 62
   250
420
  3947579
370
    25
100
AcDbLine
 10
186.2108659092422
 20
-127.4525757500553
 30
0.0
 11
186.2706469636163
 21
-127.422685222868
 31
0.0
  0
LINE
  5
156
330
D2
100
AcDbEntity
  8
Слой 1
 62
   250
420
  3947579
370
    25
100
AcDbLine
 10
175.2249054382778
 20
-152.2365532254935
 30
0.0
 11
170.0606541190625
 21
-141.0206618806268
 31
0.0
  0
LINE
  5
157
330
D2
100
AcDbEntity
  8
Слой 1
 62
   250
420
  3947579
370
    25
100
AcDbLine
 10
169.9470871404626
 20
-140.3898720408195
 30
0.0
 11
175.4548241516732
 21
-152.3800107312808
 31
0.0
  0
LINE
  5
158
330
D2
100
AcDbEntity
  8
Слой 1
 62
   250
420
  3947579
370
    25
100
AcDbLine
 10
169.9470871404626
 20
-140.3898720408195
 30
0.0
 11
170.0606541190625
 21
-141.0206618806268
 31
0.0
  0
LINE
  5
159
330
D2
100
AcDbEntity
  8
Слой 1
 62
   250
420
  3947579
370
    25
100
AcDbLine
 10
172.2988927899306
 20
-155.3924845872368
 30
0.0
 11
172.2423099490024
 21
-153.7009580080186
 31
0.0
  0
LINE
  5
15A
330
D2
100
AcDbEntity
  8
Слой 1
 62
   250
420
  3947579
370
    25
100
AcDbLine
 10
172.2423099490024
 20
-161.7314287607001
 30
0.0
 11
172.2423099490024
 21
-153.7009580080186
 31
0.0
  0
LINE
  5
15B
330
D2
100
AcDbEntity
  8
Слой 1
 62
   250
420
  3947579
370
    25
100
AcDbLine
 10
172.328783317118
 20
-155.3924845872368
 30
0.0
 11
172.328783317118
 21
-160.5838173564296
 31
0.0
  0
LINE
  5
15C
330
D2
100
AcDbEntity
  8
Слой 1
 62
   250
420
  3947579
370
    25
100
AcDbLine
 10
172.2423099490024
 20
-161.7314287607001
 30
0.0
 11
172.2988927899306
 21
-160.613707883617
 31
0.0
  0
LINE
  5
15D
330
D2
100
AcDbEntity
  8
Слой 1
 62
   250
420
  3947579
370
    25
100
AcDbLine
 10
186.154283068314
 20
-119.2188785977198
 30
0.0
 11
186.2407564364296
 21
-119.0754210919322
 31
0.0
  0
LINE
  5
15E
330
D2
100
AcDbEntity
  8
Слой 1
 62
   250
420
  3947579
370
    25
100
AcDbLine
 10
184.2890193198851
 20
-123.2924904898298
 30
0.0
 11
184.4057723514242
 21
-123.1490329840422
 31
0.0
  0
LINE
  5
15F
330
D2
100
AcDbEntity
  8
Слой 1
 62
   250
420
  3947579
370
    25
100
AcDbLine
 10
175.5687802665099
 20
-136.3732442863816
 30
0.0
 11
175.4548241516732
 21
-136.5167017921698
 31
0.0
  0
LINE
  5
160
330
D2
100
AcDbEntity
  8
Слой 1
 62
   250
420
  3947579
370
    25
100
AcDbLine
 10
179.4985455165961
 20
-133.647673281494
 30
0.0
 11
179.6152985481352
 21
-133.5639968300806
 31
0.0
  0
LINE
  5
161
330
D2
100
AcDbEntity
  8
Слой 1
 62
   250
420
  3947579
370
    25
100
AcDbLine
 10
176.9164320174965
 20
-152.3800107312808
 30
0.0
 11
169.9737916147114
 21
-137.263843366771
 31
0.0
  0
LINE
  5
162
330
D2
100
AcDbEntity
  8
Слой 1
 62
   250
420
  3947579
370
    25
100
AcDbLine
 10
170.0905446462498
 20
-137.1203858609838
 30
0.0
 11
177.0327837522915
 21
-152.2365532254935
 31
0.0
  0
LINE
  5
163
330
D2
100
AcDbEntity
  8
Слой 1
 62
   250
420
  3947579
370
    25
100
AcDbLine
 10
170.6910426621263
 20
-126.1344132295128
 30
0.0
 11
170.5475973168457
 21
-125.5008386335105
 31
0.0
  0
LINE
  5
164
330
D2
100
AcDbEntity
  8
Слой 1
 62
   250
420
  3947579
370
    25
100
AcDbLine
 10
176.745880901223
 20
-160.613707883617
 30
0.0
 11
176.8028650388953
 21
-161.7314287607001
 31
0.0
  0
LINE
  5
165
330
D2
100
AcDbEntity
  8
Слой 1
 62
   250
420
  3947579
370
    25
100
AcDbLine
 10
175.5118082893455
 20
-164.1999874417066
 30
0.0
 11
175.5118082893455
 21
-163.8831940634521
 31
0.0
  0
LINE
  5
166
330
D2
100
AcDbEntity
  8
Слой 1
 62
   250
420
  3947579
370
    25
100
AcDbLine
 10
175.7986989799059
 20
-163.8831940634521
 30
0.0
 11
175.7986989799059
 21
-164.1131127768475
 31
0.0
  0
LINE
  5
167
330
D2
100
AcDbEntity
  8
Слой 1
 62
   250
420
  3947579
370
    25
100
AcDbLine
 10
174.4506580926832
 20
-136.5167017921698
 30
0.0
 11
174.4506580926832
 21
-138.4684267482059
 31
0.0
  0
LINE
  5
168
330
D2
100
AcDbEntity
  8
Слой 1
 62
   250
420
  3947579
370
    25
100
AcDbLine
 10
175.7986989799059
 20
-155.3924845872368
 30
0.0
 11
175.7986989799059
 21
-160.5838173564296
 31
0.0
  0
LINE
  5
169
330
D2
100
AcDbEntity
  8
Слой 1
 62
   250
420
  3947579
370
    25
100
AcDbLine
 10
170.0335605085775
 20
-145.1237630031797
 30
0.0
 11
169.9172087737826
 21
-145.2943141194523
 31
0.0
  0
LINE
  5
16A
330
D2
100
AcDbEntity
  8
Слой 1
 62
   250
420
  3947579
370
    25
100
AcDbLine
 10
183.2282825804743
 20
-133.647673281494
 30
0.0
 11
183.3446343152686
 21
-133.5639968300806
 31
0.0
  0
LINE
  5
16B
330
D2
100
AcDbEntity
  8
Слой 1
 62
   250
420
  3947579
370
    25
100
AcDbLine
 10
186.2973392773578
 20
-152.2365532254935
 30
0.0
 11
186.440784622637
 21
-152.3800107312808
 31
0.0
  0
LINE
  5
16C
330
D2
100
AcDbEntity
  8
Слой 1
 62
   250
420
  3947579
370
    25
100
AcDbLine
 10
181.7072949570217
 20
-152.2365532254935
 30
0.0
 11
181.8236588523233
 21
-152.3800107312808
 31
0.0
  0
LINE
  5
16D
330
D2
100
AcDbEntity
  8
Слой 1
 62
   250
420
  3947579
370
    25
100
AcDbLine
 10
170.0905446462498
 20
-136.5167017921698
 30
0.0
 11
169.9737916147114
 21
-136.3732442863816
 31
0.0
  0
LINE
  5
16E
330
D2
100
AcDbEntity
  8
Слой 1
 62
   250
420
  3947579
370
    25
100
AcDbLine
 10
180.646156920866
 20
-152.3800107312808
 30
0.0
 11
173.2731683217332
 21
-136.3732442863816
 31
0.0
  0
LINE
  5
16F
330
D2
100
AcDbEntity
  8
Слой 1
 62
   250
420
  3947579
370
    25
100
AcDbLine
 10
173.5333666985529
 20
-136.5167017921698
 30
0.0
 11
180.762508655661
 21
-152.2365532254935
 31
0.0
  0
LINE
  5
170
330
D2
100
AcDbEntity
  8
Слой 1
 62
   250
420
  3947579
370
    25
100
AcDbLine
 10
172.0418804660502
 20
-133.647673281494
 30
0.0
 11
170.5475973168457
 21
-130.3781749411509
 31
0.0
  0
LINE
  5
171
330
D2
100
AcDbEntity
  8
Слой 1
 62
   250
420
  3947579
370
    25
100
AcDbLine
 10
172.1554474446507
 20
-133.5639968300806
 30
0.0
 11
170.6643503483848
 21
-130.3215921002228
 31
0.0
  0
LINE
  5
172
330
D2
100
AcDbEntity
  8
Слой 1
 62
   250
420
  3947579
370
    25
100
AcDbLine
 10
178.9546303416486
 20
-152.2365532254935
 30
0.0
 11
171.7250870877956
 21
-136.5167017921698
 31
0.0
  0
LINE
  5
173
330
D2
100
AcDbEntity
  8
Слой 1
 62
   250
420
  3947579
370
    25
100
AcDbLine
 10
171.8386540663962
 20
-136.3732442863816
 30
0.0
 11
179.1845490550433
 21
-152.3800107312808
 31
0.0
  0
LINE
  5
174
330
D2
100
AcDbEntity
  8
Слой 1
 62
   250
420
  3947579
370
    25
100
AcDbLine
 10
170.2041116248504
 20
-116.9535463163661
 30
0.0
 11
170.0905446462498
 21
-116.3797406142314
 31
0.0
  0
LINE
  5
175
330
D2
100
AcDbEntity
  8
Слой 1
 62
   250
420
  3947579
370
    25
100
AcDbLine
 10
177.9504764431659
 20
-155.5060515658366
 30
0.0
 11
177.8934923054935
 21
-153.8145128261111
 31
0.0
  0
LINE
  5
176
330
D2
100
AcDbEntity
  8
Слой 1
 62
   250
420
  3947579
370
    25
100
AcDbLine
 10
177.8934923054935
 20
-161.8477804954944
 30
0.0
 11
177.8934923054935
 21
-153.8145128261111
 31
0.0
  0
LINE
  5
177
330
D2
100
AcDbEntity
  8
Слой 1
 62
   250
420
  3947579
370
    25
100
AcDbLine
 10
177.9803548098452
 20
-155.5060515658366
 30
0.0
 11
177.9803548098452
 21
-160.7001690912238
 31
0.0
  0
LINE
  5
178
330
D2
100
AcDbEntity
  8
Слой 1
 62
   250
420
  3947579
370
    25
100
AcDbLine
 10
176.7159903740362
 20
-160.5838173564296
 30
0.0
 11
176.7159903740362
 21
-155.3924845872368
 31
0.0
  0
LINE
  5
179
330
D2
100
AcDbEntity
  8
Слой 1
 62
   250
420
  3947579
370
    25
100
AcDbLine
 10
176.8028650388953
 20
-153.7009580080186
 30
0.0
 11
176.8028650388953
 21
-161.7314287607001
 31
0.0
  0
LINE
  5
17A
330
D2
100
AcDbEntity
  8
Слой 1
 62
   250
420
  3947579
370
    25
100
AcDbLine
 10
178.2074887670463
 20
-163.8831940634521
 30
0.0
 11
178.2074887670463
 21
-164.1131127768475
 31
0.0
  0
LINE
  5
17B
330
D2
100
AcDbEntity
  8
Слой 1
 62
   250
420
  3947579
370
    25
100
AcDbLine
 10
176.8028650388953
 20
-153.7009580080186
 30
0.0
 11
176.745880901223
 21
-155.3924845872368
 31
0.0
  0
LINE
  5
17C
330
D2
100
AcDbEntity
  8
Слой 1
 62
   250
420
  3947579
370
    25
100
AcDbLine
 10
177.8934923054935
 20
-161.8477804954944
 30
0.0
 11
177.9504764431659
 21
-160.7272748622169
 31
0.0
  0
LINE
  5
17D
330
D2
100
AcDbEntity
  8
Слой 1
 62
   250
420
  3947579
370
    25
100
AcDbLine
 10
186.2706469636163
 20
-127.422685222868
 30
0.0
 11
186.3276189407813
 21
-127.3390087714548
 31
0.0
  0
LINE
  5
17E
330
D2
100
AcDbEntity
  8
Слой 1
 62
   250
420
  3947579
370
    25
100
AcDbLine
 10
179.2981160336439
 20
-136.3732442863816
 30
0.0
 11
179.1845490550433
 21
-136.5167017921698
 31
0.0
  0
LINE
  5
17F
330
D2
100
AcDbEntity
  8
Слой 1
 62
   250
420
  3947579
370
    25
100
AcDbLine
 10
169.8905042995344
 20
-152.3800107312808
 30
0.0
 11
170.0040712781349
 21
-152.2365532254935
 31
0.0
  0
LINE
  5
180
330
D2
100
AcDbEntity
  8
Слой 1
 62
   250
420
  3947579
370
    25
100
AcDbLine
 10
177.6336830649114
 20
-141.280471121209
 30
0.0
 11
175.741727002741
 21
-141.280471121209
 31
0.0
  0
LINE
  5
181
330
D2
100
AcDbEntity
  8
Слой 1
 62
   250
420
  3947579
370
    25
100
AcDbLine
 10
170.0606541190625
 20
-141.280471121209
 30
0.0
 11
170.1774071506016
 21
-141.280471121209
 31
0.0
  0
LINE
  5
182
330
D2
100
AcDbEntity
  8
Слой 1
 62
   250
420
  3947579
370
    25
100
AcDbLine
 10
172.0119899388628
 20
-141.280471121209
 30
0.0
 11
173.9067429177356
 21
-141.280471121209
 31
0.0
  0
LINE
  5
183
330
D2
100
AcDbEntity
  8
Слой 1
 62
   250
420
  3947579
370
    25
100
AcDbLine
 10
179.4714519061111
 20
-141.280471121209
 30
0.0
 11
181.3634201287889
 21
-141.280471121209
 31
0.0
  0
LINE
  5
184
330
D2
100
AcDbEntity
  8
Слой 1
 62
   250
420
  3947579
370
    25
100
AcDbLine
 10
170.6910426621263
 20
-126.1344132295128
 30
0.0
 11
174.1071724006878
 21
-133.5639968300806
 31
0.0
  0
LINE
  5
185
330
D2
100
AcDbEntity
  8
Слой 1
 62
   250
420
  3947579
370
    25
100
AcDbLine
 10
170.5475973168457
 20
-125.5008386335105
 30
0.0
 11
174.3072127474033
 21
-133.647673281494
 31
0.0
  0
LINE
  5
186
330
D2
100
AcDbEntity
  8
Слой 1
 62
   250
420
  3947579
370
    25
100
AcDbLine
 10
181.7072949570217
 20
-150.1417720604133
 30
0.0
 11
175.4548241516732
 21
-136.5167017921698
 31
0.0
  0
LINE
  5
187
330
D2
100
AcDbEntity
  8
Слой 1
 62
   250
420
  3947579
370
    25
100
AcDbLine
 10
175.5687802665099
 20
-136.3732442863816
 30
0.0
 11
181.9372258309239
 21
-150.2282332680208
 31
0.0
  0
LINE
  5
188
330
D2
100
AcDbEntity
  8
Слой 1
 62
   250
420
  3947579
370
    25
100
AcDbLine
 10
180.0723512187317
 20
-141.280471121209
 30
0.0
 11
180.0723512187317
 21
-138.4951312224548
 31
0.0
  0
LINE
  5
189
330
D2
100
AcDbEntity
  8
Слой 1
 62
   250
420
  3947579
370
    25
100
AcDbLine
 10
178.4943916181141
 20
-163.8831940634521
 30
0.0
 11
178.4943916181141
 21
-164.1999874417066
 31
0.0
  0
LINE
  5
18A
330
D2
100
AcDbEntity
  8
Слой 1
 62
   250
420
  3947579
370
    25
100
AcDbLine
 10
173.5333666985529
 20
-136.5167017921698
 30
0.0
 11
173.2731683217332
 21
-136.3732442863816
 31
0.0
  0
LINE
  5
18B
330
D2
100
AcDbEntity
  8
Слой 1
 62
   250
420
  3947579
370
    25
100
AcDbLine
 10
181.9372258309239
 20
-147.0723140667857
 30
0.0
 11
177.0028932251041
 21
-136.3732442863816
 31
0.0
  0
LINE
  5
18C
330
D2
100
AcDbEntity
  8
Слой 1
 62
   250
420
  3947579
370
    25
100
AcDbLine
 10
177.2631037624304
 20
-136.5167017921698
 30
0.0
 11
181.7072949570217
 21
-146.1849010393347
 31
0.0
  0
LINE
  5
18D
330
D2
100
AcDbEntity
  8
Слой 1
 62
   250
420
  3947579
370
    25
100
AcDbLine
 10
173.1030185022052
 20
-123.2924904898298
 30
0.0
 11
177.8369094645653
 21
-133.5639968300806
 31
0.0
  0
LINE
  5
18E
330
D2
100
AcDbEntity
  8
Слой 1
 62
   250
420
  3947579
370
    25
100
AcDbLine
 10
175.768820613226
 20
-133.647673281494
 30
0.0
 11
170.951253199452
 21
-123.1490329840422
 31
0.0
  0
LINE
  5
18F
330
D2
100
AcDbEntity
  8
Слой 1
 62
   250
420
  3947579
370
    25
100
AcDbLine
 10
175.8851723480215
 20
-133.5639968300806
 30
0.0
 11
171.1512813856607
 21
-123.2924904898298
 31
0.0
  0
LINE
  5
190
330
D2
100
AcDbEntity
  8
Слой 1
 62
   250
420
  3947579
370
    25
100
AcDbLine
 10
186.2973392773578
 20
-151.9795409016137
 30
0.0
 11
185.2935745151119
 21
-149.8277755988605
 31
0.0
  0
LINE
  5
191
330
D2
100
AcDbEntity
  8
Слой 1
 62
   250
420
  3947579
370
    25
100
AcDbLine
 10
181.7367841874649
 20
-142.0547063062965
 30
0.0
 11
179.1845490550433
 21
-136.5167017921698
 31
0.0
  0
LINE
  5
192
330
D2
100
AcDbEntity
  8
Слой 1
 62
   250
420
  3947579
370
    25
100
AcDbLine
 10
171.8119617526547
 20
-120.4832308730217
 30
0.0
 11
170.2041116248504
 21
-116.9535463163661
 31
0.0
  0
LINE
  5
193
330
D2
100
AcDbEntity
  8
Слой 1
 62
   250
420
  3947579
370
    25
100
AcDbLine
 10
181.8236588523233
 20
-146.8152895823978
 30
0.0
 11
181.7072949570217
 21
-146.1849010393347
 31
0.0
  0
LINE
  5
194
330
D2
100
AcDbEntity
  8
Слой 1
 62
   250
420
  3947579
370
    25
100
AcDbLine
 10
181.9671041976038
 20
-160.7272748622169
 30
0.0
 11
181.9941978080888
 21
-161.8477804954944
 31
0.0
  0
LINE
  5
195
330
D2
100
AcDbEntity
  8
Слой 1
 62
   250
420
  3947579
370
    25
100
AcDbLine
 10
181.4498813363964
 20
-155.5060515658366
 30
0.0
 11
181.4498813363964
 21
-160.5838173564296
 31
0.0
  0
LINE
  5
196
330
D2
100
AcDbEntity
  8
Слой 1
 62
   250
420
  3947579
370
    25
100
AcDbLine
 10
181.9372258309239
 20
-152.3800107312808
 30
0.0
 11
181.9372258309239
 21
-150.2282332680208
 31
0.0
  0
LINE
  5
197
330
D2
100
AcDbEntity
  8
Слой 1
 62
   250
420
  3947579
370
    25
100
AcDbLine
 10
181.9101200599315
 20
-160.7001690912238
 30
0.0
 11
181.9101200599315
 21
-155.5060515658366
 31
0.0
  0
LINE
  5
198
330
D2
100
AcDbEntity
  8
Слой 1
 62
   250
420
  3947579
370
    25
100
AcDbLine
 10
181.9941978080888
 20
-153.8145128261111
 30
0.0
 11
181.9941978080888
 21
-161.8477804954944
 31
0.0
  0
LINE
  5
199
330
D2
100
AcDbEntity
  8
Слой 1
 62
   250
420
  3947579
370
    25
100
AcDbLine
 10
181.7072949570217
 20
-152.2365532254935
 30
0.0
 11
181.7072949570217
 21
-150.1417720604133
 31
0.0
  0
LINE
  5
19A
330
D2
100
AcDbEntity
  8
Слой 1
 62
   250
420
  3947579
370
    25
100
AcDbLine
 10
181.7072949570217
 20
-146.1849010393347
 30
0.0
 11
181.7367841874649
 21
-142.0547063062965
 31
0.0
  0
LINE
  5
19B
330
D2
100
AcDbEntity
  8
Слой 1
 62
   250
420
  3947579
370
    25
100
AcDbLine
 10
181.8236588523233
 20
-141.9112609610166
 30
0.0
 11
181.8236588523233
 21
-146.8152895823978
 31
0.0
  0
LINE
  5
19C
330
D2
100
AcDbEntity
  8
Слой 1
 62
   250
420
  3947579
370
    25
100
AcDbLine
 10
181.8236588523233
 20
-149.998314554626
 30
0.0
 11
181.8236588523233
 21
-152.3800107312808
 31
0.0
  0
LINE
  5
19D
330
D2
100
AcDbEntity
  8
Слой 1
 62
   250
420
  3947579
370
    25
100
AcDbLine
 10
181.9372258309239
 20
-147.0723140667857
 30
0.0
 11
181.9372258309239
 21
-142.13838275771
 31
0.0
  0
LINE
  5
19E
330
D2
100
AcDbEntity
  8
Слой 1
 62
   250
420
  3947579
370
    25
100
AcDbLine
 10
181.9941978080888
 20
-153.8145128261111
 30
0.0
 11
181.9372258309239
 21
-155.5060515658366
 31
0.0
  0
LINE
  5
19F
330
D2
100
AcDbEntity
  8
Слой 1
 62
   250
420
  3947579
370
    25
100
AcDbLine
 10
185.266480904627
 20
-137.6941915631187
 30
0.0
 11
185.1497278730879
 21
-137.8376369083989
 31
0.0
  0
LINE
  5
1A0
330
D2
100
AcDbEntity
  8
Слой 1
 62
   250
420
  3947579
370
    25
100
AcDbLine
 10
173.1898810065575
 20
-152.3800107312808
 30
0.0
 11
173.3034479851574
 21
-152.2365532254935
 31
0.0
  0
LINE
  5
1A1
330
D2
100
AcDbEntity
  8
Слой 1
 62
   250
420
  3947579
370
    25
100
AcDbLine
 10
181.7367841874649
 20
-142.0547063062965
 30
0.0
 11
181.8236588523233
 21
-141.9112609610166
 31
0.0
  0
LINE
  5
1A2
330
D2
100
AcDbEntity
  8
Слой 1
 62
   250
420
  3947579
370
    25
100
AcDbLine
 10
186.2407564364296
 20
-136.5167017921698
 30
0.0
 11
186.3842017817095
 21
-136.3732442863816
 31
0.0
  0
LINE
  5
1A3
330
D2
100
AcDbEntity
  8
Слой 1
 62
   250
420
  3947579
370
    25
100
AcDbLine
 10
170.0905446462498
 20
-136.5167017921698
 30
0.0
 11
171.7250870877956
 21
-136.5167017921698
 31
0.0
  0
LINE
  5
1A4
330
D2
100
AcDbEntity
  8
Слой 1
 62
   250
420
  3947579
370
    25
100
AcDbLine
 10
173.5333666985529
 20
-136.5167017921698
 30
0.0
 11
175.4548241516732
 21
-136.5167017921698
 31
0.0
  0
LINE
  5
1A5
330
D2
100
AcDbEntity
  8
Слой 1
 62
   250
420
  3947579
370
    25
100
AcDbLine
 10
177.2631037624304
 20
-136.5167017921698
 30
0.0
 11
179.1845490550433
 21
-136.5167017921698
 31
0.0
  0
LINE
  5
1A6
330
D2
100
AcDbEntity
  8
Слой 1
 62
   250
420
  3947579
370
    25
100
AcDbLine
 10
185.266480904627
 20
-136.5167017921698
 30
0.0
 11
186.2407564364296
 21
-136.5167017921698
 31
0.0
  0
LINE
  5
1A7
330
D2
100
AcDbEntity
  8
Слой 1
 62
   250
420
  3947579
370
    25
100
AcDbLine
 10
186.3842017817095
 20
-136.3732442863816
 30
0.0
 11
185.0361608944867
 21
-136.3732442863816
 31
0.0
  0
LINE
  5
1A8
330
D2
100
AcDbEntity
  8
Слой 1
 62
   250
420
  3947579
370
    25
100
AcDbLine
 10
169.9737916147114
 20
-136.3732442863816
 30
0.0
 11
171.8386540663962
 21
-136.3732442863816
 31
0.0
  0
LINE
  5
1A9
330
D2
100
AcDbEntity
  8
Слой 1
 62
   250
420
  3947579
370
    25
100
AcDbLine
 10
173.2731683217332
 20
-136.3732442863816
 30
0.0
 11
175.5687802665099
 21
-136.3732442863816
 31
0.0
  0
LINE
  5
1AA
330
D2
100
AcDbEntity
  8
Слой 1
 62
   250
420
  3947579
370
    25
100
AcDbLine
 10
177.0028932251041
 20
-136.3732442863816
 30
0.0
 11
179.2981160336439
 21
-136.3732442863816
 31
0.0
  0
LINE
  5
1AB
330
D2
100
AcDbEntity
  8
Слой 1
 62
   250
420
  3947579
370
    25
100
AcDbLine
 10
177.2631037624304
 20
-136.5167017921698
 30
0.0
 11
177.0028932251041
 21
-136.3732442863816
 31
0.0
  0
LINE
  5
1AC
330
D2
100
AcDbEntity
  8
Слой 1
 62
   250
420
  3947579
370
    25
100
AcDbLine
 10
173.2165854808051
 20
-123.1490329840422
 30
0.0
 11
178.0369376507734
 21
-133.647673281494
 31
0.0
  0
LINE
  5
1AD
330
D2
100
AcDbEntity
  8
Слой 1
 62
   250
420
  3947579
370
    25
100
AcDbLine
 10
186.440784622637
 20
-148.71004256127
 30
0.0
 11
185.0632545049723
 21
-145.754552842987
 31
0.0
  0
LINE
  5
1AE
330
D2
100
AcDbEntity
  8
Слой 1
 62
   250
420
  3947579
370
    25
100
AcDbLine
 10
173.4767838576247
 20
-120.5398258744573
 30
0.0
 11
170.1172369599907
 21
-113.2238092524885
 31
0.0
  0
LINE
  5
1AF
330
D2
100
AcDbEntity
  8
Слой 1
 62
   250
420
  3947579
370
    25
100
AcDbLine
 10
170.2041116248504
 20
-113.1102422738886
 30
0.0
 11
173.5899495394804
 21
-120.4832308730217
 31
0.0
  0
LINE
  5
1B0
330
D2
100
AcDbEntity
  8
Слой 1
 62
   250
420
  3947579
370
    25
100
AcDbLine
 10
185.2935745151119
 20
-145.8410262111026
 30
0.0
 11
186.2706469636163
 21
-147.9927915138551
 31
0.0
  0
LINE
  5
1B1
330
D2
100
AcDbEntity
  8
Слой 1
 62
   250
420
  3947579
370
    25
100
AcDbLine
 10
179.4985455165961
 20
-133.647673281494
 30
0.0
 11
174.6809781028228
 21
-123.1490329840422
 31
0.0
  0
LINE
  5
1B2
330
D2
100
AcDbEntity
  8
Слой 1
 62
   250
420
  3947579
370
    25
100
AcDbLine
 10
179.6152985481352
 20
-133.5639968300806
 30
0.0
 11
174.8810184495382
 21
-123.2924904898298
 31
0.0
  0
LINE
  5
1B3
330
D2
100
AcDbEntity
  8
Слой 1
 62
   250
420
  3947579
370
    25
100
AcDbLine
 10
170.0905446462498
 20
-116.3797406142314
 30
0.0
 11
172.0119899388628
 21
-120.5398258744573
 31
0.0
  0
LINE
  5
1B4
330
D2
100
AcDbEntity
  8
Слой 1
 62
   250
420
  3947579
370
    25
100
AcDbLine
 10
179.2981160336439
 20
-136.3732442863816
 30
0.0
 11
181.9372258309239
 21
-142.13838275771
 31
0.0
  0
LINE
  5
1B5
330
D2
100
AcDbEntity
  8
Слой 1
 62
   250
420
  3947579
370
    25
100
AcDbLine
 10
185.0632545049723
 20
-148.937176518471
 30
0.0
 11
186.440784622637
 21
-151.9229580606856
 31
0.0
  0
LINE
  5
1B6
330
D2
100
AcDbEntity
  8
Слой 1
 62
   250
420
  3947579
370
    25
100
AcDbLine
 10
185.0632545049723
 20
-148.937176518471
 30
0.0
 11
185.093145032159
 21
-152.3800107312808
 31
0.0
  0
LINE
  5
1B7
330
D2
100
AcDbEntity
  8
Слой 1
 62
   250
420
  3947579
370
    25
100
AcDbLine
 10
185.0632545049723
 20
-140.7903418704872
 30
0.0
 11
185.0632545049723
 21
-145.754552842987
 31
0.0
  0
LINE
  5
1B8
330
D2
100
AcDbEntity
  8
Слой 1
 62
   250
420
  3947579
370
    25
100
AcDbLine
 10
185.1796184002746
 20
-152.3800107312808
 30
0.0
 11
185.1796184002746
 21
-149.1973870557968
 31
0.0
  0
LINE
  5
1B9
330
D2
100
AcDbEntity
  8
Слой 1
 62
   250
420
  3947579
370
    25
100
AcDbLine
 10
185.266480904627
 20
-136.5167017921698
 30
0.0
 11
185.266480904627
 21
-137.6941915631187
 31
0.0
  0
LINE
  5
1BA
330
D2
100
AcDbEntity
  8
Слой 1
 62
   250
420
  3947579
370
    25
100
AcDbLine
 10
185.266480904627
 20
-141.680940950877
 30
0.0
 11
185.2935745151119
 21
-145.8410262111026
 31
0.0
  0
LINE
  5
1BB
330
D2
100
AcDbEntity
  8
Слой 1
 62
   250
420
  3947579
370
    25
100
AcDbLine
 10
185.2935745151119
 20
-149.8277755988605
 30
0.0
 11
185.2935745151119
 21
-152.2365532254935
 31
0.0
  0
LINE
  5
1BC
330
D2
100
AcDbEntity
  8
Слой 1
 62
   250
420
  3947579
370
    25
100
AcDbLine
 10
185.1497278730879
 20
-137.8376369083989
 30
0.0
 11
185.1497278730879
 21
-136.3732442863816
 31
0.0
  0
LINE
  5
1BD
330
D2
100
AcDbEntity
  8
Слой 1
 62
   250
420
  3947579
370
    25
100
AcDbLine
 10
185.1796184002746
 20
-145.9844715563825
 30
0.0
 11
185.1796184002746
 21
-141.0505524078139
 31
0.0
  0
LINE
  5
1BE
330
D2
100
AcDbEntity
  8
Слой 1
 62
   250
420
  3947579
370
    25
100
AcDbLine
 10
185.0361608944867
 20
-137.6077181950038
 30
0.0
 11
185.0361608944867
 21
-136.3732442863816
 31
0.0
  0
LINE
  5
1BF
330
D2
100
AcDbEntity
  8
Слой 1
 62
   250
420
  3947579
370
    25
100
AcDbLine
 10
176.9164320174965
 20
-152.3800107312808
 30
0.0
 11
177.0327837522915
 21
-152.2365532254935
 31
0.0
  0
LINE
  5
1C0
330
D2
100
AcDbEntity
  8
Слой 1
 62
   250
420
  3947579
370
    25
100
AcDbLine
 10
186.2706469636163
 20
-143.8028157264425
 30
0.0
 11
186.4140923088969
 21
-143.7462328855143
 31
0.0
  0
LINE
  5
1C1
330
D2
100
AcDbEntity
  8
Слой 1
 62
   250
420
  3947579
370
    25
100
AcDbLine
 10
187.6752706917667
 20
-133.647673281494
 30
0.0
 11
185.4936148618274
 21
-133.647673281494
 31
0.0
  0
LINE
  5
1C2
330
D2
100
AcDbEntity
  8
Слой 1
 62
   250
420
  3947579
370
    25
100
AcDbLine
 10
183.2282825804743
 20
-133.647673281494
 30
0.0
 11
181.766674714651
 21
-133.647673281494
 31
0.0
  0
LINE
  5
1C3
330
D2
100
AcDbEntity
  8
Слой 1
 62
   250
420
  3947579
370
    25
100
AcDbLine
 10
179.4985455165961
 20
-133.647673281494
 30
0.0
 11
178.0369376507734
 21
-133.647673281494
 31
0.0
  0
LINE
  5
1C4
330
D2
100
AcDbEntity
  8
Слой 1
 62
   250
420
  3947579
370
    25
100
AcDbLine
 10
175.768820613226
 20
-133.647673281494
 30
0.0
 11
174.3072127474033
 21
-133.647673281494
 31
0.0
  0
LINE
  5
1C5
330
D2
100
AcDbEntity
  8
Слой 1
 62
   250
420
  3947579
370
    25
100
AcDbLine
 10
172.0418804660502
 20
-133.647673281494
 30
0.0
 11
169.0565002205798
 21
-133.647673281494
 31
0.0
  0
LINE
  5
1C6
330
D2
100
AcDbEntity
  8
Слой 1
 62
   250
420
  3947579
370
    25
100
AcDbLine
 10
172.1554474446507
 20
-133.5639968300806
 30
0.0
 11
174.1071724006878
 21
-133.5639968300806
 31
0.0
  0
LINE
  5
1C7
330
D2
100
AcDbEntity
  8
Слой 1
 62
   250
420
  3947579
370
    25
100
AcDbLine
 10
175.8851723480215
 20
-133.5639968300806
 30
0.0
 11
177.8369094645653
 21
-133.5639968300806
 31
0.0
  0
LINE
  5
1C8
330
D2
100
AcDbEntity
  8
Слой 1
 62
   250
420
  3947579
370
    25
100
AcDbLine
 10
179.6152985481352
 20
-133.5639968300806
 30
0.0
 11
181.563448314997
 21
-133.5639968300806
 31
0.0
  0
LINE
  5
1C9
330
D2
100
AcDbEntity
  8
Слой 1
 62
   250
420
  3947579
370
    25
100
AcDbLine
 10
183.3446343152686
 20
-133.5639968300806
 30
0.0
 11
185.2935745151119
 21
-133.5639968300806
 31
0.0
  0
LINE
  5
1CA
330
D2
100
AcDbEntity
  8
Слой 1
 62
   250
420
  3947579
370
    25
100
AcDbLine
 10
174.3072127474033
 20
-133.647673281494
 30
0.0
 11
174.1071724006878
 21
-133.5639968300806
 31
0.0
  0
LINE
  5
1CB
330
D2
100
AcDbEntity
  8
Слой 1
 62
   250
420
  3947579
370
    25
100
AcDbLine
 10
178.0369376507734
 20
-133.647673281494
 30
0.0
 11
177.8369094645653
 21
-133.5639968300806
 31
0.0
  0
LINE
  5
1CC
330
D2
100
AcDbEntity
  8
Слой 1
 62
   250
420
  3947579
370
    25
100
AcDbLine
 10
176.8327434055753
 20
-123.2924904898298
 30
0.0
 11
181.563448314997
 21
-133.5639968300806
 31
0.0
  0
LINE
  5
1CD
330
D2
100
AcDbEntity
  8
Слой 1
 62
   250
420
  3947579
370
    25
100
AcDbLine
 10
176.9463103841759
 20
-123.1490329840422
 30
0.0
 11
181.766674714651
 21
-133.647673281494
 31
0.0
  0
LINE
  5
1CE
330
D2
100
AcDbEntity
  8
Слой 1
 62
   250
420
  3947579
370
    25
100
AcDbLine
 10
186.2706469636163
 20
-143.8028157264425
 30
0.0
 11
185.266480904627
 21
-141.680940950877
 31
0.0
  0
LINE
  5
1CF
330
D2
100
AcDbEntity
  8
Слой 1
 62
   250
420
  3947579
370
    25
100
AcDbLine
 10
175.5416866560249
 20
-120.4832308730217
 30
0.0
 11
171.6685042468674
 21
-112.0495055344778
 31
0.0
  0
LINE
  5
1D0
330
D2
100
AcDbEntity
  8
Слой 1
 62
   250
420
  3947579
370
    25
100
AcDbLine
 10
171.7549776149824
 20
-111.9060480286899
 30
0.0
 11
175.741727002741
 21
-120.5398258744573
 31
0.0
  0
LINE
  5
1D1
330
D2
100
AcDbEntity
  8
Слой 1
 62
   250
420
  3947579
370
    25
100
AcDbLine
 10
185.0632545049723
 20
-140.7903418704872
 30
0.0
 11
186.4140923088969
 21
-143.7462328855143
 31
0.0
  0
LINE
  5
1D2
330
D2
100
AcDbEntity
  8
Слой 1
 62
   250
420
  3947579
370
    25
100
AcDbLine
 10
186.2706469636163
 20
-147.9927915138551
 30
0.0
 11
186.440784622637
 21
-148.71004256127
 31
0.0
  0
LINE
  5
1D3
330
D2
100
AcDbEntity
  8
Слой 1
 62
   250
420
  3947579
370
    25
100
AcDbLine
 10
185.1796184002746
 20
-149.1973870557968
 30
0.0
 11
185.2935745151119
 21
-149.8277755988605
 31
0.0
  0
LINE
  5
1D4
330
D2
100
AcDbEntity
  8
Слой 1
 62
   250
420
  3947579
370
    25
100
AcDbLine
 10
185.1796184002746
 20
-141.0505524078139
 30
0.0
 11
185.266480904627
 21
-141.680940950877
 31
0.0
  0
LINE
  5
1D5
330
D2
100
AcDbEntity
  8
Слой 1
 62
   250
420
  3947579
370
    25
100
AcDbLine
 10
186.8711449794921
 20
-163.8831940634521
 30
0.0
 11
186.9014246429163
 21
-164.1999874417066
 31
0.0
  0
LINE
  5
1D6
330
D2
100
AcDbEntity
  8
Слой 1
 62
   250
420
  3947579
370
    25
100
AcDbLine
 10
187.3313837030272
 20
-164.1999874417066
 30
0.0
 11
187.3313837030272
 21
-163.8831940634521
 31
0.0
  0
LINE
  5
1D7
330
D2
100
AcDbEntity
  8
Слой 1
 62
   250
420
  3947579
370
    25
100
AcDbLine
 10
186.2706469636163
 20
-127.422685222868
 30
0.0
 11
186.3543234150301
 21
-130.4949279726897
 31
0.0
  0
LINE
  5
1D8
330
D2
100
AcDbEntity
  8
Слой 1
 62
   250
420
  3947579
370
    25
100
AcDbLine
 10
188.4789951072971
 20
-173.6944616801684
 30
0.0
 11
188.2490763939023
 21
-164.1999874417066
 31
0.0
  0
LINE
  5
1D9
330
D2
100
AcDbEntity
  8
Слой 1
 62
   250
420
  3947579
370
    25
100
AcDbLine
 10
186.154283068314
 20
-120.4832308730217
 30
0.0
 11
186.154283068314
 21
-119.2188785977198
 31
0.0
  0
LINE
  5
1DA
330
D2
100
AcDbEntity
  8
Слой 1
 62
   250
420
  3947579
370
    25
100
AcDbLine
 10
186.2407564364296
 20
-119.0754210919322
 30
0.0
 11
186.2706469636163
 21
-120.5398258744573
 31
0.0
  0
LINE
  5
1DB
330
D2
100
AcDbEntity
  8
Слой 1
 62
   250
420
  3947579
370
    25
100
AcDbLine
 10
186.3276189407813
 20
-127.3390087714548
 30
0.0
 11
186.3543234150301
 21
-130.4949279726897
 31
0.0
  0
LINE
  5
1DC
330
D2
100
AcDbEntity
  8
Слой 1
 62
   250
420
  3947579
370
    25
100
AcDbLine
 10
186.2407564364296
 20
-131.7262279888808
 30
0.0
 11
186.2108659092422
 21
-127.4525757500553
 31
0.0
  0
LINE
  5
1DD
330
D2
100
AcDbEntity
  8
Слой 1
 62
   250
420
  3947579
370
    25
100
AcDbLine
 10
186.1837722987573
 20
-115.3755745552411
 30
0.0
 11
186.154283068314
 21
-112.0495055344778
 31
0.0
  0
LINE
  5
1DE
330
D2
100
AcDbEntity
  8
Слой 1
 62
   250
420
  3947579
370
    25
100
AcDbLine
 10
186.2973392773578
 20
-111.9060480286899
 30
0.0
 11
186.3276189407813
 21
-116.0362549222358
 31
0.0
  0
LINE
  5
1DF
330
D2
100
AcDbEntity
  8
Слой 1
 62
   250
420
  3947579
370
    25
100
AcDbLine
 10
186.3543234150301
 20
-130.4949279726897
 30
0.0
 11
186.3543234150301
 21
-132.3566165319436
 31
0.0
  0
LINE
  5
1E0
330
D2
100
AcDbEntity
  8
Слой 1
 62
   250
420
  3947579
370
    25
100
AcDbLine
 10
186.2706469636163
 20
-147.9927915138551
 30
0.0
 11
186.2706469636163
 21
-143.8028157264425
 31
0.0
  0
LINE
  5
1E1
330
D2
100
AcDbEntity
  8
Слой 1
 62
   250
420
  3947579
370
    25
100
AcDbLine
 10
186.2407564364296
 20
-139.8459568658716
 30
0.0
 11
186.2407564364296
 21
-136.5167017921698
 31
0.0
  0
LINE
  5
1E2
330
D2
100
AcDbEntity
  8
Слой 1
 62
   250
420
  3947579
370
    25
100
AcDbLine
 10
186.3842017817095
 20
-136.3732442863816
 30
0.0
 11
186.4140923088969
 21
-140.5632200737938
 31
0.0
  0
LINE
  5
1E3
330
D2
100
AcDbEntity
  8
Слой 1
 62
   250
420
  3947579
370
    25
100
AcDbLine
 10
186.4140923088969
 20
-143.7462328855143
 30
0.0
 11
186.440784622637
 21
-148.71004256127
 31
0.0
  0
LINE
  5
1E4
330
D2
100
AcDbEntity
  8
Слой 1
 62
   250
420
  3947579
370
    25
100
AcDbLine
 10
186.2973392773578
 20
-151.9795409016137
 30
0.0
 11
186.2973392773578
 21
-152.2365532254935
 31
0.0
  0
LINE
  5
1E5
330
D2
100
AcDbEntity
  8
Слой 1
 62
   250
420
  3947579
370
    25
100
AcDbLine
 10
186.440784622637
 20
-152.3800107312808
 30
0.0
 11
186.440784622637
 21
-151.9229580606856
 31
0.0
  0
LINE
  5
1E6
330
D2
100
AcDbEntity
  8
Слой 1
 62
   250
420
  3947579
370
    25
100
AcDbLine
 10
185.2935745151119
 20
-145.8410262111026
 30
0.0
 11
185.1796184002746
 21
-145.9844715563825
 31
0.0
  0
LINE
  5
1E7
330
D2
100
AcDbEntity
  8
Слой 1
 62
   250
420
  3947579
370
    25
100
AcDbLine
 10
180.646156920866
 20
-152.3800107312808
 30
0.0
 11
180.762508655661
 21
-152.2365532254935
 31
0.0
  0
LINE
  5
1E8
330
D2
100
AcDbEntity
  8
Слой 1
 62
   250
420
  3947579
370
    25
100
AcDbLine
 10
181.7072949570217
 20
-150.1417720604133
 30
0.0
 11
181.8236588523233
 21
-149.998314554626
 31
0.0
  0
LINE
  5
1E9
330
D2
100
AcDbEntity
  8
Слой 1
 62
   250
420
  3947579
370
    25
100
AcDbLine
 10
176.745880901223
 20
-155.3924845872368
 30
0.0
 11
176.7159903740362
 21
-155.3924845872368
 31
0.0
  0
LINE
  5
1EA
330
D2
100
AcDbEntity
  8
Слой 1
 62
   250
420
  3947579
370
    25
100
AcDbLine
 10
181.766674714651
 20
-133.647673281494
 30
0.0
 11
181.563448314997
 21
-133.5639968300806
 31
0.0
  0
LINE
  5
1EB
330
D2
100
AcDbEntity
  8
Слой 1
 62
   250
420
  3947579
370
    25
100
AcDbLine
 10
185.2935745151119
 20
-133.5639968300806
 30
0.0
 11
185.4936148618274
 21
-133.647673281494
 31
0.0
  0
LINE
  5
1EC
330
D2
100
AcDbEntity
  8
Слой 1
 62
   250
420
  3947579
370
    25
100
AcDbLine
 10
185.1497278730879
 20
-136.3732442863816
 30
0.0
 11
185.266480904627
 21
-136.5167017921698
 31
0.0
  0
LINE
  5
1ED
330
D2
100
AcDbEntity
  8
Слой 1
 62
   250
420
  3947579
370
    25
100
AcDbLine
 10
186.4140923088969
 20
-140.5632200737938
 30
0.0
 11
185.0632545049723
 21
-137.6376087221909
 31
0.0
  0
LINE
  5
1EE
330
D2
100
AcDbEntity
  8
Слой 1
 62
   250
420
  3947579
370
    25
100
AcDbLine
 10
177.2033348685637
 20
-120.5398258744573
 30
0.0
 11
173.246463847485
 21
-111.9060480286899
 31
0.0
  0
LINE
  5
1EF
330
D2
100
AcDbEntity
  8
Слой 1
 62
   250
420
  3947579
370
    25
100
AcDbLine
 10
173.4465041942011
 20
-112.0495055344778
 30
0.0
 11
177.3196866033586
 21
-120.4832308730217
 31
0.0
  0
LINE
  5
1F0
330
D2
100
AcDbEntity
  8
Слой 1
 62
   250
420
  3947579
370
    25
100
AcDbLine
 10
185.266480904627
 20
-137.6941915631187
 30
0.0
 11
186.2407564364296
 21
-139.8459568658716
 31
0.0
  0
LINE
  5
1F1
330
D2
100
AcDbEntity
  8
Слой 1
 62
   250
420
  3947579
370
    25
100
AcDbLine
 10
185.2935745151119
 20
-133.5639968300806
 30
0.0
 11
180.5592944165143
 21
-123.2924904898298
 31
0.0
  0
LINE
  5
1F2
330
D2
100
AcDbEntity
  8
Слой 1
 62
   250
420
  3947579
370
    25
100
AcDbLine
 10
180.6760474480534
 20
-123.1490329840422
 30
0.0
 11
185.4936148618274
 21
-133.647673281494
 31
0.0
  0
LINE
  5
1F3
330
D2
100
AcDbEntity
  8
Слой 1
 62
   250
420
  3947579
370
    25
100
AcDbLine
 10
183.2282825804743
 20
-133.647673281494
 30
0.0
 11
178.4107151667003
 21
-123.1490329840422
 31
0.0
  0
LINE
  5
1F4
330
D2
100
AcDbEntity
  8
Слой 1
 62
   250
420
  3947579
370
    25
100
AcDbLine
 10
183.3446343152686
 20
-133.5639968300806
 30
0.0
 11
178.610743352909
 21
-123.2924904898298
 31
0.0
  0
LINE
  5
1F5
330
D2
100
AcDbEntity
  8
Слой 1
 62
   250
420
  3947579
370
    25
100
AcDbLine
 10
179.2714237199031
 20
-120.4832308730217
 30
0.0
 11
175.3982413107457
 21
-112.0495055344778
 31
0.0
  0
LINE
  5
1F6
330
D2
100
AcDbEntity
  8
Слой 1
 62
   250
420
  3947579
370
    25
100
AcDbLine
 10
175.4819177621588
 20
-111.9060480286899
 30
0.0
 11
179.4714519061111
 21
-120.5398258744573
 31
0.0
  0
LINE
  5
1F7
330
D2
100
AcDbEntity
  8
Слой 1
 62
   250
420
  3947579
370
    25
100
AcDbLine
 10
186.2407564364296
 20
-139.8459568658716
 30
0.0
 11
186.4140923088969
 21
-140.5632200737938
 31
0.0
  0
LINE
  5
1F8
330
D2
100
AcDbEntity
  8
Слой 1
 62
   250
420
  3947579
370
    25
100
AcDbLine
 10
188.2490763939023
 20
-163.8831940634521
 30
0.0
 11
188.2490763939023
 21
-108.2627843329276
 31
0.0
  0
LINE
  5
1F9
330
D2
100
AcDbEntity
  8
Слой 1
 62
   250
420
  3947579
370
    25
100
AcDbLine
 10
187.5019348193001
 20
-164.1999874417066
 30
0.0
 11
187.5019348193001
 21
-163.8831940634521
 31
0.0
  0
LINE
  5
1FA
330
D2
100
AcDbEntity
  8
Слой 1
 62
   250
420
  3947579
370
    25
100
AcDbLine
 10
172.2988927899306
 20
-160.613707883617
 30
0.0
 11
172.328783317118
 21
-160.5838173564296
 31
0.0
  0
LINE
  5
1FB
330
D2
100
AcDbEntity
  8
Слой 1
 62
   250
420
  3947579
370
    25
100
AcDbLine
 10
170.951253199452
 20
-123.1490329840422
 30
0.0
 11
171.1512813856607
 21
-123.2924904898298
 31
0.0
  0
LINE
  5
1FC
330
D2
100
AcDbEntity
  8
Слой 1
 62
   250
420
  3947579
370
    25
100
AcDbLine
 10
187.6752706917667
 20
-133.647673281494
 30
0.0
 11
188.2490763939023
 21
-134.1947745093805
 31
0.0
  0
LINE
  5
1FD
330
D2
100
AcDbEntity
  8
Слой 1
 62
   250
420
  3947579
370
    25
100
AcDbLine
 10
170.1172369599907
 20
-111.9060480286899
 30
0.0
 11
170.2041116248504
 21
-112.0495055344778
 31
0.0
  0
LINE
  5
1FE
330
D2
100
AcDbEntity
  8
Слой 1
 62
   250
420
  3947579
370
    25
100
AcDbLine
 10
180.9330597719345
 20
-120.5398258744573
 30
0.0
 11
176.9762009113632
 21
-111.9060480286899
 31
0.0
  0
LINE
  5
1FF
330
D2
100
AcDbEntity
  8
Слой 1
 62
   250
420
  3947579
370
    25
100
AcDbLine
 10
177.1762290975707
 20
-112.0495055344778
 30
0.0
 11
181.0494115067287
 21
-120.4832308730217
 31
0.0
  0
LINE
  5
200
330
D2
100
AcDbEntity
  8
Слой 1
 62
   250
420
  3947579
370
    25
100
AcDbLine
 10
182.1372540171319
 20
-123.1490329840422
 30
0.0
 11
186.3543234150301
 21
-132.3566165319436
 31
0.0
  0
LINE
  5
201
330
D2
100
AcDbEntity
  8
Слой 1
 62
   250
420
  3947579
370
    25
100
AcDbLine
 10
186.2407564364296
 20
-131.7262279888808
 30
0.0
 11
182.3404804167866
 21
-123.2924904898298
 31
0.0
  0
LINE
  5
202
330
D2
100
AcDbEntity
  8
Слой 1
 62
   250
420
  3947579
370
    25
100
AcDbLine
 10
186.2407564364296
 20
-131.7262279888808
 30
0.0
 11
186.3543234150301
 21
-132.3566165319436
 31
0.0
  0
LINE
  5
203
330
D2
100
AcDbEntity
  8
Слой 1
 62
   250
420
  3947579
370
    25
100
AcDbLine
 10
185.1796184002746
 20
-152.3800107312808
 30
0.0
 11
185.2935745151119
 21
-152.2365532254935
 31
0.0
  0
LINE
  5
204
330
D2
100
AcDbEntity
  8
Слой 1
 62
   250
420
  3947579
370
    25
100
AcDbLine
 10
177.9504764431659
 20
-160.7272748622169
 30
0.0
 11
177.9803548098452
 21
-160.7001690912238
 31
0.0
  0
LINE
  5
205
330
D2
100
AcDbEntity
  8
Слой 1
 62
   250
420
  3947579
370
    25
100
AcDbLine
 10
181.9372258309239
 20
-155.5060515658366
 30
0.0
 11
181.9101200599315
 21
-155.5060515658366
 31
0.0
  0
LINE
  5
206
330
D2
100
AcDbEntity
  8
Слой 1
 62
   250
420
  3947579
370
    25
100
AcDbLine
 10
186.2973392773578
 20
-151.9795409016137
 30
0.0
 11
186.440784622637
 21
-151.9229580606856
 31
0.0
  0
LINE
  5
207
330
D2
100
AcDbEntity
  8
Слой 1
 62
   250
420
  3947579
370
    25
100
AcDbLine
 10
174.6809781028228
 20
-123.1490329840422
 30
0.0
 11
174.8810184495382
 21
-123.2924904898298
 31
0.0
  0
LINE
  5
208
330
D2
100
AcDbEntity
  8
Слой 1
 62
   250
420
  3947579
370
    25
100
AcDbLine
 10
184.2890193198851
 20
-123.2924904898298
 30
0.0
 11
186.2108659092422
 21
-127.4525757500553
 31
0.0
  0
LINE
  5
209
330
D2
100
AcDbEntity
  8
Слой 1
 62
   250
420
  3947579
370
    25
100
AcDbLine
 10
184.4057723514242
 20
-123.1490329840422
 30
0.0
 11
186.3276189407813
 21
-127.3390087714548
 31
0.0
  0
LINE
  5
20A
330
D2
100
AcDbEntity
  8
Слой 1
 62
   250
420
  3947579
370
    25
100
AcDbLine
 10
182.9979625703347
 20
-120.4832308730217
 30
0.0
 11
179.1279662141152
 21
-112.0495055344778
 31
0.0
  0
LINE
  5
20B
330
D2
100
AcDbEntity
  8
Слой 1
 62
   250
420
  3947579
370
    25
100
AcDbLine
 10
179.2116426655289
 20
-111.9060480286899
 30
0.0
 11
183.2015781062255
 21
-120.5398258744573
 31
0.0
  0
LINE
  5
20C
330
D2
100
AcDbEntity
  8
Слой 1
 62
   250
420
  3947579
370
    25
100
AcDbLine
 10
186.1837722987573
 20
-115.3755745552411
 30
0.0
 11
186.3276189407813
 21
-116.0362549222358
 31
0.0
  0
LINE
  5
20D
330
D2
100
AcDbEntity
  8
Слой 1
 62
   250
420
  3947579
370
    25
100
AcDbLine
 10
178.4107151667003
 20
-123.1490329840422
 30
0.0
 11
178.610743352909
 21
-123.2924904898298
 31
0.0
  0
LINE
  5
20E
330
D2
100
AcDbEntity
  8
Слой 1
 62
   250
420
  3947579
370
    25
100
AcDbLine
 10
184.662796835812
 20
-120.5398258744573
 30
0.0
 11
180.7027397617942
 21
-111.9060480286899
 31
0.0
  0
LINE
  5
20F
330
D2
100
AcDbEntity
  8
Слой 1
 62
   250
420
  3947579
370
    25
100
AcDbLine
 10
180.9059661614488
 20
-112.0495055344778
 30
0.0
 11
184.7791485706069
 21
-120.4832308730217
 31
0.0
  0
LINE
  5
210
330
D2
100
AcDbEntity
  8
Слой 1
 62
   250
420
  3947579
370
    25
100
AcDbLine
 10
186.154283068314
 20
-119.2188785977198
 30
0.0
 11
182.8545050645474
 21
-112.0495055344778
 31
0.0
  0
LINE
  5
211
330
D2
100
AcDbEntity
  8
Слой 1
 62
   250
420
  3947579
370
    25
100
AcDbLine
 10
182.9413797294065
 20
-111.9060480286899
 30
0.0
 11
186.2407564364296
 21
-119.0754210919322
 31
0.0
  0
LINE
  5
212
330
D2
100
AcDbEntity
  8
Слой 1
 62
   250
420
  3947579
370
    25
100
AcDbLine
 10
184.2890193198851
 20
-123.2924904898298
 30
0.0
 11
182.3404804167866
 21
-123.2924904898298
 31
0.0
  0
LINE
  5
213
330
D2
100
AcDbEntity
  8
Слой 1
 62
   250
420
  3947579
370
    25
100
AcDbLine
 10
180.5592944165143
 20
-123.2924904898298
 30
0.0
 11
178.610743352909
 21
-123.2924904898298
 31
0.0
  0
LINE
  5
214
330
D2
100
AcDbEntity
  8
Слой 1
 62
   250
420
  3947579
370
    25
100
AcDbLine
 10
176.8327434055753
 20
-123.2924904898298
 30
0.0
 11
174.8810184495382
 21
-123.2924904898298
 31
0.0
  0
LINE
  5
215
330
D2
100
AcDbEntity
  8
Слой 1
 62
   250
420
  3947579
370
    25
100
AcDbLine
 10
173.1030185022052
 20
-123.2924904898298
 30
0.0
 11
171.1512813856607
 21
-123.2924904898298
 31
0.0
  0
LINE
  5
216
330
D2
100
AcDbEntity
  8
Слой 1
 62
   250
420
  3947579
370
    25
100
AcDbLine
 10
184.4057723514242
 20
-123.1490329840422
 30
0.0
 11
182.1372540171319
 21
-123.1490329840422
 31
0.0
  0
LINE
  5
217
330
D2
100
AcDbEntity
  8
Слой 1
 62
   250
420
  3947579
370
    25
100
AcDbLine
 10
180.6760474480534
 20
-123.1490329840422
 30
0.0
 11
178.4107151667003
 21
-123.1490329840422
 31
0.0
  0
LINE
  5
218
330
D2
100
AcDbEntity
  8
Слой 1
 62
   250
420
  3947579
370
    25
100
AcDbLine
 10
176.9463103841759
 20
-123.1490329840422
 30
0.0
 11
174.6809781028228
 21
-123.1490329840422
 31
0.0
  0
LINE
  5
219
330
D2
100
AcDbEntity
  8
Слой 1
 62
   250
420
  3947579
370
    25
100
AcDbLine
 10
173.2165854808051
 20
-123.1490329840422
 30
0.0
 11
170.951253199452
 21
-123.1490329840422
 31
0.0
  0
LINE
  5
21A
330
D2
100
AcDbEntity
  8
Слой 1
 62
   250
420
  3947579
370
    25
100
AcDbLine
 10
172.0119899388628
 20
-120.5398258744573
 30
0.0
 11
171.8119617526547
 21
-120.4832308730217
 31
0.0
  0
LINE
  5
21B
330
D2
100
AcDbEntity
  8
Слой 1
 62
   250
420
  3947579
370
    25
100
AcDbLine
 10
175.741727002741
 20
-120.5398258744573
 30
0.0
 11
175.5416866560249
 21
-120.4832308730217
 31
0.0
  0
LINE
  5
21C
330
D2
100
AcDbEntity
  8
Слой 1
 62
   250
420
  3947579
370
    25
100
AcDbLine
 10
182.1372540171319
 20
-123.1490329840422
 30
0.0
 11
182.3404804167866
 21
-123.2924904898298
 31
0.0
  0
LINE
  5
21D
330
D2
100
AcDbEntity
  8
Слой 1
 62
   250
420
  3947579
370
    25
100
AcDbLine
 10
186.3276189407813
 20
-116.0362549222358
 30
0.0
 11
184.4324768256718
 21
-111.9060480286899
 31
0.0
  0
LINE
  5
21E
330
D2
100
AcDbEntity
  8
Слой 1
 62
   250
420
  3947579
370
    25
100
AcDbLine
 10
184.635691064819
 20
-112.0495055344778
 30
0.0
 11
186.1837722987573
 21
-115.3755745552411
 31
0.0
  0
LINE
  5
21F
330
D2
100
AcDbEntity
  8
Слой 1
 62
   250
420
  3947579
370
    25
100
AcDbLine
 10
187.6752706917667
 20
-120.5398258744573
 30
0.0
 11
186.2706469636163
 21
-120.5398258744573
 31
0.0
  0
LINE
  5
220
330
D2
100
AcDbEntity
  8
Слой 1
 62
   250
420
  3947579
370
    25
100
AcDbLine
 10
184.662796835812
 20
-120.5398258744573
 30
0.0
 11
183.2015781062255
 21
-120.5398258744573
 31
0.0
  0
LINE
  5
221
330
D2
100
AcDbEntity
  8
Слой 1
 62
   250
420
  3947579
370
    25
100
AcDbLine
 10
180.9330597719345
 20
-120.5398258744573
 30
0.0
 11
179.4714519061111
 21
-120.5398258744573
 31
0.0
  0
LINE
  5
222
330
D2
100
AcDbEntity
  8
Слой 1
 62
   250
420
  3947579
370
    25
100
AcDbLine
 10
177.2033348685637
 20
-120.5398258744573
 30
0.0
 11
175.741727002741
 21
-120.5398258744573
 31
0.0
  0
LINE
  5
223
330
D2
100
AcDbEntity
  8
Слой 1
 62
   250
420
  3947579
370
    25
100
AcDbLine
 10
173.4767838576247
 20
-120.5398258744573
 30
0.0
 11
172.0119899388628
 21
-120.5398258744573
 31
0.0
  0
LINE
  5
224
330
D2
100
AcDbEntity
  8
Слой 1
 62
   250
420
  3947579
370
    25
100
AcDbLine
 10
170.0606541190625
 20
-120.5398258744573
 30
0.0
 11
169.0565002205798
 21
-120.5398258744573
 31
0.0
  0
LINE
  5
225
330
D2
100
AcDbEntity
  8
Слой 1
 62
   250
420
  3947579
370
    25
100
AcDbLine
 10
170.1774071506016
 20
-120.4832308730217
 30
0.0
 11
171.8119617526547
 21
-120.4832308730217
 31
0.0
  0
LINE
  5
226
330
D2
100
AcDbEntity
  8
Слой 1
 62
   250
420
  3947579
370
    25
100
AcDbLine
 10
173.5899495394804
 20
-120.4832308730217
 30
0.0
 11
175.5416866560249
 21
-120.4832308730217
 31
0.0
  0
LINE
  5
227
330
D2
100
AcDbEntity
  8
Слой 1
 62
   250
420
  3947579
370
    25
100
AcDbLine
 10
177.3196866033586
 20
-120.4832308730217
 30
0.0
 11
179.2714237199031
 21
-120.4832308730217
 31
0.0
  0
LINE
  5
228
330
D2
100
AcDbEntity
  8
Слой 1
 62
   250
420
  3947579
370
    25
100
AcDbLine
 10
181.0494115067287
 20
-120.4832308730217
 30
0.0
 11
182.9979625703347
 21
-120.4832308730217
 31
0.0
  0
LINE
  5
229
330
D2
100
AcDbEntity
  8
Слой 1
 62
   250
420
  3947579
370
    25
100
AcDbLine
 10
184.7791485706069
 20
-120.4832308730217
 30
0.0
 11
186.154283068314
 21
-120.4832308730217
 31
0.0
  0
LINE
  5
22A
330
D2
100
AcDbEntity
  8
Слой 1
 62
   250
420
  3947579
370
    25
100
AcDbLine
 10
179.4714519061111
 20
-120.5398258744573
 30
0.0
 11
179.2714237199031
 21
-120.4832308730217
 31
0.0
  0
LINE
  5
22B
330
D2
100
AcDbEntity
  8
Слой 1
 62
   250
420
  3947579
370
    25
100
AcDbLine
 10
183.2015781062255
 20
-120.5398258744573
 30
0.0
 11
182.9979625703347
 21
-120.4832308730217
 31
0.0
  0
LINE
  5
22C
330
D2
100
AcDbEntity
  8
Слой 1
 62
   250
420
  3947579
370
    25
100
AcDbLine
 10
187.6752706917667
 20
-120.5398258744573
 30
0.0
 11
188.2490763939023
 21
-121.0837410494046
 31
0.0
  0
LINE
  5
22D
330
D2
100
AcDbEntity
  8
Слой 1
 62
   250
420
  3947579
370
    25
100
AcDbLine
 10
173.4465041942011
 20
-112.0495055344778
 30
0.0
 11
173.246463847485
 21
-111.9060480286899
 31
0.0
  0
LINE
  5
22E
330
D2
100
AcDbEntity
  8
Слой 1
 62
   250
420
  3947579
370
    25
100
AcDbLine
 10
186.154283068314
 20
-120.4832308730217
 30
0.0
 11
186.2706469636163
 21
-120.5398258744573
 31
0.0
  0
LINE
  5
22F
330
D2
100
AcDbEntity
  8
Слой 1
 62
   250
420
  3947579
370
    25
100
AcDbLine
 10
177.1762290975707
 20
-112.0495055344778
 30
0.0
 11
176.9762009113632
 21
-111.9060480286899
 31
0.0
  0
LINE
  5
230
330
D2
100
AcDbEntity
  8
Слой 1
 62
   250
420
  3947579
370
    25
100
AcDbLine
 10
180.9059661614488
 20
-112.0495055344778
 30
0.0
 11
180.7027397617942
 21
-111.9060480286899
 31
0.0
  0
LINE
  5
231
330
D2
100
AcDbEntity
  8
Слой 1
 62
   250
420
  3947579
370
    25
100
AcDbLine
 10
184.635691064819
 20
-112.0495055344778
 30
0.0
 11
184.4324768256718
 21
-111.9060480286899
 31
0.0
  0
LINE
  5
232
330
D2
100
AcDbEntity
  8
Слой 1
 62
   250
420
  3947579
370
    25
100
AcDbLine
 10
170.2041116248504
 20
-112.0495055344778
 30
0.0
 11
171.6685042468674
 21
-112.0495055344778
 31
0.0
  0
LINE
  5
233
330
D2
100
AcDbEntity
  8
Слой 1
 62
   250
420
  3947579
370
    25
100
AcDbLine
 10
173.4465041942011
 20
-112.0495055344778
 30
0.0
 11
175.3982413107457
 21
-112.0495055344778
 31
0.0
  0
LINE
  5
234
330
D2
100
AcDbEntity
  8
Слой 1
 62
   250
420
  3947579
370
    25
100
AcDbLine
 10
177.1762290975707
 20
-112.0495055344778
 30
0.0
 11
179.1279662141152
 21
-112.0495055344778
 31
0.0
  0
LINE
  5
235
330
D2
100
AcDbEntity
  8
Слой 1
 62
   250
420
  3947579
370
    25
100
AcDbLine
 10
180.9059661614488
 20
-112.0495055344778
 30
0.0
 11
182.8545050645474
 21
-112.0495055344778
 31
0.0
  0
LINE
  5
236
330
D2
100
AcDbEntity
  8
Слой 1
 62
   250
420
  3947579
370
    25
100
AcDbLine
 10
184.635691064819
 20
-112.0495055344778
 30
0.0
 11
186.154283068314
 21
-112.0495055344778
 31
0.0
  0
LINE
  5
237
330
D2
100
AcDbEntity
  8
Слой 1
 62
   250
420
  3947579
370
    25
100
AcDbLine
 10
170.1172369599907
 20
-111.9060480286899
 30
0.0
 11
171.7549776149824
 21
-111.9060480286899
 31
0.0
  0
LINE
  5
238
330
D2
100
AcDbEntity
  8
Слой 1
 62
   250
420
  3947579
370
    25
100
AcDbLine
 10
173.246463847485
 20
-111.9060480286899
 30
0.0
 11
175.4819177621588
 21
-111.9060480286899
 31
0.0
  0
LINE
  5
239
330
D2
100
AcDbEntity
  8
Слой 1
 62
   250
420
  3947579
370
    25
100
AcDbLine
 10
176.9762009113632
 20
-111.9060480286899
 30
0.0
 11
179.2116426655289
 21
-111.9060480286899
 31
0.0
  0
LINE
  5
23A
330
D2
100
AcDbEntity
  8
Слой 1
 62
   250
420
  3947579
370
    25
100
AcDbLine
 10
180.7027397617942
 20
-111.9060480286899
 30
0.0
 11
182.9413797294065
 21
-111.9060480286899
 31
0.0
  0
LINE
  5
23B
330
D2
100
AcDbEntity
  8
Слой 1
 62
   250
420
  3947579
370
    25
100
AcDbLine
 10
184.4324768256718
 20
-111.9060480286899
 30
0.0
 11
186.2973392773578
 21
-111.9060480286899
 31
0.0
  0
LINE
  5
23C
330
D2
100
AcDbEntity
  8
Слой 1
 62
   250
420
  3947579
370
    25
100
AcDbLine
 10
187.6752706917667
 20
-107.6889907913003
 30
0.0
 11
188.2490763939023
 21
-108.2627843329276
 31
0.0
  0
LINE
  5
23D
330
D2
100
AcDbEntity
  8
Слой 1
 62
   250
420
  3947579
370
    25
100
AcDbLine
 10
169.0565002205798
 20
-109.8977402317246
 30
0.0
 11
168.4826945184449
 21
-109.8977402317246
 31
0.0
  0
LINE
  5
23E
330
D2
100
AcDbEntity
  8
Слой 1
 62
   250
420
  3947579
370
    25
100
AcDbLine
 10
187.6752706917667
 20
-109.8977402317246
 30
0.0
 11
169.0565002205798
 21
-109.8977402317246
 31
0.0
  0
LINE
  5
23F
330
D2
100
AcDbEntity
  8
Слой 1
 62
   250
420
  3947579
370
    25
100
AcDbLine
 10
169.0565002205798
 20
-107.6889907913003
 30
0.0
 11
187.6752706917667
 21
-107.6889907913003
 31
0.0
  0
LINE
  5
240
330
D2
100
AcDbEntity
  8
Слой 1
 62
   250
420
  3947579
370
    25
100
AcDbLine
 10
188.2490763939023
 20
-109.8977402317246
 30
0.0
 11
187.6752706917667
 21
-109.8977402317246
 31
0.0
  0
LINE
  5
241
330
D2
100
AcDbEntity
  8
Слой 1
 62
   250
420
  3947579
370
    25
100
AcDbLine
 10
38.66979252801336
 20
-199.3961318464823
 30
0.0
 11
38.66979252801336
 21
-218.4723502047549
 31
0.0
  0
LINE
  5
242
330
D2
100
AcDbEntity
  8
Слой 1
 62
   250
420
  3947579
370
    25
100
AcDbLine
 10
39.93415392369519
 20
-199.5965613294346
 30
0.0
 11
39.93415392369519
 21
-218.242030194616
 31
0.0
  0
LINE
  5
243
330
D2
100
AcDbEntity
  8
Слой 1
 62
   250
420
  3947579
370
    25
100
AcDbLine
 10
45.78576576313855
 20
-207.5999445518842
 30
0.0
 11
45.78576576313855
 21
-208.0601832754186
 31
0.0
  0
LINE
  5
244
330
D2
100
AcDbEntity
  8
Слой 1
 62
   250
420
  3947579
370
    25
100
AcDbLine
 10
39.93415392369519
 20
-199.5965613294346
 30
0.0
 11
40.47807213876994
 21
-199.0526461544864
 31
0.0
  0
LINE
  5
245
330
D2
100
AcDbEntity
  8
Слой 1
 62
   250
420
  3947579
370
    25
100
AcDbLine
 10
39.24359519002147
 20
-198.8223261443474
 30
0.0
 11
38.66979252801336
 21
-199.3961318464823
 31
0.0
  0
LINE
  5
246
330
D2
100
AcDbEntity
  8
Слой 1
 62
   250
420
  3947579
370
    25
100
AcDbLine
 10
38.66979252801336
 20
-218.4723502047549
 30
0.0
 11
39.24359519002147
 21
-219.0461559068905
 31
0.0
  0
LINE
  5
247
330
D2
100
AcDbEntity
  8
Слой 1
 62
   250
420
  3947579
370
    25
100
AcDbLine
 10
40.47807213876994
 20
-218.8158358967516
 30
0.0
 11
39.93415392369519
 21
-218.242030194616
 31
0.0
  0
LINE
  5
248
330
D2
100
AcDbEntity
  8
Слой 1
 62
   250
420
  3947579
370
    25
100
AcDbLine
 10
49.02816441274268
 20
-208.0601832754186
 30
0.0
 11
49.02816441274268
 21
-207.5999445518842
 31
0.0
  0
LINE
  5
249
330
D2
100
AcDbEntity
  8
Слой 1
 62
   250
420
  3947579
370
    25
100
AcDbLine
 10
54.24938770912291
 20
-199.5965613294346
 30
0.0
 11
54.24938770912291
 21
-218.242030194616
 31
0.0
  0
LINE
  5
24A
330
D2
100
AcDbEntity
  8
Слой 1
 62
   250
420
  3947579
370
    25
100
AcDbLine
 10
54.24938770912291
 20
-199.5965613294346
 30
0.0
 11
54.79330288407081
 21
-199.0526461544864
 31
0.0
  0
LINE
  5
24B
330
D2
100
AcDbEntity
  8
Слой 1
 62
   250
420
  3947579
370
    25
100
AcDbLine
 10
54.79330288407081
 20
-218.8158358967516
 30
0.0
 11
54.24938770912291
 21
-218.242030194616
 31
0.0
  0
LINE
  5
24C
330
D2
100
AcDbEntity
  8
Слой 1
 62
   250
420
  3947579
370
    25
100
AcDbLine
 10
64.31766764971968
 20
-218.242030194616
 30
0.0
 11
64.31766764971968
 21
-199.5965613294346
 31
0.0
  0
LINE
  5
24D
330
D2
100
AcDbEntity
  8
Слой 1
 62
   250
420
  3947579
370
    25
100
AcDbLine
 10
64.31766764971968
 20
-199.5965613294346
 30
0.0
 11
64.89147335185464
 21
-199.0526461544864
 31
0.0
  0
LINE
  5
24E
330
D2
100
AcDbEntity
  8
Слой 1
 62
   250
420
  3947579
370
    25
100
AcDbLine
 10
64.89147335185464
 20
-218.8158358967516
 30
0.0
 11
64.31766764971968
 21
-218.242030194616
 31
0.0
  0
LINE
  5
24F
330
D2
100
AcDbEntity
  8
Слой 1
 62
   250
420
  3947579
370
    25
100
AcDbLine
 10
66.58340122781694
 20
-199.0526461544864
 30
0.0
 11
66.58340122781694
 21
-218.8158358967516
 31
0.0
  0
LINE
  5
250
330
D2
100
AcDbEntity
  8
Слой 1
 62
   250
420
  3947579
370
    25
100
AcDbLine
 10
68.13426721794957
 20
-201.3179784358395
 30
0.0
 11
68.13426721794957
 21
-217.1243032372791
 31
0.0
  0
LINE
  5
251
330
D2
100
AcDbEntity
  8
Слой 1
 62
   250
420
  3947579
370
    25
100
AcDbLine
 10
68.16096561194439
 20
-212.7342992636584
 30
0.0
 11
68.16096561194439
 21
-201.3179784358395
 31
0.0
  0
LINE
  5
252
330
D2
100
AcDbEntity
  8
Слой 1
 62
   250
420
  3947579
370
    25
100
AcDbLine
 10
68.16096561194439
 20
-217.0944187903461
 30
0.0
 11
68.16096561194439
 21
-212.7342992636584
 31
0.0
  0
LINE
  5
253
330
D2
100
AcDbEntity
  8
Слой 1
 62
   250
420
  3947579
370
    25
100
AcDbLine
 10
68.19085005887743
 20
-212.7641897908458
 30
0.0
 11
68.19085005887743
 21
-217.0677203963509
 31
0.0
  0
LINE
  5
254
330
D2
100
AcDbEntity
  8
Слой 1
 62
   250
420
  3947579
370
    25
100
AcDbLine
 10
68.73477131407935
 20
-200.7441727337045
 30
0.0
 11
68.73477131407935
 21
-200.7441727337045
 31
0.0
  0
LINE
  5
255
330
D2
100
AcDbEntity
  8
Слой 1
 62
   250
420
  3947579
370
    25
100
AcDbLine
 10
69.65245792470044
 20
-217.0677203963509
 30
0.0
 11
69.65245792470044
 21
-212.7641897908458
 31
0.0
  0
LINE
  5
256
330
D2
100
AcDbEntity
  8
Слой 1
 62
   250
420
  3947579
370
    25
100
AcDbLine
 10
69.7094420623728
 20
-217.0944187903461
 30
0.0
 11
69.7094420623728
 21
-212.7342992636584
 31
0.0
  0
LINE
  5
257
330
D2
100
AcDbEntity
  8
Слой 1
 62
   250
420
  3947579
370
    25
100
AcDbLine
 10
70.02622936037363
 20
-218.9891717692182
 30
0.0
 11
70.02622936037363
 21
-218.93258892829
 31
0.0
  0
LINE
  5
258
330
D2
100
AcDbEntity
  8
Слой 1
 62
   250
420
  3947579
370
    25
100
AcDbLine
 10
70.02622936037363
 20
-198.9091947289522
 30
0.0
 11
70.02622936037363
 21
-198.8793102820197
 31
0.0
  0
LINE
  5
259
330
D2
100
AcDbEntity
  8
Слой 1
 62
   250
420
  3947579
370
    25
100
AcDbLine
 10
72.14770891944898
 20
-219.0162653797032
 30
0.0
 11
72.14770891944898
 21
-218.93258892829
 31
0.0
  0
LINE
  5
25A
330
D2
100
AcDbEntity
  8
Слой 1
 62
   250
420
  3947579
370
    25
100
AcDbLine
 10
72.14770891944898
 20
-198.9091947289522
 30
0.0
 11
72.14770891944898
 21
-198.8223261443474
 31
0.0
  0
LINE
  5
25B
330
D2
100
AcDbEntity
  8
Слой 1
 62
   250
420
  3947579
370
    25
100
AcDbLine
 10
69.7094420623728
 20
-217.0944187903461
 30
0.0
 11
69.65245792470044
 21
-217.0677203963509
 31
0.0
  0
LINE
  5
25C
330
D2
100
AcDbEntity
  8
Слой 1
 62
   250
420
  3947579
370
    25
100
AcDbLine
 10
68.16096561194439
 20
-212.7342992636584
 30
0.0
 11
68.19085005887743
 21
-212.7641897908458
 31
0.0
  0
LINE
  5
25D
330
D2
100
AcDbEntity
  8
Слой 1
 62
   250
420
  3947579
370
    25
100
AcDbLine
 10
69.7094420623728
 20
-212.7342992636584
 30
0.0
 11
69.65245792470044
 21
-212.7641897908458
 31
0.0
  0
LINE
  5
25E
330
D2
100
AcDbEntity
  8
Слой 1
 62
   250
420
  3947579
370
    25
100
AcDbLine
 10
140.1081029778007
 20
-219.0461559068905
 30
0.0
 11
110.5029707389052
 21
-219.0461559068905
 31
0.0
  0
LINE
  5
25F
330
D2
100
AcDbEntity
  8
Слой 1
 62
   250
420
  3947579
370
    25
100
AcDbLine
 10
72.14770891944898
 20
-219.0461559068905
 30
0.0
 11
39.24359519002147
 21
-219.0461559068905
 31
0.0
  0
LINE
  5
260
330
D2
100
AcDbEntity
  8
Слой 1
 62
   250
420
  3947579
370
    25
100
AcDbLine
 10
70.02622936037363
 20
-218.9891717692182
 30
0.0
 11
69.56599063683921
 21
-218.9891717692182
 31
0.0
  0
LINE
  5
261
330
D2
100
AcDbEntity
  8
Слой 1
 62
   250
420
  3947579
370
    25
100
AcDbLine
 10
109.7291368505622
 20
-218.93258892829
 30
0.0
 11
76.85490148781467
 21
-218.93258892829
 31
0.0
  0
LINE
  5
262
330
D2
100
AcDbEntity
  8
Слой 1
 62
   250
420
  3947579
370
    25
100
AcDbLine
 10
69.62535823396146
 20
-218.93258892829
 30
0.0
 11
73.72567460031996
 21
-218.9592873222845
 31
0.0
  0
LINE
  5
263
330
D2
100
AcDbEntity
  8
Слой 1
 62
   250
420
  3947579
370
    25
100
AcDbLine
 10
72.14770891944898
 20
-219.0162653797032
 30
0.0
 11
70.02622936037363
 21
-218.9891717692182
 31
0.0
  0
LINE
  5
264
330
D2
100
AcDbEntity
  8
Слой 1
 62
   250
420
  3947579
370
    25
100
AcDbLine
 10
68.13426721794957
 20
-217.1243032372791
 30
0.0
 11
68.19085005887743
 21
-217.0378359494179
 31
0.0
  0
LINE
  5
265
330
D2
100
AcDbEntity
  8
Слой 1
 62
   250
420
  3947579
370
    25
100
AcDbLine
 10
74.2994803024549
 20
-218.9592873222845
 30
0.0
 11
76.85490148781467
 21
-218.93258892829
 31
0.0
  0
LINE
  5
266
330
D2
100
AcDbEntity
  8
Слой 1
 62
   250
420
  3947579
370
    25
100
AcDbLine
 10
110.6197237704443
 20
-217.1243032372791
 30
0.0
 11
68.13426721794957
 21
-217.1243032372791
 31
0.0
  0
LINE
  5
267
330
D2
100
AcDbEntity
  8
Слой 1
 62
   250
420
  3947579
370
    25
100
AcDbLine
 10
69.7094420623728
 20
-217.0944187903461
 30
0.0
 11
110.6197237704443
 21
-217.0944187903461
 31
0.0
  0
LINE
  5
268
330
D2
100
AcDbEntity
  8
Слой 1
 62
   250
420
  3947579
370
    25
100
AcDbLine
 10
68.16096561194439
 20
-217.0944187903461
 30
0.0
 11
69.7094420623728
 21
-217.0944187903461
 31
0.0
  0
LINE
  5
269
330
D2
100
AcDbEntity
  8
Слой 1
 62
   250
420
  3947579
370
    25
100
AcDbLine
 10
69.65245792470044
 20
-217.0677203963509
 30
0.0
 11
68.19085005887743
 21
-217.0677203963509
 31
0.0
  0
LINE
  5
26A
330
D2
100
AcDbEntity
  8
Слой 1
 62
   250
420
  3947579
370
    25
100
AcDbLine
 10
69.65245792470044
 20
-216.9808578919992
 30
0.0
 11
68.19085005887743
 21
-216.9808578919992
 31
0.0
  0
LINE
  5
26B
330
D2
100
AcDbEntity
  8
Слой 1
 62
   250
420
  3947579
370
    25
100
AcDbLine
 10
111.1903434196407
 20
-216.5206130882104
 30
0.0
 11
111.2206230830642
 21
-216.5206130882104
 31
0.0
  0
LINE
  5
26C
330
D2
100
AcDbEntity
  8
Слой 1
 62
   250
420
  3947579
370
    25
100
AcDbLine
 10
110.5029707389052
 20
-219.0461559068905
 30
0.0
 11
109.7291368505622
 21
-218.93258892829
 31
0.0
  0
LINE
  5
26D
330
D2
100
AcDbEntity
  8
Слой 1
 62
   250
420
  3947579
370
    25
100
AcDbLine
 10
68.16096561194439
 20
-212.7342992636584
 30
0.0
 11
68.16096561194439
 21
-212.7342992636584
 31
0.0
  0
LINE
  5
26E
330
D2
100
AcDbEntity
  8
Слой 1
 62
   250
420
  3947579
370
    25
100
AcDbLine
 10
69.65245792470044
 20
-212.7641897908458
 30
0.0
 11
68.19085005887743
 21
-212.7641897908458
 31
0.0
  0
LINE
  5
26F
330
D2
100
AcDbEntity
  8
Слой 1
 62
   250
420
  3947579
370
    25
100
AcDbLine
 10
69.7094420623728
 20
-212.7342992636584
 30
0.0
 11
68.16096561194439
 21
-212.7342992636584
 31
0.0
  0
LINE
  5
270
330
D2
100
AcDbEntity
  8
Слой 1
 62
   250
420
  3947579
370
    25
100
AcDbLine
 10
69.56599063683921
 20
-218.9891717692182
 30
0.0
 11
69.62535823396146
 21
-218.93258892829
 31
0.0
  0
LINE
  5
271
330
D2
100
AcDbEntity
  8
Слой 1
 62
   250
420
  3947579
370
    25
100
AcDbLine
 10
69.56599063683921
 20
-198.8793102820197
 30
0.0
 11
69.62535823396146
 21
-198.9091947289522
 31
0.0
  0
LINE
  5
272
330
D2
100
AcDbEntity
  8
Слой 1
 62
   250
420
  3947579
370
    25
100
AcDbLine
 10
115.0938054922223
 20
-200.6871885960322
 30
0.0
 11
115.1232947226655
 21
-200.6871885960322
 31
0.0
  0
LINE
  5
273
330
D2
100
AcDbEntity
  8
Слой 1
 62
   250
420
  3947579
370
    25
100
AcDbLine
 10
110.5029707389052
 20
-198.8223261443474
 30
0.0
 11
109.7291368505622
 21
-198.9091947289522
 31
0.0
  0
LINE
  5
274
330
D2
100
AcDbEntity
  8
Слой 1
 62
   250
420
  3947579
370
    25
100
AcDbLine
 10
134.5433939894245
 20
-203.1258628301062
 30
0.0
 11
129.5222110397604
 21
-203.1258628301062
 31
0.0
  0
LINE
  5
275
330
D2
100
AcDbEntity
  8
Слой 1
 62
   250
420
  3947579
370
    25
100
AcDbLine
 10
129.5222110397604
 20
-203.0959783831732
 30
0.0
 11
134.513114326001
 21
-203.0959783831732
 31
0.0
  0
LINE
  5
276
330
D2
100
AcDbEntity
  8
Слой 1
 62
   250
420
  3947579
370
    25
100
AcDbLine
 10
134.3429645064723
 20
-202.7226021639904
 30
0.0
 11
129.695546912227
 21
-202.7226021639904
 31
0.0
  0
LINE
  5
277
330
D2
100
AcDbEntity
  8
Слой 1
 62
   250
420
  3947579
370
    25
100
AcDbLine
 10
72.14770891944898
 20
-198.8223261443474
 30
0.0
 11
70.02622936037363
 21
-198.8793102820197
 31
0.0
  0
LINE
  5
278
330
D2
100
AcDbEntity
  8
Слой 1
 62
   250
420
  3947579
370
    25
100
AcDbLine
 10
69.62535823396146
 20
-198.9091947289522
 30
0.0
 11
73.72567460031996
 21
-198.9091947289522
 31
0.0
  0
LINE
  5
279
330
D2
100
AcDbEntity
  8
Слой 1
 62
   250
420
  3947579
370
    25
100
AcDbLine
 10
132.1911992037197
 20
-201.4044457237007
 30
0.0
 11
131.8473122149796
 21
-201.4044457237007
 31
0.0
  0
LINE
  5
27A
330
D2
100
AcDbEntity
  8
Слой 1
 62
   250
420
  3947579
370
    25
100
AcDbLine
 10
111.2206230830642
 20
-201.3179784358395
 30
0.0
 11
111.1903434196407
 21
-201.3179784358395
 31
0.0
  0
LINE
  5
27B
330
D2
100
AcDbEntity
  8
Слой 1
 62
   250
420
  3947579
370
    25
100
AcDbLine
 10
68.16096561194439
 20
-201.3179784358395
 30
0.0
 11
68.13426721794957
 21
-201.3179784358395
 31
0.0
  0
LINE
  5
27C
330
D2
100
AcDbEntity
  8
Слой 1
 62
   250
420
  3947579
370
    25
100
AcDbLine
 10
68.73477131407935
 20
-200.7441727337045
 30
0.0
 11
110.6197237704443
 21
-200.7441727337045
 31
0.0
  0
LINE
  5
27D
330
D2
100
AcDbEntity
  8
Слой 1
 62
   250
420
  3947579
370
    25
100
AcDbLine
 10
110.6197237704443
 20
-200.7441727337045
 30
0.0
 11
68.73477131407935
 21
-200.7441727337045
 31
0.0
  0
LINE
  5
27E
330
D2
100
AcDbEntity
  8
Слой 1
 62
   250
420
  3947579
370
    25
100
AcDbLine
 10
109.7291368505622
 20
-198.9091947289522
 30
0.0
 11
76.85490148781467
 21
-198.9091947289522
 31
0.0
  0
LINE
  5
27F
330
D2
100
AcDbEntity
  8
Слой 1
 62
   250
420
  3947579
370
    25
100
AcDbLine
 10
70.02622936037363
 20
-198.8793102820197
 30
0.0
 11
69.56599063683921
 21
-198.8793102820197
 31
0.0
  0
LINE
  5
280
330
D2
100
AcDbEntity
  8
Слой 1
 62
   250
420
  3947579
370
    25
100
AcDbLine
 10
140.1081029778007
 20
-198.8223261443474
 30
0.0
 11
110.5029707389052
 21
-198.8223261443474
 31
0.0
  0
LINE
  5
281
330
D2
100
AcDbEntity
  8
Слой 1
 62
   250
420
  3947579
370
    25
100
AcDbLine
 10
72.14770891944898
 20
-198.8223261443474
 30
0.0
 11
39.24359519002147
 21
-198.8223261443474
 31
0.0
  0
LINE
  5
282
330
D2
100
AcDbEntity
  8
Слой 1
 62
   250
420
  3947579
370
    25
100
AcDbLine
 10
74.2994803024549
 20
-198.9091947289522
 30
0.0
 11
76.85490148781467
 21
-198.9091947289522
 31
0.0
  0
LINE
  5
283
330
D2
100
AcDbEntity
  8
Слой 1
 62
   250
420
  3947579
370
    25
100
AcDbLine
 10
110.6197237704443
 20
-217.1243032372791
 30
0.0
 11
110.6197237704443
 21
-217.0944187903461
 31
0.0
  0
LINE
  5
284
330
D2
100
AcDbEntity
  8
Слой 1
 62
   250
420
  3947579
370
    25
100
AcDbLine
 10
110.6197237704443
 20
-200.7441727337045
 30
0.0
 11
110.6197237704443
 21
-200.7441727337045
 31
0.0
  0
LINE
  5
285
330
D2
100
AcDbEntity
  8
Слой 1
 62
   250
420
  3947579
370
    25
100
AcDbLine
 10
111.1903434196407
 20
-216.5206130882104
 30
0.0
 11
111.1903434196407
 21
-201.3179784358395
 31
0.0
  0
LINE
  5
286
330
D2
100
AcDbEntity
  8
Слой 1
 62
   250
420
  3947579
370
    25
100
AcDbLine
 10
111.2206230830642
 20
-201.3179784358395
 30
0.0
 11
111.2206230830642
 21
-216.5206130882104
 31
0.0
  0
LINE
  5
287
330
D2
100
AcDbEntity
  8
Слой 1
 62
   250
420
  3947579
370
    25
100
AcDbLine
 10
112.7683030202583
 20
-218.8158358967516
 30
0.0
 11
112.7683030202583
 21
-199.0526461544864
 31
0.0
  0
LINE
  5
288
330
D2
100
AcDbEntity
  8
Слой 1
 62
   250
420
  3947579
370
    25
100
AcDbLine
 10
115.0368213545499
 20
-218.242030194616
 30
0.0
 11
114.463015652415
 21
-218.8158358967516
 31
0.0
  0
LINE
  5
289
330
D2
100
AcDbEntity
  8
Слой 1
 62
   250
420
  3947579
370
    25
100
AcDbLine
 10
140.681908679935
 20
-201.3478628827725
 30
0.0
 11
140.4515886697961
 21
-201.4913143083067
 31
0.0
  0
LINE
  5
28A
330
D2
100
AcDbEntity
  8
Слой 1
 62
   250
420
  3947579
370
    25
100
AcDbLine
 10
140.681908679935
 20
-216.4939207744696
 30
0.0
 11
140.4515886697961
 21
-216.3504693489361
 31
0.0
  0
LINE
  5
28B
330
D2
100
AcDbEntity
  8
Слой 1
 62
   250
420
  3947579
370
    25
100
AcDbLine
 10
114.463015652415
 20
-199.0526461544864
 30
0.0
 11
115.0368213545499
 21
-199.5965613294346
 31
0.0
  0
LINE
  5
28C
330
D2
100
AcDbEntity
  8
Слой 1
 62
   250
420
  3947579
370
    25
100
AcDbLine
 10
115.0368213545499
 20
-199.5965613294346
 30
0.0
 11
115.0368213545499
 21
-218.242030194616
 31
0.0
  0
LINE
  5
28D
330
D2
100
AcDbEntity
  8
Слой 1
 62
   250
420
  3947579
370
    25
100
AcDbLine
 10
125.0752229284673
 20
-218.242030194616
 30
0.0
 11
124.5316968897559
 21
-218.8158358967516
 31
0.0
  0
LINE
  5
28E
330
D2
100
AcDbEntity
  8
Слой 1
 62
   250
420
  3947579
370
    25
100
AcDbLine
 10
124.5316968897559
 20
-199.0526461544864
 30
0.0
 11
125.0752229284673
 21
-199.5965613294346
 31
0.0
  0
LINE
  5
28F
330
D2
100
AcDbEntity
  8
Слой 1
 62
   250
420
  3947579
370
    25
100
AcDbLine
 10
125.1055025918909
 20
-218.242030194616
 30
0.0
 11
125.1055025918909
 21
-199.5965613294346
 31
0.0
  0
LINE
  5
290
330
D2
100
AcDbEntity
  8
Слой 1
 62
   250
420
  3947579
370
    25
100
AcDbLine
 10
130.4127979596425
 20
-207.1424966647972
 30
0.0
 11
130.4127979596425
 21
-206.6822579412634
 31
0.0
  0
LINE
  5
291
330
D2
100
AcDbEntity
  8
Слой 1
 62
   250
420
  3947579
370
    25
100
AcDbLine
 10
133.6257134590568
 20
-206.6822579412634
 30
0.0
 11
133.6257134590568
 21
-207.1424966647972
 31
0.0
  0
LINE
  5
292
330
D2
100
AcDbEntity
  8
Слой 1
 62
   250
420
  3947579
370
    25
100
AcDbLine
 10
140.1081029778007
 20
-219.0461559068905
 30
0.0
 11
140.681908679935
 21
-218.4723502047549
 31
0.0
  0
LINE
  5
293
330
D2
100
AcDbEntity
  8
Слой 1
 62
   250
420
  3947579
370
    25
100
AcDbLine
 10
140.681908679935
 20
-199.3961318464823
 30
0.0
 11
140.1081029778007
 21
-198.8223261443474
 31
0.0
  0
LINE
  5
294
330
D2
100
AcDbEntity
  8
Слой 1
 62
   250
420
  3947579
370
    25
100
AcDbLine
 10
140.4515886697961
 20
-216.3504693489361
 30
0.0
 11
140.4515886697961
 21
-201.4913143083067
 31
0.0
  0
LINE
  5
295
330
D2
100
AcDbEntity
  8
Слой 1
 62
   250
420
  3947579
370
    25
100
AcDbLine
 10
140.681908679935
 20
-216.4939207744696
 30
0.0
 11
140.681908679935
 21
-218.4723502047549
 31
0.0
  0
LINE
  5
296
330
D2
100
AcDbEntity
  8
Слой 1
 62
   250
420
  3947579
370
    25
100
AcDbLine
 10
140.681908679935
 20
-201.3478628827725
 30
0.0
 11
140.681908679935
 21
-199.3961318464823
 31
0.0
  0
SPLINE
  5
297
330
D2
100
AcDbEntity
  8
Слой 1
 62
   250
420
  3947579
370
    25
100
AcDbSpline
210
0.0
220
0.0
230
1.0
 70
     8
 71
     3
 72
     8
 73
     4
 74
     0
 42
0.0000000001
 43
0.0000000001
 40
0.0
 40
0.0
 40
0.0
 40
0.0
 40
1.0
 40
1.0
 40
1.0
 40
1.0
 10
114.9802385136218
 20
-109.8977402317246
 30
0.0
 10
114.9710816515503
 20
-108.6871617201424
 30
0.0
 10
113.9908231501073
 20
-107.7041306230121
 30
0.0
 10
112.7714890731968
 20
-107.6889907913003
 30
0.0
  0
SPLINE
  5
298
330
D2
100
AcDbEntity
  8
Слой 1
 62
   250
420
  3947579
370
    25
100
AcDbSpline
210
0.0
220
0.0
230
1.0
 70
     8
 71
     3
 72
    11
 73
     7
 74
     0
 42
0.0000000001
 43
0.0000000001
 40
0.0
 40
0.0
 40
0.0
 40
0.0
 40
1.0
 40
1.0
 40
1.0
 40
2.0
 40
2.0
 40
2.0
 40
2.0
 10
66.58340122781694
 20
-107.6889907913003
 30
0.0
 10
66.59216287339825
 20
-107.6889907913003
 30
0.0
 10
66.57742433843033
 20
-107.6889907913003
 30
0.0
 10
66.54116170536621
 20
-107.6889907913003
 30
0.0
 10
65.31903679200794
 20
-107.6889907913003
 30
0.0
 10
64.32683059204484
 20
-108.6752079413688
 30
0.0
 10
64.31766764971968
 20
-109.8977402317246
 30
0.0
  0
LINE
  5
299
330
D2
100
AcDbEntity
  8
Слой 1
 62
   250
420
  3947579
370
    25
100
AcDbLine
 10
73.72567460031996
 20
-170.4520691108176
 30
0.0
 11
73.81254318492567
 21
-170.4520691108176
 31
0.0
  0
LINE
  5
29A
330
D2
100
AcDbEntity
  8
Слой 1
 62
   250
420
  3947579
370
    25
100
AcDbLine
 10
73.81254318492567
 20
-170.4520691108176
 30
0.0
 11
73.89941176953107
 21
-170.4819474774977
 31
0.0
  0
LINE
  5
29B
330
D2
100
AcDbEntity
  8
Слой 1
 62
   250
420
  3947579
370
    25
100
AcDbLine
 10
73.89941176953107
 20
-170.4819474774977
 30
0.0
 11
73.98587905739294
 21
-170.4819474774977
 31
0.0
  0
LINE
  5
29C
330
D2
100
AcDbEntity
  8
Слой 1
 62
   250
420
  3947579
370
    25
100
AcDbLine
 10
73.98587905739294
 20
-170.4819474774977
 30
0.0
 11
74.07274764199865
 21
-170.4819474774977
 31
0.0
  0
LINE
  5
29D
330
D2
100
AcDbEntity
  8
Слой 1
 62
   250
420
  3947579
370
    25
100
AcDbLine
 10
74.07274764199865
 20
-170.4819474774977
 30
0.0
 11
74.15602887692134
 21
-170.4520691108176
 31
0.0
  0
LINE
  5
29E
330
D2
100
AcDbEntity
  8
Слой 1
 62
   250
420
  3947579
370
    25
100
AcDbLine
 10
74.15602887692134
 20
-170.4520691108176
 30
0.0
 11
74.21300693434
 21
-170.4249633398253
 31
0.0
  0
LINE
  5
29F
330
D2
100
AcDbEntity
  8
Слой 1
 62
   250
420
  3947579
370
    25
100
AcDbLine
 10
74.21300693434
 20
-170.4249633398253
 30
0.0
 11
74.2994803024549
 21
-170.3950849731453
 31
0.0
  0
SPLINE
  5
2A0
330
D2
100
AcDbEntity
  8
Слой 1
 62
   250
420
  3947579
370
    25
100
AcDbSpline
210
0.0
220
0.0
230
1.0
 70
     8
 71
     3
 72
    11
 73
     7
 74
     0
 42
0.0000000001
 43
0.0000000001
 40
0.0
 40
0.0
 40
0.0
 40
0.0
 40
1.0
 40
1.0
 40
1.0
 40
2.0
 40
2.0
 40
2.0
 40
2.0
 10
139.5908801165933
 20
-134.3290629925892
 30
0.0
 10
139.5908801165933
 20
-134.3230921834557
 30
0.0
 10
139.5908801165933
 20
-134.3171092138157
 30
0.0
 10
139.5908801165933
 20
-134.308341487981
 30
0.0
 10
139.5908801165933
 20
-134.2095252048558
 30
0.0
 10
139.5159713910148
 20
-134.1230518367405
 30
0.0
 10
139.4175442441267
 20
-134.1110980579676
 30
0.0
  0
SPLINE
  5
2A1
330
D2
100
AcDbEntity
  8
Слой 1
 62
   250
420
  3947579
370
    25
100
AcDbSpline
210
0.0
220
0.0
230
1.0
 70
     8
 71
     3
 72
    14
 73
    10
 74
     0
 42
0.0000000001
 43
0.0000000001
 40
0.0
 40
0.0
 40
0.0
 40
0.0
 40
1.0
 40
1.0
 40
1.0
 40
2.0
 40
2.0
 40
2.0
 40
3.0
 40
3.0
 40
3.0
 40
3.0
 10
54.24620165618469
 20
-120.8864976193908
 30
0.0
 10
54.23743393034968
 20
-120.8837007026891
 30
0.0
 10
54.22826490777085
 20
-120.8837007026891
 30
0.0
 10
54.21950326218922
 20
-120.8837007026891
 30
0.0
 10
54.10593628358933
 20
-120.8837007026891
 30
0.0
 10
54.01946899572777
 20
-120.9733601237432
 30
0.0
 10
54.01946899572777
 20
-121.0837410494046
 30
0.0
 10
54.01946899572777
 20
-121.0929100719837
 30
0.0
 10
54.01946899572777
 20
-121.1016656373113
 30
0.0
 10
54.02225375192216
 20
-121.1108346598898
 30
0.0
  0
SPLINE
  5
2A2
330
D2
100
AcDbEntity
  8
Слой 1
 62
   250
420
  3947579
370
    25
100
AcDbSpline
210
0.0
220
0.0
230
1.0
 70
     8
 71
     3
 72
    11
 73
     7
 74
     0
 42
0.0000000001
 43
0.0000000001
 40
0.0
 40
0.0
 40
0.0
 40
0.0
 40
1.0
 40
1.0
 40
1.0
 40
2.0
 40
2.0
 40
2.0
 40
2.0
 10
125.2816353810599
 20
-121.1048638507569
 30
0.0
 10
125.2816353810599
 20
-121.0988808811166
 30
0.0
 10
125.2816353810599
 20
-121.0929100719837
 30
0.0
 10
125.2816353810599
 20
-121.0837410494046
 30
0.0
 10
125.2816353810599
 20
-120.9853139025161
 30
0.0
 10
125.206714494974
 20
-120.8984513981641
 30
0.0
 10
125.1082995085926
 20
-120.8864976193908
 30
0.0
  0
SPLINE
  5
2A3
330
D2
100
AcDbEntity
  8
Слой 1
 62
   250
420
  3947579
370
    25
100
AcDbSpline
210
0.0
220
0.0
230
1.0
 70
     8
 71
     3
 72
    14
 73
    10
 74
     0
 42
0.0000000001
 43
0.0000000001
 40
0.0
 40
0.0
 40
0.0
 40
0.0
 40
1.0
 40
1.0
 40
1.0
 40
2.0
 40
2.0
 40
2.0
 40
3.0
 40
3.0
 40
3.0
 40
3.0
 10
39.93096787075664
 20
-134.1110980579676
 30
0.0
 10
39.92220014492197
 20
-134.1079120050288
 30
0.0
 10
39.91303416246966
 20
-134.1079120050288
 30
0.0
 10
39.90426947676183
 20
-134.1079120050288
 30
0.0
 10
39.79070249816161
 20
-134.1079120050288
 30
0.0
 10
39.70423521030006
 20
-134.1975714260823
 30
0.0
 10
39.70423521030006
 20
-134.308341487981
 30
0.0
 10
39.70423521030006
 20
-134.3171092138157
 30
0.0
 10
39.70423521030006
 20
-134.3262782363948
 30
0.0
 10
39.70702300662129
 20
-134.3350459622292
 30
0.0
  0
LINE
  5
2A4
330
D2
100
AcDbEntity
  8
Слой 1
 62
   250
420
  3947579
370
    25
100
AcDbLine
 10
175.7986989799059
 20
-164.1131127768475
 30
0.0
 11
175.7986989799059
 21
-164.1131127768475
 31
0.0
  0
LINE
  5
2A5
330
D2
100
AcDbEntity
  8
Слой 1
 62
   250
420
  3947579
370
    25
100
AcDbLine
 10
175.7986989799059
 20
-164.1131127768475
 30
0.0
 11
175.7986989799059
 21
-164.1402185478399
 31
0.0
  0
LINE
  5
2A6
330
D2
100
AcDbEntity
  8
Слой 1
 62
   250
420
  3947579
370
    25
100
AcDbLine
 10
175.7986989799059
 20
-164.1402185478399
 30
0.0
 11
175.7986989799059
 21
-164.1700969145192
 31
0.0
  0
LINE
  5
2A7
330
D2
100
AcDbEntity
  8
Слой 1
 62
   250
420
  3947579
370
    25
100
AcDbLine
 10
175.7986989799059
 20
-164.1700969145192
 30
0.0
 11
175.7986989799059
 21
-164.1700969145192
 31
0.0
  0
LINE
  5
2A8
330
D2
100
AcDbEntity
  8
Слой 1
 62
   250
420
  3947579
370
    25
100
AcDbLine
 10
175.7986989799059
 20
-164.1700969145192
 30
0.0
 11
175.8285895070927
 21
-164.1999874417066
 31
0.0
  0
LINE
  5
2A9
330
D2
100
AcDbEntity
  8
Слой 1
 62
   250
420
  3947579
370
    25
100
AcDbLine
 10
175.8285895070927
 20
-164.1999874417066
 30
0.0
 11
175.8285895070927
 21
-164.1999874417066
 31
0.0
  0
LINE
  5
2AA
330
D2
100
AcDbEntity
  8
Слой 1
 62
   250
420
  3947579
370
    25
100
AcDbLine
 10
178.2074887670463
 20
-164.1999874417066
 30
0.0
 11
178.2074887670463
 21
-164.1999874417066
 31
0.0
  0
LINE
  5
2AB
330
D2
100
AcDbEntity
  8
Слой 1
 62
   250
420
  3947579
370
    25
100
AcDbLine
 10
178.2074887670463
 20
-164.1999874417066
 30
0.0
 11
178.2074887670463
 21
-164.1700969145192
 31
0.0
  0
LINE
  5
2AC
330
D2
100
AcDbEntity
  8
Слой 1
 62
   250
420
  3947579
370
    25
100
AcDbLine
 10
178.2074887670463
 20
-164.1700969145192
 30
0.0
 11
178.2074887670463
 21
-164.1700969145192
 31
0.0
  0
LINE
  5
2AD
330
D2
100
AcDbEntity
  8
Слой 1
 62
   250
420
  3947579
370
    25
100
AcDbLine
 10
178.2074887670463
 20
-164.1700969145192
 30
0.0
 11
178.2074887670463
 21
-164.1402185478399
 31
0.0
  0
LINE
  5
2AE
330
D2
100
AcDbEntity
  8
Слой 1
 62
   250
420
  3947579
370
    25
100
AcDbLine
 10
178.2074887670463
 20
-164.1402185478399
 30
0.0
 11
178.2074887670463
 21
-164.1131127768475
 31
0.0
  0
LINE
  5
2AF
330
D2
100
AcDbEntity
  8
Слой 1
 62
   250
420
  3947579
370
    25
100
AcDbLine
 10
178.2074887670463
 20
-164.1131127768475
 30
0.0
 11
178.2074887670463
 21
-164.1131127768475
 31
0.0
  0
LINE
  5
2B0
330
D2
100
AcDbEntity
  8
Слой 1
 62
   250
420
  3947579
370
    25
100
AcDbLine
 10
73.95599461045989
 20
-198.9091947289522
 30
0.0
 11
73.72567460031996
 21
-198.9091947289522
 31
0.0
  0
LINE
  5
2B1
330
D2
100
AcDbEntity
  8
Слой 1
 62
   250
420
  3947579
370
    25
100
AcDbLine
 10
73.72567460031996
 20
-218.9592873222845
 30
0.0
 11
73.95599461045989
 21
-218.9592873222845
 31
0.0
  0
LINE
  5
2B2
330
D2
100
AcDbEntity
  8
Слой 1
 62
   250
420
  3947579
370
    25
100
AcDbLine
 10
73.95599461045989
 20
-218.9592873222845
 30
0.0
 11
74.2994803024549
 21
-218.9592873222845
 31
0.0
  0
LINE
  5
2B3
330
D2
100
AcDbEntity
  8
Слой 1
 62
   250
420
  3947579
370
    25
100
AcDbLine
 10
74.2994803024549
 20
-198.9091947289522
 30
0.0
 11
73.95599461045989
 21
-198.9091947289522
 31
0.0
  0
SPLINE
  5
2B4
330
D2
100
AcDbEntity
  8
Слой 1
 62
   250
420
  3947579
370
    25
100
AcDbSpline
210
0.0
220
0.0
230
1.0
 70
     8
 71
     3
 72
    23
 73
    19
 74
     0
 42
0.0000000001
 43
0.0000000001
 40
0.0
 40
0.0
 40
0.0
 40
0.0
 40
1.0
 40
1.0
 40
1.0
 40
2.0
 40
2.0
 40
2.0
 40
3.0
 40
3.0
 40
3.0
 40
4.0
 40
4.0
 40
4.0
 40
5.0
 40
5.0
 40
5.0
 40
6.0
 40
6.0
 40
6.0
 40
6.0
 10
81.24211462498664
 20
-208.1466505632805
 30
0.0
 10
81.24211462498664
 20
-208.1466505632805
 30
0.0
 10
81.2453067581792
 20
-208.1466505632805
 30
0.0
 10
81.2453067581792
 20
-208.1466505632805
 30
0.0
 10
81.2453067581792
 20
-209.7007086866053
 30
0.0
 10
79.98691921175648
 20
-210.9590901527741
 30
0.0
 10
78.43286716868565
 20
-210.9590901527741
 30
0.0
 10
76.87880904536078
 20
-210.9559040998355
 30
0.0
 10
75.62042757919209
 20
-209.6979178501573
 30
0.0
 10
75.62042757919209
 20
-208.1438658070861
 30
0.0
 10
75.62042757919209
 20
-206.5925985202094
 30
0.0
 10
76.87880904536078
 20
-205.3346122705311
 30
0.0
 10
78.43286716868565
 20
-205.3346122705311
 30
0.0
 10
79.98373315881794
 20
-205.3346122705311
 30
0.0
 10
81.24211462498664
 20
-206.5925985202094
 30
0.0
 10
81.24211462498664
 20
-208.1466505632805
 30
0.0
 10
81.2453067581792
 20
-208.1466505632805
 30
0.0
 10
81.2453067581792
 20
-208.1466505632805
 30
0.0
 10
81.2453067581792
 20
-208.1466505632805
 30
0.0
  0
LINE
  5
2B5
330
D2
100
AcDbEntity
  8
Слой 1
 62
   250
420
  3947579
370
    25
100
AcDbLine
 10
133.9126041496172
 20
-206.0518693981997
 30
0.0
 11
134.0831552658901
 21
-205.8785274454793
 31
0.0
  0
LINE
  5
2B6
330
D2
100
AcDbEntity
  8
Слой 1
 62
   250
420
  3947579
370
    25
100
AcDbLine
 10
134.0831552658901
 20
-205.8785274454793
 30
0.0
 11
134.2262114749332
 21
-205.6780979625265
 31
0.0
  0
LINE
  5
2B7
330
D2
100
AcDbEntity
  8
Слой 1
 62
   250
420
  3947579
370
    25
100
AcDbLine
 10
134.2262114749332
 20
-205.6780979625265
 30
0.0
 11
134.3429645064723
 21
-205.4780636960653
 31
0.0
  0
LINE
  5
2B8
330
D2
100
AcDbEntity
  8
Слой 1
 62
   250
420
  3947579
370
    25
100
AcDbLine
 10
134.3429645064723
 20
-205.4780636960653
 30
0.0
 11
134.4565314850728
 21
-205.2776281328588
 31
0.0
  0
LINE
  5
2B9
330
D2
100
AcDbEntity
  8
Слой 1
 62
   250
420
  3947579
370
    25
100
AcDbLine
 10
134.4565314850728
 20
-205.2776281328588
 30
0.0
 11
134.5728832198677
 21
-205.0477094194639
 31
0.0
  0
LINE
  5
2BA
330
D2
100
AcDbEntity
  8
Слой 1
 62
   250
420
  3947579
370
    25
100
AcDbLine
 10
134.5728832198677
 20
-205.0477094194639
 30
0.0
 11
134.6298673575401
 21
-204.8472738562574
 31
0.0
  0
LINE
  5
2BB
330
D2
100
AcDbEntity
  8
Слой 1
 62
   250
420
  3947579
370
    25
100
AcDbLine
 10
134.6298673575401
 20
-204.8472738562574
 30
0.0
 11
134.6864501984683
 21
-204.5874706959289
 31
0.0
  0
LINE
  5
2BC
330
D2
100
AcDbEntity
  8
Слой 1
 62
   250
420
  3947579
370
    25
100
AcDbLine
 10
134.6864501984683
 20
-204.5874706959289
 30
0.0
 11
134.7167298618918
 21
-204.3603367387285
 31
0.0
  0
LINE
  5
2BD
330
D2
100
AcDbEntity
  8
Слой 1
 62
   250
420
  3947579
370
    25
100
AcDbLine
 10
134.7167298618918
 20
-204.3603367387285
 30
0.0
 11
134.7434343361399
 21
-204.1300228088426
 31
0.0
  0
LINE
  5
2BE
330
D2
100
AcDbEntity
  8
Слой 1
 62
   250
420
  3947579
370
    25
100
AcDbLine
 10
134.7434343361399
 20
-204.1300228088426
 30
0.0
 11
134.7434343361399
 21
-203.9000980151934
 31
0.0
  0
LINE
  5
2BF
330
D2
100
AcDbEntity
  8
Слой 1
 62
   250
420
  3947579
370
    25
100
AcDbLine
 10
134.7434343361399
 20
-203.9000980151934
 30
0.0
 11
134.7167298618918
 21
-203.643085691313
 31
0.0
  0
LINE
  5
2C0
330
D2
100
AcDbEntity
  8
Слой 1
 62
   250
420
  3947579
370
    25
100
AcDbLine
 10
134.7167298618918
 20
-203.643085691313
 30
0.0
 11
134.6565596712809
 21
-203.412765681174
 31
0.0
  0
LINE
  5
2C1
330
D2
100
AcDbEntity
  8
Слой 1
 62
   250
420
  3947579
370
    25
100
AcDbLine
 10
134.6565596712809
 20
-203.412765681174
 30
0.0
 11
134.5728832198677
 21
-203.1828408875249
 31
0.0
  0
LINE
  5
2C2
330
D2
100
AcDbEntity
  8
Слой 1
 62
   250
420
  3947579
370
    25
100
AcDbLine
 10
134.5728832198677
 20
-203.1828408875249
 30
0.0
 11
134.4864098517521
 21
-202.9824114045726
 31
0.0
  0
LINE
  5
2C3
330
D2
100
AcDbEntity
  8
Слой 1
 62
   250
420
  3947579
370
    25
100
AcDbLine
 10
134.4864098517521
 20
-202.9824114045726
 30
0.0
 11
134.3995473474004
 21
-202.7524926911772
 31
0.0
  0
LINE
  5
2C4
330
D2
100
AcDbEntity
  8
Слой 1
 62
   250
420
  3947579
370
    25
100
AcDbLine
 10
134.3995473474004
 20
-202.7524926911772
 30
0.0
 11
134.2564911383574
 21
-202.5520571279713
 31
0.0
  0
LINE
  5
2C5
330
D2
100
AcDbEntity
  8
Слой 1
 62
   250
420
  3947579
370
    25
100
AcDbLine
 10
134.2564911383574
 20
-202.5520571279713
 30
0.0
 11
134.1126444963327
 21
-202.3787212555046
 31
0.0
  0
LINE
  5
2C6
330
D2
100
AcDbEntity
  8
Слой 1
 62
   250
420
  3947579
370
    25
100
AcDbLine
 10
134.1126444963327
 20
-202.3787212555046
 30
0.0
 11
133.9695882872895
 21
-202.1786869890422
 31
0.0
  0
LINE
  5
2C7
330
D2
100
AcDbEntity
  8
Слой 1
 62
   250
420
  3947579
370
    25
100
AcDbLine
 10
133.9695882872895
 20
-202.1786869890422
 30
0.0
 11
133.7691588043373
 21
-202.0352355635087
 31
0.0
  0
LINE
  5
2C8
330
D2
100
AcDbEntity
  8
Слой 1
 62
   250
420
  3947579
370
    25
100
AcDbLine
 10
133.7691588043373
 20
-202.0352355635087
 30
0.0
 11
133.59582293187
 21
-201.8917841379751
 31
0.0
  0
LINE
  5
2C9
330
D2
100
AcDbEntity
  8
Слой 1
 62
   250
420
  3947579
370
    25
100
AcDbLine
 10
133.59582293187
 20
-201.8917841379751
 30
0.0
 11
133.3957825851546
 21
-201.7483327124409
 31
0.0
  0
LINE
  5
2CA
330
D2
100
AcDbEntity
  8
Слой 1
 62
   250
420
  3947579
370
    25
100
AcDbLine
 10
133.3957825851546
 20
-201.7483327124409
 30
0.0
 11
133.1953531022024
 21
-201.634765733841
 31
0.0
  0
LINE
  5
2CB
330
D2
100
AcDbEntity
  8
Слой 1
 62
   250
420
  3947579
370
    25
100
AcDbLine
 10
133.1953531022024
 20
-201.634765733841
 30
0.0
 11
132.9650330920627
 21
-201.5478971492349
 31
0.0
  0
LINE
  5
2CC
330
D2
100
AcDbEntity
  8
Слой 1
 62
   250
420
  3947579
370
    25
100
AcDbLine
 10
132.9650330920627
 20
-201.5478971492349
 30
0.0
 11
132.7351143786679
 21
-201.4913143083067
 31
0.0
  0
LINE
  5
2CD
330
D2
100
AcDbEntity
  8
Слой 1
 62
   250
420
  3947579
370
    25
100
AcDbLine
 10
132.7351143786679
 20
-201.4913143083067
 30
0.0
 11
132.5047943685283
 21
-201.43154541444
 31
0.0
  0
LINE
  5
2CE
330
D2
100
AcDbEntity
  8
Слой 1
 62
   250
420
  3947579
370
    25
100
AcDbLine
 10
132.5047943685283
 20
-201.43154541444
 30
0.0
 11
132.2780617080714
 21
-201.4044457237007
 31
0.0
  0
LINE
  5
2CF
330
D2
100
AcDbEntity
  8
Слой 1
 62
   250
420
  3947579
370
    25
100
AcDbLine
 10
132.2780617080714
 20
-201.4044457237007
 30
0.0
 11
132.0178633312524
 21
-201.3745612767677
 31
0.0
  0
LINE
  5
2D0
330
D2
100
AcDbEntity
  8
Слой 1
 62
   250
420
  3947579
370
    25
100
AcDbLine
 10
132.0178633312524
 20
-201.3745612767677
 30
0.0
 11
131.7907293740514
 21
-201.4044457237007
 31
0.0
  0
LINE
  5
2D1
330
D2
100
AcDbEntity
  8
Слой 1
 62
   250
420
  3947579
370
    25
100
AcDbLine
 10
131.7907293740514
 20
-201.4044457237007
 30
0.0
 11
131.5604093639124
 21
-201.43154541444
 31
0.0
  0
LINE
  5
2D2
330
D2
100
AcDbEntity
  8
Слой 1
 62
   250
420
  3947579
370
    25
100
AcDbLine
 10
131.5604093639124
 20
-201.43154541444
 30
0.0
 11
131.330490650517
 21
-201.4913143083067
 31
0.0
  0
LINE
  5
2D3
330
D2
100
AcDbEntity
  8
Слой 1
 62
   250
420
  3947579
370
    25
100
AcDbLine
 10
131.330490650517
 20
-201.4913143083067
 30
0.0
 11
131.100170640378
 21
-201.5478971492349
 31
0.0
  0
LINE
  5
2D4
330
D2
100
AcDbEntity
  8
Слой 1
 62
   250
420
  3947579
370
    25
100
AcDbLine
 10
131.100170640378
 20
-201.5478971492349
 30
0.0
 11
130.8702519269819
 21
-201.634765733841
 31
0.0
  0
LINE
  5
2D5
330
D2
100
AcDbEntity
  8
Слой 1
 62
   250
420
  3947579
370
    25
100
AcDbLine
 10
130.8702519269819
 20
-201.634765733841
 30
0.0
 11
130.6702115802671
 21
-201.7483327124409
 31
0.0
  0
LINE
  5
2D6
330
D2
100
AcDbEntity
  8
Слой 1
 62
   250
420
  3947579
370
    25
100
AcDbLine
 10
130.6702115802671
 20
-201.7483327124409
 30
0.0
 11
130.4697820973142
 21
-201.8917841379751
 31
0.0
  0
LINE
  5
2D7
330
D2
100
AcDbEntity
  8
Слой 1
 62
   250
420
  3947579
370
    25
100
AcDbLine
 10
130.4697820973142
 20
-201.8917841379751
 30
0.0
 11
130.269352614362
 21
-202.0352355635087
 31
0.0
  0
LINE
  5
2D8
330
D2
100
AcDbEntity
  8
Слой 1
 62
   250
420
  3947579
370
    25
100
AcDbLine
 10
130.269352614362
 20
-202.0352355635087
 30
0.0
 11
130.0964058781321
 21
-202.1786869890422
 31
0.0
  0
LINE
  5
2D9
330
D2
100
AcDbEntity
  8
Слой 1
 62
   250
420
  3947579
370
    25
100
AcDbLine
 10
130.0964058781321
 20
-202.1786869890422
 30
0.0
 11
129.9525592361074
 21
-202.3787212555046
 31
0.0
  0
LINE
  5
2DA
330
D2
100
AcDbEntity
  8
Слой 1
 62
   250
420
  3947579
370
    25
100
AcDbLine
 10
129.9525592361074
 20
-202.3787212555046
 30
0.0
 11
129.8095030270643
 21
-202.5520571279713
 31
0.0
  0
LINE
  5
2DB
330
D2
100
AcDbEntity
  8
Слой 1
 62
   250
420
  3947579
370
    25
100
AcDbLine
 10
129.8095030270643
 20
-202.5520571279713
 30
0.0
 11
129.6656563850396
 21
-202.7524926911772
 31
0.0
  0
LINE
  5
2DC
330
D2
100
AcDbEntity
  8
Слой 1
 62
   250
420
  3947579
370
    25
100
AcDbLine
 10
129.6656563850396
 20
-202.7524926911772
 30
0.0
 11
129.5520894064397
 21
-202.9824114045726
 31
0.0
  0
LINE
  5
2DD
330
D2
100
AcDbEntity
  8
Слой 1
 62
   250
420
  3947579
370
    25
100
AcDbLine
 10
129.5520894064397
 20
-202.9824114045726
 30
0.0
 11
129.4656281988322
 21
-203.1828408875249
 31
0.0
  0
LINE
  5
2DE
330
D2
100
AcDbEntity
  8
Слой 1
 62
   250
420
  3947579
370
    25
100
AcDbLine
 10
129.4656281988322
 20
-203.1828408875249
 30
0.0
 11
129.4086440611598
 21
-203.412765681174
 31
0.0
  0
LINE
  5
2DF
330
D2
100
AcDbEntity
  8
Слой 1
 62
   250
420
  3947579
370
    25
100
AcDbLine
 10
129.4086440611598
 20
-203.412765681174
 30
0.0
 11
129.352061220231
 21
-203.643085691313
 31
0.0
  0
LINE
  5
2E0
330
D2
100
AcDbEntity
  8
Слой 1
 62
   250
420
  3947579
370
    25
100
AcDbLine
 10
129.352061220231
 20
-203.643085691313
 30
0.0
 11
129.3221706930443
 21
-203.9000980151934
 31
0.0
  0
LINE
  5
2E1
330
D2
100
AcDbEntity
  8
Слой 1
 62
   250
420
  3947579
370
    25
100
AcDbLine
 10
129.3221706930443
 20
-203.9000980151934
 30
0.0
 11
129.3221706930443
 21
-204.1300228088426
 31
0.0
  0
LINE
  5
2E2
330
D2
100
AcDbEntity
  8
Слой 1
 62
   250
420
  3947579
370
    25
100
AcDbLine
 10
129.3221706930443
 20
-204.1300228088426
 30
0.0
 11
129.3221706930443
 21
-204.3603367387285
 31
0.0
  0
LINE
  5
2E3
330
D2
100
AcDbEntity
  8
Слой 1
 62
   250
420
  3947579
370
    25
100
AcDbLine
 10
129.3221706930443
 20
-204.3603367387285
 30
0.0
 11
129.352061220231
 21
-204.5874706959289
 31
0.0
  0
LINE
  5
2E4
330
D2
100
AcDbEntity
  8
Слой 1
 62
   250
420
  3947579
370
    25
100
AcDbLine
 10
129.352061220231
 20
-204.5874706959289
 30
0.0
 11
129.4086440611598
 21
-204.8173894093237
 31
0.0
  0
LINE
  5
2E5
330
D2
100
AcDbEntity
  8
Слой 1
 62
   250
420
  3947579
370
    25
100
AcDbLine
 10
129.4086440611598
 20
-204.8173894093237
 30
0.0
 11
129.4955065655115
 21
-205.0477094194639
 31
0.0
  0
LINE
  5
2E6
330
D2
100
AcDbEntity
  8
Слой 1
 62
   250
420
  3947579
370
    25
100
AcDbLine
 10
129.4955065655115
 20
-205.0477094194639
 30
0.0
 11
129.5791830169247
 21
-205.2776281328588
 31
0.0
  0
LINE
  5
2E7
330
D2
100
AcDbEntity
  8
Слой 1
 62
   250
420
  3947579
370
    25
100
AcDbLine
 10
129.5791830169247
 20
-205.2776281328588
 30
0.0
 11
129.695546912227
 21
-205.4780636960653
 31
0.0
  0
LINE
  5
2E8
330
D2
100
AcDbEntity
  8
Слой 1
 62
   250
420
  3947579
370
    25
100
AcDbLine
 10
129.695546912227
 20
-205.4780636960653
 30
0.0
 11
129.8389922575069
 21
-205.6780979625265
 31
0.0
  0
LINE
  5
2E9
330
D2
100
AcDbEntity
  8
Слой 1
 62
   250
420
  3947579
370
    25
100
AcDbLine
 10
129.8389922575069
 20
-205.6780979625265
 30
0.0
 11
129.9824497632948
 21
-205.8785274454793
 31
0.0
  0
LINE
  5
2EA
330
D2
100
AcDbEntity
  8
Слой 1
 62
   250
420
  3947579
370
    25
100
AcDbLine
 10
129.9824497632948
 20
-205.8785274454793
 30
0.0
 11
130.1529887190597
 21
-206.0518693981997
 31
0.0
  0
LINE
  5
2EB
330
D2
100
AcDbEntity
  8
Слой 1
 62
   250
420
  3947579
370
    25
100
AcDbLine
 10
45.52874735900476
 20
-208.6905718184818
 30
0.0
 11
45.35541148653717
 21
-208.861116854501
 31
0.0
  0
LINE
  5
2EC
330
D2
100
AcDbEntity
  8
Слой 1
 62
   250
420
  3947579
370
    25
100
AcDbLine
 10
45.35541148653717
 20
-208.861116854501
 30
0.0
 11
45.21196006100359
 21
-209.0643432541556
 31
0.0
  0
LINE
  5
2ED
330
D2
100
AcDbEntity
  8
Слой 1
 62
   250
420
  3947579
370
    25
100
AcDbLine
 10
45.21196006100359
 20
-209.0643432541556
 30
0.0
 11
45.06850863547001
 21
-209.2643775206174
 31
0.0
  0
LINE
  5
2EE
330
D2
100
AcDbEntity
  8
Слой 1
 62
   250
420
  3947579
370
    25
100
AcDbLine
 10
45.06850863547001
 20
-209.2643775206174
 30
0.0
 11
44.95494773712285
 21
-209.4648070035696
 31
0.0
  0
LINE
  5
2EF
330
D2
100
AcDbEntity
  8
Слой 1
 62
   250
420
  3947579
370
    25
100
AcDbLine
 10
44.95494773712285
 20
-209.4648070035696
 30
0.0
 11
44.86807915251746
 21
-209.6947317972181
 31
0.0
  0
LINE
  5
2F0
330
D2
100
AcDbEntity
  8
Слой 1
 62
   250
420
  3947579
370
    25
100
AcDbLine
 10
44.86807915251746
 20
-209.6947317972181
 30
0.0
 11
44.78160578440221
 21
-209.9250518073577
 31
0.0
  0
LINE
  5
2F1
330
D2
100
AcDbEntity
  8
Слой 1
 62
   250
420
  3947579
370
    25
100
AcDbLine
 10
44.78160578440221
 20
-209.9250518073577
 30
0.0
 11
44.75172133746918
 21
-210.1521796843051
 31
0.0
  0
LINE
  5
2F2
330
D2
100
AcDbEntity
  8
Слой 1
 62
   250
420
  3947579
370
    25
100
AcDbLine
 10
44.75172133746918
 20
-210.1521796843051
 30
0.0
 11
44.69474328005051
 21
-210.3820983976999
 31
0.0
  0
LINE
  5
2F3
330
D2
100
AcDbEntity
  8
Слой 1
 62
   250
420
  3947579
370
    25
100
AcDbLine
 10
44.69474328005051
 20
-210.3820983976999
 30
0.0
 11
44.69474328005051
 21
-210.6124184078395
 31
0.0
  0
LINE
  5
2F4
330
D2
100
AcDbEntity
  8
Слой 1
 62
   250
420
  3947579
370
    25
100
AcDbLine
 10
44.69474328005051
 20
-210.6124184078395
 30
0.0
 11
44.69474328005051
 21
-210.842337121235
 31
0.0
  0
LINE
  5
2F5
330
D2
100
AcDbEntity
  8
Слой 1
 62
   250
420
  3947579
370
    25
100
AcDbLine
 10
44.69474328005051
 20
-210.842337121235
 30
0.0
 11
44.72462772698356
 21
-211.0993555253684
 31
0.0
  0
LINE
  5
2F6
330
D2
100
AcDbEntity
  8
Слой 1
 62
   250
420
  3947579
370
    25
100
AcDbLine
 10
44.72462772698356
 20
-211.0993555253684
 30
0.0
 11
44.78160578440221
 21
-211.3296755355087
 31
0.0
  0
LINE
  5
2F7
330
D2
100
AcDbEntity
  8
Слой 1
 62
   250
420
  3947579
370
    25
100
AcDbLine
 10
44.78160578440221
 20
-211.3296755355087
 30
0.0
 11
44.83819470558409
 21
-211.5595942489035
 31
0.0
  0
LINE
  5
2F8
330
D2
100
AcDbEntity
  8
Слой 1
 62
   250
420
  3947579
370
    25
100
AcDbLine
 10
44.83819470558409
 20
-211.5595942489035
 30
0.0
 11
44.92505720993611
 21
-211.7600298121101
 31
0.0
  0
LINE
  5
2F9
330
D2
100
AcDbEntity
  8
Слой 1
 62
   250
420
  3947579
370
    25
100
AcDbLine
 10
44.92505720993611
 20
-211.7600298121101
 30
0.0
 11
45.03862418853665
 21
-211.9899485255049
 31
0.0
  0
LINE
  5
2FA
330
D2
100
AcDbEntity
  8
Слой 1
 62
   250
420
  3947579
370
    25
100
AcDbLine
 10
45.03862418853665
 20
-211.9899485255049
 30
0.0
 11
45.18207561407023
 21
-212.1903840887108
 31
0.0
  0
LINE
  5
2FB
330
D2
100
AcDbEntity
  8
Слой 1
 62
   250
420
  3947579
370
    25
100
AcDbLine
 10
45.18207561407023
 20
-212.1903840887108
 30
0.0
 11
45.32552703960413
 21
-212.3605339082395
 31
0.0
  0
LINE
  5
2FC
330
D2
100
AcDbEntity
  8
Слой 1
 62
   250
420
  3947579
370
    25
100
AcDbLine
 10
45.32552703960413
 20
-212.3605339082395
 30
0.0
 11
45.46897846513771
 21
-212.5637542276399
 31
0.0
  0
LINE
  5
2FD
330
D2
100
AcDbEntity
  8
Слой 1
 62
   250
420
  3947579
370
    25
100
AcDbLine
 10
45.46897846513771
 20
-212.5637542276399
 30
0.0
 11
45.64231433760497
 21
-212.7072056531734
 31
0.0
  0
LINE
  5
2FE
330
D2
100
AcDbEntity
  8
Слой 1
 62
   250
420
  3947579
370
    25
100
AcDbLine
 10
45.64231433760497
 20
-212.7072056531734
 30
0.0
 11
45.84234860406674
 21
-212.8506570787076
 31
0.0
  0
LINE
  5
2FF
330
D2
100
AcDbEntity
  8
Слой 1
 62
   250
420
  3947579
370
    25
100
AcDbLine
 10
45.84234860406674
 20
-212.8506570787076
 30
0.0
 11
46.04278416727299
 21
-212.9941085042406
 31
0.0
  0
LINE
  5
300
330
D2
100
AcDbEntity
  8
Слой 1
 62
   250
420
  3947579
370
    25
100
AcDbLine
 10
46.04278416727299
 20
-212.9941085042406
 30
0.0
 11
46.24600448667329
 21
-213.1076754828411
 31
0.0
  0
LINE
  5
301
330
D2
100
AcDbEntity
  8
Слой 1
 62
   250
420
  3947579
370
    25
100
AcDbLine
 10
46.24600448667329
 20
-213.1076754828411
 30
0.0
 11
46.47313844387404
 21
-213.1945379871935
 31
0.0
  0
LINE
  5
302
330
D2
100
AcDbEntity
  8
Слой 1
 62
   250
420
  3947579
370
    25
100
AcDbLine
 10
46.47313844387404
 20
-213.1945379871935
 30
0.0
 11
46.70345845401365
 21
-213.2511269083753
 31
0.0
  0
LINE
  5
303
330
D2
100
AcDbEntity
  8
Слой 1
 62
   250
420
  3947579
370
    25
100
AcDbLine
 10
46.70345845401365
 20
-213.2511269083753
 30
0.0
 11
46.93337716740846
 21
-213.308104965794
 31
0.0
  0
LINE
  5
304
330
D2
100
AcDbEntity
  8
Слой 1
 62
   250
420
  3947579
370
    25
100
AcDbLine
 10
46.93337716740846
 20
-213.308104965794
 30
0.0
 11
47.16369717754807
 21
-213.3379894127277
 31
0.0
  0
LINE
  5
305
330
D2
100
AcDbEntity
  8
Слой 1
 62
   250
420
  3947579
370
    25
100
AcDbLine
 10
47.16369717754807
 20
-213.3379894127277
 30
0.0
 11
47.39361589094321
 21
-213.3646878067222
 31
0.0
  0
LINE
  5
306
330
D2
100
AcDbEntity
  8
Слой 1
 62
   250
420
  3947579
370
    25
100
AcDbLine
 10
47.39361589094321
 20
-213.3646878067222
 30
0.0
 11
47.65063429507764
 21
-213.3379894127277
 31
0.0
  0
LINE
  5
307
330
D2
100
AcDbEntity
  8
Слой 1
 62
   250
420
  3947579
370
    25
100
AcDbLine
 10
47.65063429507764
 20
-213.3379894127277
 30
0.0
 11
47.88094822496325
 21
-213.308104965794
 31
0.0
  0
LINE
  5
308
330
D2
100
AcDbEntity
  8
Слой 1
 62
   250
420
  3947579
370
    25
100
AcDbLine
 10
47.88094822496325
 20
-213.308104965794
 30
0.0
 11
48.10768088541983
 21
-213.2511269083753
 31
0.0
  0
LINE
  5
309
330
D2
100
AcDbEntity
  8
Слой 1
 62
   250
420
  3947579
370
    25
100
AcDbLine
 10
48.10768088541983
 20
-213.2511269083753
 30
0.0
 11
48.33800089555913
 21
-213.1945379871935
 31
0.0
  0
LINE
  5
30A
330
D2
100
AcDbEntity
  8
Слой 1
 62
   250
420
  3947579
370
    25
100
AcDbLine
 10
48.33800089555913
 20
-213.1945379871935
 30
0.0
 11
48.56792568920827
 21
-213.1076754828411
 31
0.0
  0
LINE
  5
30B
330
D2
100
AcDbEntity
  8
Слой 1
 62
   250
420
  3947579
370
    25
100
AcDbLine
 10
48.56792568920827
 20
-213.1076754828411
 30
0.0
 11
48.76835517216051
 21
-212.9941085042406
 31
0.0
  0
LINE
  5
30C
330
D2
100
AcDbEntity
  8
Слой 1
 62
   250
420
  3947579
370
    25
100
AcDbLine
 10
48.76835517216051
 20
-212.9941085042406
 30
0.0
 11
48.96879073536643
 21
-212.8506570787076
 31
0.0
  0
LINE
  5
30D
330
D2
100
AcDbEntity
  8
Слой 1
 62
   250
420
  3947579
370
    25
100
AcDbLine
 10
48.96879073536643
 20
-212.8506570787076
 30
0.0
 11
49.14172531108953
 21
-212.7072056531734
 31
0.0
  0
LINE
  5
30E
330
D2
100
AcDbEntity
  8
Слой 1
 62
   250
420
  3947579
370
    25
100
AcDbLine
 10
49.14172531108953
 20
-212.7072056531734
 30
0.0
 11
49.34216087429546
 21
-212.5637542276399
 31
0.0
  0
LINE
  5
30F
330
D2
100
AcDbEntity
  8
Слой 1
 62
   250
420
  3947579
370
    25
100
AcDbLine
 10
49.34216087429546
 20
-212.5637542276399
 30
0.0
 11
49.48561229982936
 21
-212.3904183551726
 31
0.0
  0
LINE
  5
310
330
D2
100
AcDbEntity
  8
Слой 1
 62
   250
420
  3947579
370
    25
100
AcDbLine
 10
49.48561229982936
 20
-212.3904183551726
 30
0.0
 11
49.62906372536326
 21
-212.1903840887108
 31
0.0
  0
LINE
  5
311
330
D2
100
AcDbEntity
  8
Слой 1
 62
   250
420
  3947579
370
    25
100
AcDbLine
 10
49.62906372536326
 20
-212.1903840887108
 30
0.0
 11
49.77251515089683
 21
-211.9899485255049
 31
0.0
  0
LINE
  5
312
330
D2
100
AcDbEntity
  8
Слой 1
 62
   250
420
  3947579
370
    25
100
AcDbLine
 10
49.77251515089683
 20
-211.9899485255049
 30
0.0
 11
49.85938373550222
 21
-211.7899142590431
 31
0.0
  0
LINE
  5
313
330
D2
100
AcDbEntity
  8
Слой 1
 62
   250
420
  3947579
370
    25
100
AcDbLine
 10
49.85938373550222
 20
-211.7899142590431
 30
0.0
 11
49.9458510233641
 21
-211.5595942489035
 31
0.0
  0
LINE
  5
314
330
D2
100
AcDbEntity
  8
Слой 1
 62
   250
420
  3947579
370
    25
100
AcDbLine
 10
49.9458510233641
 20
-211.5595942489035
 30
0.0
 11
50.03231831122533
 21
-211.3296755355087
 31
0.0
  0
LINE
  5
315
330
D2
100
AcDbEntity
  8
Слой 1
 62
   250
420
  3947579
370
    25
100
AcDbLine
 10
50.03231831122533
 20
-211.3296755355087
 30
0.0
 11
50.08930244889768
 21
-211.0993555253684
 31
0.0
  0
LINE
  5
316
330
D2
100
AcDbEntity
  8
Слой 1
 62
   250
420
  3947579
370
    25
100
AcDbLine
 10
50.08930244889768
 20
-211.0993555253684
 30
0.0
 11
50.1160008428925
 21
-210.8694368119737
 31
0.0
  0
LINE
  5
317
330
D2
100
AcDbEntity
  8
Слой 1
 62
   250
420
  3947579
370
    25
100
AcDbLine
 10
50.1160008428925
 20
-210.8694368119737
 30
0.0
 11
50.1160008428925
 21
-210.6124184078395
 31
0.0
  0
LINE
  5
318
330
D2
100
AcDbEntity
  8
Слой 1
 62
   250
420
  3947579
370
    25
100
AcDbLine
 10
50.1160008428925
 20
-210.6124184078395
 30
0.0
 11
50.08930244889768
 21
-210.3820983976999
 31
0.0
  0
LINE
  5
319
330
D2
100
AcDbEntity
  8
Слой 1
 62
   250
420
  3947579
370
    25
100
AcDbLine
 10
50.08930244889768
 20
-210.3820983976999
 30
0.0
 11
50.05941800196431
 21
-210.1521796843051
 31
0.0
  0
LINE
  5
31A
330
D2
100
AcDbEntity
  8
Слой 1
 62
   250
420
  3947579
370
    25
100
AcDbLine
 10
50.05941800196431
 20
-210.1521796843051
 30
0.0
 11
50.00283516103645
 21
-209.9250518073577
 31
0.0
  0
LINE
  5
31B
330
D2
100
AcDbEntity
  8
Слой 1
 62
   250
420
  3947579
370
    25
100
AcDbLine
 10
50.00283516103645
 20
-209.9250518073577
 30
0.0
 11
49.9458510233641
 21
-209.6947317972181
 31
0.0
  0
LINE
  5
31C
330
D2
100
AcDbEntity
  8
Слой 1
 62
   250
420
  3947579
370
    25
100
AcDbLine
 10
49.9458510233641
 20
-209.6947317972181
 30
0.0
 11
49.85938373550222
 21
-209.4648070035696
 31
0.0
  0
LINE
  5
31D
330
D2
100
AcDbEntity
  8
Слой 1
 62
   250
420
  3947579
370
    25
100
AcDbLine
 10
49.85938373550222
 20
-209.4648070035696
 30
0.0
 11
49.74541546015817
 21
-209.2643775206174
 31
0.0
  0
LINE
  5
31E
330
D2
100
AcDbEntity
  8
Слой 1
 62
   250
420
  3947579
370
    25
100
AcDbLine
 10
49.74541546015817
 20
-209.2643775206174
 30
0.0
 11
49.60196403462427
 21
-209.0643432541556
 31
0.0
  0
LINE
  5
31F
330
D2
100
AcDbEntity
  8
Слой 1
 62
   250
420
  3947579
370
    25
100
AcDbLine
 10
49.60196403462427
 20
-209.0643432541556
 30
0.0
 11
49.45851868934406
 21
-208.861116854501
 31
0.0
  0
LINE
  5
320
330
D2
100
AcDbEntity
  8
Слой 1
 62
   250
420
  3947579
370
    25
100
AcDbLine
 10
49.45851868934406
 20
-208.861116854501
 30
0.0
 11
49.28517673662311
 21
-208.6905718184818
 31
0.0
  0
LINE
  5
321
330
D2
100
AcDbEntity
  8
Слой 1
 62
   250
420
  3947579
370
    25
100
AcDbLine
 10
49.28517673662311
 20
-206.9392702651439
 30
0.0
 11
49.45851868934406
 21
-206.7691204456145
 31
0.0
  0
LINE
  5
322
330
D2
100
AcDbEntity
  8
Слой 1
 62
   250
420
  3947579
370
    25
100
AcDbLine
 10
49.45851868934406
 20
-206.7691204456145
 30
0.0
 11
49.60196403462427
 21
-206.5957845731479
 31
0.0
  0
LINE
  5
323
330
D2
100
AcDbEntity
  8
Слой 1
 62
   250
420
  3947579
370
    25
100
AcDbLine
 10
49.60196403462427
 20
-206.5957845731479
 30
0.0
 11
49.74541546015817
 21
-206.3953550901956
 31
0.0
  0
LINE
  5
324
330
D2
100
AcDbEntity
  8
Слой 1
 62
   250
420
  3947579
370
    25
100
AcDbLine
 10
49.74541546015817
 20
-206.3953550901956
 30
0.0
 11
49.82949928856919
 21
-206.1654302965465
 31
0.0
  0
LINE
  5
325
330
D2
100
AcDbEntity
  8
Слой 1
 62
   250
420
  3947579
370
    25
100
AcDbLine
 10
49.82949928856919
 20
-206.1654302965465
 30
0.0
 11
49.9458510233641
 21
-205.9650008135943
 31
0.0
  0
LINE
  5
326
330
D2
100
AcDbEntity
  8
Слой 1
 62
   250
420
  3947579
370
    25
100
AcDbLine
 10
49.9458510233641
 20
-205.9650008135943
 30
0.0
 11
50.00283516103645
 21
-205.7350821001988
 31
0.0
  0
LINE
  5
327
330
D2
100
AcDbEntity
  8
Слой 1
 62
   250
420
  3947579
370
    25
100
AcDbLine
 10
50.00283516103645
 20
-205.7350821001988
 30
0.0
 11
50.05941800196431
 21
-205.5047620900599
 31
0.0
  0
LINE
  5
328
330
D2
100
AcDbEntity
  8
Слой 1
 62
   250
420
  3947579
370
    25
100
AcDbLine
 10
50.05941800196431
 20
-205.5047620900599
 30
0.0
 11
50.08930244889768
 21
-205.2776281328588
 31
0.0
  0
LINE
  5
329
330
D2
100
AcDbEntity
  8
Слой 1
 62
   250
420
  3947579
370
    25
100
AcDbLine
 10
50.08930244889768
 20
-205.2776281328588
 30
0.0
 11
50.1160008428925
 21
-205.0178249725303
 31
0.0
  0
LINE
  5
32A
330
D2
100
AcDbEntity
  8
Слой 1
 62
   250
420
  3947579
370
    25
100
AcDbLine
 10
50.1160008428925
 20
-205.0178249725303
 30
0.0
 11
50.1160008428925
 21
-204.7906910153292
 31
0.0
  0
LINE
  5
32B
330
D2
100
AcDbEntity
  8
Слой 1
 62
   250
420
  3947579
370
    25
100
AcDbLine
 10
50.1160008428925
 20
-204.7906910153292
 30
0.0
 11
50.08930244889768
 21
-204.5603710051902
 31
0.0
  0
LINE
  5
32C
330
D2
100
AcDbEntity
  8
Слой 1
 62
   250
420
  3947579
370
    25
100
AcDbLine
 10
50.08930244889768
 20
-204.5603710051902
 30
0.0
 11
50.03231831122533
 21
-204.3304522917948
 31
0.0
  0
LINE
  5
32D
330
D2
100
AcDbEntity
  8
Слой 1
 62
   250
420
  3947579
370
    25
100
AcDbLine
 10
50.03231831122533
 20
-204.3304522917948
 30
0.0
 11
49.9458510233641
 21
-204.1001322816552
 31
0.0
  0
LINE
  5
32E
330
D2
100
AcDbEntity
  8
Слой 1
 62
   250
420
  3947579
370
    25
100
AcDbLine
 10
49.9458510233641
 20
-204.1001322816552
 30
0.0
 11
49.85938373550222
 21
-203.8702135682604
 31
0.0
  0
LINE
  5
32F
330
D2
100
AcDbEntity
  8
Слой 1
 62
   250
420
  3947579
370
    25
100
AcDbLine
 10
49.85938373550222
 20
-203.8702135682604
 30
0.0
 11
49.77251515089683
 21
-203.6697780050538
 31
0.0
  0
LINE
  5
330
330
D2
100
AcDbEntity
  8
Слой 1
 62
   250
420
  3947579
370
    25
100
AcDbLine
 10
49.77251515089683
 20
-203.6697780050538
 30
0.0
 11
49.62906372536326
 21
-203.469743738592
 31
0.0
  0
LINE
  5
331
330
D2
100
AcDbEntity
  8
Слой 1
 62
   250
420
  3947579
370
    25
100
AcDbLine
 10
49.62906372536326
 20
-203.469743738592
 30
0.0
 11
49.48561229982936
 21
-203.2693142556398
 31
0.0
  0
LINE
  5
332
330
D2
100
AcDbEntity
  8
Слой 1
 62
   250
420
  3947579
370
    25
100
AcDbLine
 10
49.48561229982936
 20
-203.2693142556398
 30
0.0
 11
49.34216087429546
 21
-203.0959783831732
 31
0.0
  0
LINE
  5
333
330
D2
100
AcDbEntity
  8
Слой 1
 62
   250
420
  3947579
370
    25
100
AcDbLine
 10
49.34216087429546
 20
-203.0959783831732
 30
0.0
 11
49.14172531108953
 21
-202.9258285636444
 31
0.0
  0
LINE
  5
334
330
D2
100
AcDbEntity
  8
Слой 1
 62
   250
420
  3947579
370
    25
100
AcDbLine
 10
49.14172531108953
 20
-202.9258285636444
 30
0.0
 11
48.96879073536643
 21
-202.7823771381108
 31
0.0
  0
LINE
  5
335
330
D2
100
AcDbEntity
  8
Слой 1
 62
   250
420
  3947579
370
    25
100
AcDbLine
 10
48.96879073536643
 20
-202.7823771381108
 30
0.0
 11
48.76835517216051
 21
-202.6656241065718
 31
0.0
  0
LINE
  5
336
330
D2
100
AcDbEntity
  8
Слой 1
 62
   250
420
  3947579
370
    25
100
AcDbLine
 10
48.76835517216051
 20
-202.6656241065718
 30
0.0
 11
48.56792568920827
 21
-202.5520571279713
 31
0.0
  0
LINE
  5
337
330
D2
100
AcDbEntity
  8
Слой 1
 62
   250
420
  3947579
370
    25
100
AcDbLine
 10
48.56792568920827
 20
-202.5520571279713
 30
0.0
 11
48.33800089555913
 21
-202.4655898401094
 31
0.0
  0
LINE
  5
338
330
D2
100
AcDbEntity
  8
Слой 1
 62
   250
420
  3947579
370
    25
100
AcDbLine
 10
48.33800089555913
 20
-202.4655898401094
 30
0.0
 11
48.10768088541983
 21
-202.3787212555046
 31
0.0
  0
LINE
  5
339
330
D2
100
AcDbEntity
  8
Слой 1
 62
   250
420
  3947579
370
    25
100
AcDbLine
 10
48.10768088541983
 20
-202.3787212555046
 30
0.0
 11
47.88094822496325
 21
-202.3221384145758
 31
0.0
  0
LINE
  5
33A
330
D2
100
AcDbEntity
  8
Слой 1
 62
   250
420
  3947579
370
    25
100
AcDbLine
 10
47.88094822496325
 20
-202.3221384145758
 30
0.0
 11
47.65063429507764
 21
-202.2922478873891
 31
0.0
  0
LINE
  5
33B
330
D2
100
AcDbEntity
  8
Слой 1
 62
   250
420
  3947579
370
    25
100
AcDbLine
 10
47.65063429507764
 20
-202.2922478873891
 30
0.0
 11
47.39361589094321
 21
-202.2922478873891
 31
0.0
  0
LINE
  5
33C
330
D2
100
AcDbEntity
  8
Слой 1
 62
   250
420
  3947579
370
    25
100
AcDbLine
 10
47.39361589094321
 20
-202.2922478873891
 30
0.0
 11
47.16369717754807
 21
-202.2922478873891
 31
0.0
  0
LINE
  5
33D
330
D2
100
AcDbEntity
  8
Слой 1
 62
   250
420
  3947579
370
    25
100
AcDbLine
 10
47.16369717754807
 20
-202.2922478873891
 30
0.0
 11
46.93337716740846
 21
-202.3221384145758
 31
0.0
  0
LINE
  5
33E
330
D2
100
AcDbEntity
  8
Слой 1
 62
   250
420
  3947579
370
    25
100
AcDbLine
 10
46.93337716740846
 20
-202.3221384145758
 30
0.0
 11
46.70345845401365
 21
-202.3787212555046
 31
0.0
  0
LINE
  5
33F
330
D2
100
AcDbEntity
  8
Слой 1
 62
   250
420
  3947579
370
    25
100
AcDbLine
 10
46.70345845401365
 20
-202.3787212555046
 30
0.0
 11
46.47313844387404
 21
-202.4655898401094
 31
0.0
  0
LINE
  5
340
330
D2
100
AcDbEntity
  8
Слой 1
 62
   250
420
  3947579
370
    25
100
AcDbLine
 10
46.47313844387404
 20
-202.4655898401094
 30
0.0
 11
46.24600448667329
 21
-202.5520571279713
 31
0.0
  0
LINE
  5
341
330
D2
100
AcDbEntity
  8
Слой 1
 62
   250
420
  3947579
370
    25
100
AcDbLine
 10
46.24600448667329
 20
-202.5520571279713
 30
0.0
 11
46.04278416727299
 21
-202.6656241065718
 31
0.0
  0
LINE
  5
342
330
D2
100
AcDbEntity
  8
Слой 1
 62
   250
420
  3947579
370
    25
100
AcDbLine
 10
46.04278416727299
 20
-202.6656241065718
 30
0.0
 11
45.84234860406674
 21
-202.7823771381108
 31
0.0
  0
LINE
  5
343
330
D2
100
AcDbEntity
  8
Слой 1
 62
   250
420
  3947579
370
    25
100
AcDbLine
 10
45.84234860406674
 20
-202.7823771381108
 30
0.0
 11
45.64231433760497
 21
-202.9258285636444
 31
0.0
  0
LINE
  5
344
330
D2
100
AcDbEntity
  8
Слой 1
 62
   250
420
  3947579
370
    25
100
AcDbLine
 10
45.64231433760497
 20
-202.9258285636444
 30
0.0
 11
45.46897846513771
 21
-203.0959783831732
 31
0.0
  0
LINE
  5
345
330
D2
100
AcDbEntity
  8
Слой 1
 62
   250
420
  3947579
370
    25
100
AcDbLine
 10
45.46897846513771
 20
-203.0959783831732
 30
0.0
 11
45.32552703960413
 21
-203.2693142556398
 31
0.0
  0
LINE
  5
346
330
D2
100
AcDbEntity
  8
Слой 1
 62
   250
420
  3947579
370
    25
100
AcDbLine
 10
45.32552703960413
 20
-203.2693142556398
 30
0.0
 11
45.18207561407023
 21
-203.469743738592
 31
0.0
  0
LINE
  5
347
330
D2
100
AcDbEntity
  8
Слой 1
 62
   250
420
  3947579
370
    25
100
AcDbLine
 10
45.18207561407023
 20
-203.469743738592
 30
0.0
 11
45.03862418853665
 21
-203.6697780050538
 31
0.0
  0
LINE
  5
348
330
D2
100
AcDbEntity
  8
Слой 1
 62
   250
420
  3947579
370
    25
100
AcDbLine
 10
45.03862418853665
 20
-203.6697780050538
 30
0.0
 11
44.92505720993611
 21
-203.8702135682604
 31
0.0
  0
LINE
  5
349
330
D2
100
AcDbEntity
  8
Слой 1
 62
   250
420
  3947579
370
    25
100
AcDbLine
 10
44.92505720993611
 20
-203.8702135682604
 30
0.0
 11
44.83819470558409
 21
-204.1001322816552
 31
0.0
  0
LINE
  5
34A
330
D2
100
AcDbEntity
  8
Слой 1
 62
   250
420
  3947579
370
    25
100
AcDbLine
 10
44.83819470558409
 20
-204.1001322816552
 30
0.0
 11
44.78160578440221
 21
-204.3304522917948
 31
0.0
  0
LINE
  5
34B
330
D2
100
AcDbEntity
  8
Слой 1
 62
   250
420
  3947579
370
    25
100
AcDbLine
 10
44.78160578440221
 20
-204.3304522917948
 30
0.0
 11
44.72462772698356
 21
-204.5603710051902
 31
0.0
  0
LINE
  5
34C
330
D2
100
AcDbEntity
  8
Слой 1
 62
   250
420
  3947579
370
    25
100
AcDbLine
 10
44.72462772698356
 20
-204.5603710051902
 30
0.0
 11
44.69474328005051
 21
-204.7906910153292
 31
0.0
  0
LINE
  5
34D
330
D2
100
AcDbEntity
  8
Слой 1
 62
   250
420
  3947579
370
    25
100
AcDbLine
 10
44.69474328005051
 20
-204.7906910153292
 30
0.0
 11
44.69474328005051
 21
-205.0178249725303
 31
0.0
  0
LINE
  5
34E
330
D2
100
AcDbEntity
  8
Слой 1
 62
   250
420
  3947579
370
    25
100
AcDbLine
 10
44.69474328005051
 20
-205.0178249725303
 30
0.0
 11
44.69474328005051
 21
-205.2776281328588
 31
0.0
  0
LINE
  5
34F
330
D2
100
AcDbEntity
  8
Слой 1
 62
   250
420
  3947579
370
    25
100
AcDbLine
 10
44.69474328005051
 20
-205.2776281328588
 30
0.0
 11
44.75172133746918
 21
-205.5047620900599
 31
0.0
  0
LINE
  5
350
330
D2
100
AcDbEntity
  8
Слой 1
 62
   250
420
  3947579
370
    25
100
AcDbLine
 10
44.75172133746918
 20
-205.5047620900599
 30
0.0
 11
44.78160578440221
 21
-205.7350821001988
 31
0.0
  0
LINE
  5
351
330
D2
100
AcDbEntity
  8
Слой 1
 62
   250
420
  3947579
370
    25
100
AcDbLine
 10
44.78160578440221
 20
-205.7350821001988
 30
0.0
 11
44.86807915251746
 21
-205.9650008135943
 31
0.0
  0
LINE
  5
352
330
D2
100
AcDbEntity
  8
Слой 1
 62
   250
420
  3947579
370
    25
100
AcDbLine
 10
44.86807915251746
 20
-205.9650008135943
 30
0.0
 11
44.95494773712285
 21
-206.1654302965465
 31
0.0
  0
LINE
  5
353
330
D2
100
AcDbEntity
  8
Слой 1
 62
   250
420
  3947579
370
    25
100
AcDbLine
 10
44.95494773712285
 20
-206.1654302965465
 30
0.0
 11
45.06850863547001
 21
-206.3953550901956
 31
0.0
  0
LINE
  5
354
330
D2
100
AcDbEntity
  8
Слой 1
 62
   250
420
  3947579
370
    25
100
AcDbLine
 10
45.06850863547001
 20
-206.3953550901956
 30
0.0
 11
45.21196006100359
 21
-206.5957845731479
 31
0.0
  0
LINE
  5
355
330
D2
100
AcDbEntity
  8
Слой 1
 62
   250
420
  3947579
370
    25
100
AcDbLine
 10
45.21196006100359
 20
-206.5957845731479
 30
0.0
 11
45.35541148653717
 21
-206.7691204456145
 31
0.0
  0
LINE
  5
356
330
D2
100
AcDbEntity
  8
Слой 1
 62
   250
420
  3947579
370
    25
100
AcDbLine
 10
45.35541148653717
 20
-206.7691204456145
 30
0.0
 11
45.52874735900476
 21
-206.9392702651439
 31
0.0
  0
LINE
  5
357
330
D2
100
AcDbEntity
  8
Слой 1
 62
   250
420
  3947579
370
    25
100
AcDbLine
 10
130.1529887190597
 20
-207.799978818346
 30
0.0
 11
129.9824497632948
 21
-207.9733146908132
 31
0.0
  0
LINE
  5
358
330
D2
100
AcDbEntity
  8
Слой 1
 62
   250
420
  3947579
370
    25
100
AcDbLine
 10
129.9824497632948
 20
-207.9733146908132
 30
0.0
 11
129.8389922575069
 21
-208.1466505632805
 31
0.0
  0
LINE
  5
359
330
D2
100
AcDbEntity
  8
Слой 1
 62
   250
420
  3947579
370
    25
100
AcDbLine
 10
129.8389922575069
 20
-208.1466505632805
 30
0.0
 11
129.695546912227
 21
-208.3470861264864
 31
0.0
  0
LINE
  5
35A
330
D2
100
AcDbEntity
  8
Слой 1
 62
   250
420
  3947579
370
    25
100
AcDbLine
 10
129.695546912227
 20
-208.3470861264864
 30
0.0
 11
129.5791830169247
 21
-208.5770048398819
 31
0.0
  0
LINE
  5
35B
330
D2
100
AcDbEntity
  8
Слой 1
 62
   250
420
  3947579
370
    25
100
AcDbLine
 10
129.5791830169247
 20
-208.5770048398819
 30
0.0
 11
129.4955065655115
 21
-208.7774404030872
 31
0.0
  0
LINE
  5
35C
330
D2
100
AcDbEntity
  8
Слой 1
 62
   250
420
  3947579
370
    25
100
AcDbLine
 10
129.4955065655115
 20
-208.7774404030872
 30
0.0
 11
129.4086440611598
 21
-209.0045682800352
 31
0.0
  0
LINE
  5
35D
330
D2
100
AcDbEntity
  8
Слой 1
 62
   250
420
  3947579
370
    25
100
AcDbLine
 10
129.4086440611598
 20
-209.0045682800352
 30
0.0
 11
129.352061220231
 21
-209.2344930736837
 31
0.0
  0
LINE
  5
35E
330
D2
100
AcDbEntity
  8
Слой 1
 62
   250
420
  3947579
370
    25
100
AcDbLine
 10
129.352061220231
 20
-209.2344930736837
 30
0.0
 11
129.3221706930443
 21
-209.4648070035696
 31
0.0
  0
LINE
  5
35F
330
D2
100
AcDbEntity
  8
Слой 1
 62
   250
420
  3947579
370
    25
100
AcDbLine
 10
129.3221706930443
 20
-209.4648070035696
 30
0.0
 11
129.3221706930443
 21
-209.7218254077037
 31
0.0
  0
LINE
  5
360
330
D2
100
AcDbEntity
  8
Слой 1
 62
   250
420
  3947579
370
    25
100
AcDbLine
 10
129.3221706930443
 20
-209.7218254077037
 30
0.0
 11
129.3221706930443
 21
-209.9517441210986
 31
0.0
  0
LINE
  5
361
330
D2
100
AcDbEntity
  8
Слой 1
 62
   250
420
  3947579
370
    25
100
AcDbLine
 10
129.3221706930443
 20
-209.9517441210986
 30
0.0
 11
129.352061220231
 21
-210.1820641312381
 31
0.0
  0
LINE
  5
362
330
D2
100
AcDbEntity
  8
Слой 1
 62
   250
420
  3947579
370
    25
100
AcDbLine
 10
129.352061220231
 20
-210.1820641312381
 30
0.0
 11
129.4086440611598
 21
-210.4119889248873
 31
0.0
  0
LINE
  5
363
330
D2
100
AcDbEntity
  8
Слой 1
 62
   250
420
  3947579
370
    25
100
AcDbLine
 10
129.4086440611598
 20
-210.4119889248873
 30
0.0
 11
129.4656281988322
 21
-210.6423028547732
 31
0.0
  0
LINE
  5
364
330
D2
100
AcDbEntity
  8
Слой 1
 62
   250
420
  3947579
370
    25
100
AcDbLine
 10
129.4656281988322
 20
-210.6423028547732
 30
0.0
 11
129.5520894064397
 21
-210.8694368119737
 31
0.0
  0
LINE
  5
365
330
D2
100
AcDbEntity
  8
Слой 1
 62
   250
420
  3947579
370
    25
100
AcDbLine
 10
129.5520894064397
 20
-210.8694368119737
 30
0.0
 11
129.6656563850396
 21
-211.0726571313739
 31
0.0
  0
LINE
  5
366
330
D2
100
AcDbEntity
  8
Слой 1
 62
   250
420
  3947579
370
    25
100
AcDbLine
 10
129.6656563850396
 20
-211.0726571313739
 30
0.0
 11
129.8095030270643
 21
-211.2726913978363
 31
0.0
  0
LINE
  5
367
330
D2
100
AcDbEntity
  8
Слой 1
 62
   250
420
  3947579
370
    25
100
AcDbLine
 10
129.8095030270643
 20
-211.2726913978363
 30
0.0
 11
129.9525592361074
 21
-211.4731269610417
 31
0.0
  0
LINE
  5
368
330
D2
100
AcDbEntity
  8
Слой 1
 62
   250
420
  3947579
370
    25
100
AcDbLine
 10
129.9525592361074
 20
-211.4731269610417
 30
0.0
 11
130.0964058781321
 21
-211.6464628335089
 31
0.0
  0
LINE
  5
369
330
D2
100
AcDbEntity
  8
Слой 1
 62
   250
420
  3947579
370
    25
100
AcDbLine
 10
130.0964058781321
 20
-211.6464628335089
 30
0.0
 11
130.269352614362
 21
-211.8166126530376
 31
0.0
  0
LINE
  5
36A
330
D2
100
AcDbEntity
  8
Слой 1
 62
   250
420
  3947579
370
    25
100
AcDbLine
 10
130.269352614362
 20
-211.8166126530376
 30
0.0
 11
130.4697820973142
 21
-211.9600640785712
 31
0.0
  0
LINE
  5
36B
330
D2
100
AcDbEntity
  8
Слой 1
 62
   250
420
  3947579
370
    25
100
AcDbLine
 10
130.4697820973142
 20
-211.9600640785712
 30
0.0
 11
130.6702115802671
 21
-212.0768171101103
 31
0.0
  0
LINE
  5
36C
330
D2
100
AcDbEntity
  8
Слой 1
 62
   250
420
  3947579
370
    25
100
AcDbLine
 10
130.6702115802671
 20
-212.0768171101103
 30
0.0
 11
130.8702519269819
 21
-212.1903840887108
 31
0.0
  0
LINE
  5
36D
330
D2
100
AcDbEntity
  8
Слой 1
 62
   250
420
  3947579
370
    25
100
AcDbLine
 10
130.8702519269819
 20
-212.1903840887108
 30
0.0
 11
131.100170640378
 21
-212.2768513765721
 31
0.0
  0
LINE
  5
36E
330
D2
100
AcDbEntity
  8
Слой 1
 62
   250
420
  3947579
370
    25
100
AcDbLine
 10
131.100170640378
 20
-212.2768513765721
 30
0.0
 11
131.330490650517
 21
-212.3605339082395
 31
0.0
  0
LINE
  5
36F
330
D2
100
AcDbEntity
  8
Слой 1
 62
   250
420
  3947579
370
    25
100
AcDbLine
 10
131.330490650517
 20
-212.3605339082395
 30
0.0
 11
131.5604093639124
 21
-212.4203028021063
 31
0.0
  0
LINE
  5
370
330
D2
100
AcDbEntity
  8
Слой 1
 62
   250
420
  3947579
370
    25
100
AcDbLine
 10
131.5604093639124
 20
-212.4203028021063
 30
0.0
 11
131.7907293740514
 21
-212.4473964125912
 31
0.0
  0
LINE
  5
371
330
D2
100
AcDbEntity
  8
Слой 1
 62
   250
420
  3947579
370
    25
100
AcDbLine
 10
131.7907293740514
 20
-212.4473964125912
 30
0.0
 11
132.0178633312524
 21
-212.4473964125912
 31
0.0
  0
LINE
  5
372
330
D2
100
AcDbEntity
  8
Слой 1
 62
   250
420
  3947579
370
    25
100
AcDbLine
 10
132.0178633312524
 20
-212.4473964125912
 30
0.0
 11
132.2780617080714
 21
-212.4473964125912
 31
0.0
  0
LINE
  5
373
330
D2
100
AcDbEntity
  8
Слой 1
 62
   250
420
  3947579
370
    25
100
AcDbLine
 10
132.2780617080714
 20
-212.4473964125912
 30
0.0
 11
132.5047943685283
 21
-212.4203028021063
 31
0.0
  0
LINE
  5
374
330
D2
100
AcDbEntity
  8
Слой 1
 62
   250
420
  3947579
370
    25
100
AcDbLine
 10
132.5047943685283
 20
-212.4203028021063
 30
0.0
 11
132.7351143786679
 21
-212.3605339082395
 31
0.0
  0
LINE
  5
375
330
D2
100
AcDbEntity
  8
Слой 1
 62
   250
420
  3947579
370
    25
100
AcDbLine
 10
132.7351143786679
 20
-212.3605339082395
 30
0.0
 11
132.9650330920627
 21
-212.2768513765721
 31
0.0
  0
LINE
  5
376
330
D2
100
AcDbEntity
  8
Слой 1
 62
   250
420
  3947579
370
    25
100
AcDbLine
 10
132.9650330920627
 20
-212.2768513765721
 30
0.0
 11
133.1953531022024
 21
-212.1903840887108
 31
0.0
  0
LINE
  5
377
330
D2
100
AcDbEntity
  8
Слой 1
 62
   250
420
  3947579
370
    25
100
AcDbLine
 10
133.1953531022024
 20
-212.1903840887108
 30
0.0
 11
133.3957825851546
 21
-212.0768171101103
 31
0.0
  0
LINE
  5
378
330
D2
100
AcDbEntity
  8
Слой 1
 62
   250
420
  3947579
370
    25
100
AcDbLine
 10
133.3957825851546
 20
-212.0768171101103
 30
0.0
 11
133.59582293187
 21
-211.9600640785712
 31
0.0
  0
LINE
  5
379
330
D2
100
AcDbEntity
  8
Слой 1
 62
   250
420
  3947579
370
    25
100
AcDbLine
 10
133.59582293187
 20
-211.9600640785712
 30
0.0
 11
133.7691588043373
 21
-211.8166126530376
 31
0.0
  0
LINE
  5
37A
330
D2
100
AcDbEntity
  8
Слой 1
 62
   250
420
  3947579
370
    25
100
AcDbLine
 10
133.7691588043373
 20
-211.8166126530376
 30
0.0
 11
133.9695882872895
 21
-211.6464628335089
 31
0.0
  0
LINE
  5
37B
330
D2
100
AcDbEntity
  8
Слой 1
 62
   250
420
  3947579
370
    25
100
AcDbLine
 10
133.9695882872895
 20
-211.6464628335089
 30
0.0
 11
134.1126444963327
 21
-211.4731269610417
 31
0.0
  0
LINE
  5
37C
330
D2
100
AcDbEntity
  8
Слой 1
 62
   250
420
  3947579
370
    25
100
AcDbLine
 10
134.1126444963327
 20
-211.4731269610417
 30
0.0
 11
134.2564911383574
 21
-211.2726913978363
 31
0.0
  0
LINE
  5
37D
330
D2
100
AcDbEntity
  8
Слой 1
 62
   250
420
  3947579
370
    25
100
AcDbLine
 10
134.2564911383574
 20
-211.2726913978363
 30
0.0
 11
134.3995473474004
 21
-211.0726571313739
 31
0.0
  0
LINE
  5
37E
330
D2
100
AcDbEntity
  8
Слой 1
 62
   250
420
  3947579
370
    25
100
AcDbLine
 10
134.3995473474004
 20
-211.0726571313739
 30
0.0
 11
134.4864098517521
 21
-210.8694368119737
 31
0.0
  0
LINE
  5
37F
330
D2
100
AcDbEntity
  8
Слой 1
 62
   250
420
  3947579
370
    25
100
AcDbLine
 10
134.4864098517521
 20
-210.8694368119737
 30
0.0
 11
134.5728832198677
 21
-210.6423028547732
 31
0.0
  0
LINE
  5
380
330
D2
100
AcDbEntity
  8
Слой 1
 62
   250
420
  3947579
370
    25
100
AcDbLine
 10
134.5728832198677
 20
-210.6423028547732
 30
0.0
 11
134.6565596712809
 21
-210.4119889248873
 31
0.0
  0
LINE
  5
381
330
D2
100
AcDbEntity
  8
Слой 1
 62
   250
420
  3947579
370
    25
100
AcDbLine
 10
134.6565596712809
 20
-210.4119889248873
 30
0.0
 11
134.7167298618918
 21
-210.1820641312381
 31
0.0
  0
LINE
  5
382
330
D2
100
AcDbEntity
  8
Слой 1
 62
   250
420
  3947579
370
    25
100
AcDbLine
 10
134.7167298618918
 20
-210.1820641312381
 30
0.0
 11
134.7434343361399
 21
-209.9517441210986
 31
0.0
  0
LINE
  5
383
330
D2
100
AcDbEntity
  8
Слой 1
 62
   250
420
  3947579
370
    25
100
AcDbLine
 10
134.7434343361399
 20
-209.9517441210986
 30
0.0
 11
134.7434343361399
 21
-209.7218254077037
 31
0.0
  0
LINE
  5
384
330
D2
100
AcDbEntity
  8
Слой 1
 62
   250
420
  3947579
370
    25
100
AcDbLine
 10
134.7434343361399
 20
-209.7218254077037
 30
0.0
 11
134.7167298618918
 21
-209.4648070035696
 31
0.0
  0
LINE
  5
385
330
D2
100
AcDbEntity
  8
Слой 1
 62
   250
420
  3947579
370
    25
100
AcDbLine
 10
134.7167298618918
 20
-209.4648070035696
 30
0.0
 11
134.6864501984683
 21
-209.2344930736837
 31
0.0
  0
LINE
  5
386
330
D2
100
AcDbEntity
  8
Слой 1
 62
   250
420
  3947579
370
    25
100
AcDbLine
 10
134.6864501984683
 20
-209.2344930736837
 30
0.0
 11
134.6298673575401
 21
-209.0045682800352
 31
0.0
  0
LINE
  5
387
330
D2
100
AcDbEntity
  8
Слой 1
 62
   250
420
  3947579
370
    25
100
AcDbLine
 10
134.6298673575401
 20
-209.0045682800352
 30
0.0
 11
134.5728832198677
 21
-208.7774404030872
 31
0.0
  0
LINE
  5
388
330
D2
100
AcDbEntity
  8
Слой 1
 62
   250
420
  3947579
370
    25
100
AcDbLine
 10
134.5728832198677
 20
-208.7774404030872
 30
0.0
 11
134.4565314850728
 21
-208.5770048398819
 31
0.0
  0
LINE
  5
389
330
D2
100
AcDbEntity
  8
Слой 1
 62
   250
420
  3947579
370
    25
100
AcDbLine
 10
134.4565314850728
 20
-208.5770048398819
 30
0.0
 11
134.3429645064723
 21
-208.3470861264864
 31
0.0
  0
LINE
  5
38A
330
D2
100
AcDbEntity
  8
Слой 1
 62
   250
420
  3947579
370
    25
100
AcDbLine
 10
134.3429645064723
 20
-208.3470861264864
 30
0.0
 11
134.2262114749332
 21
-208.1466505632805
 31
0.0
  0
LINE
  5
38B
330
D2
100
AcDbEntity
  8
Слой 1
 62
   250
420
  3947579
370
    25
100
AcDbLine
 10
134.2262114749332
 20
-208.1466505632805
 30
0.0
 11
134.0831552658901
 21
-207.9733146908132
 31
0.0
  0
LINE
  5
38C
330
D2
100
AcDbEntity
  8
Слой 1
 62
   250
420
  3947579
370
    25
100
AcDbLine
 10
134.0831552658901
 20
-207.9733146908132
 30
0.0
 11
133.9126041496172
 21
-207.799978818346
 31
0.0
  0
SPLINE
  5
38D
330
D2
100
AcDbEntity
  8
Слой 1
 62
   250
420
  3947579
370
    25
100
AcDbSpline
210
0.0
220
0.0
230
1.0
 70
     8
 71
     3
 72
    14
 73
    10
 74
     0
 42
0.0000000001
 43
0.0000000001
 40
0.0
 40
0.0
 40
0.0
 40
0.0
 40
1.0
 40
1.0
 40
1.0
 40
2.0
 40
2.0
 40
2.0
 40
3.0
 40
3.0
 40
3.0
 40
3.0
 10
68.73477131407935
 20
-200.7469635701526
 30
0.0
 10
68.72281145505244
 20
-200.7441727337045
 30
0.0
 10
68.70807292008453
 20
-200.7441727337045
 30
0.0
 10
68.69332830486292
 20
-200.7441727337045
 30
0.0
 10
68.38251789624901
 20
-200.7441727337045
 30
0.0
 10
68.13426721794957
 20
-200.995214248452
 30
0.0
 10
68.13426721794957
 20
-201.3028386041277
 30
0.0
 10
68.13426721794957
 20
-201.3120015464529
 30
0.0
 10
68.13426721794957
 20
-201.3179784358395
 30
0.0
 10
68.13426721794957
 20
-201.3179784358395
 30
0.0
  0
SPLINE
  5
38E
330
D2
100
AcDbEntity
  8
Слой 1
 62
   250
420
  3947579
370
    25
100
AcDbSpline
210
0.0
220
0.0
230
1.0
 70
     8
 71
     3
 72
     8
 73
     4
 74
     0
 42
0.0000000001
 43
0.0000000001
 40
0.0
 40
0.0
 40
0.0
 40
0.0
 40
1.0
 40
1.0
 40
1.0
 40
1.0
 10
110.6165377175057
 20
-217.0677203963509
 30
0.0
 10
110.9126095911517
 20
-217.0617435069643
 30
0.0
 10
111.1484991136801
 20
-216.8226618512443
 30
0.0
 10
111.1636389453918
 20
-216.5206130882104
 30
0.0
  0
SPLINE
  5
38F
330
D2
100
AcDbEntity
  8
Слой 1
 62
   250
420
  3947579
370
    25
100
AcDbSpline
210
0.0
220
0.0
230
1.0
 70
     8
 71
     3
 72
    11
 73
     7
 74
     0
 42
0.0000000001
 43
0.0000000001
 40
0.0
 40
0.0
 40
0.0
 40
0.0
 40
1.0
 40
1.0
 40
1.0
 40
2.0
 40
2.0
 40
2.0
 40
2.0
 10
111.1636389453918
 20
-201.3147923829009
 30
0.0
 10
111.1636389453918
 20
-201.3179784358395
 30
0.0
 10
111.1636389453918
 20
-201.3120015464529
 30
0.0
 10
111.1636389453918
 20
-201.3028386041277
 30
0.0
 10
111.1636389453918
 20
-201.0011911378386
 30
0.0
 10
110.9217664532238
 20
-200.7529404595398
 30
0.0
 10
110.6197237704443
 20
-200.7441727337045
 30
0.0
  0
SPLINE
  5
390
330
D2
100
AcDbEntity
  8
Слой 1
 62
   250
420
  3947579
370
    25
100
AcDbSpline
210
0.0
220
0.0
230
1.0
 70
     8
 71
     3
 72
    14
 73
    10
 74
     0
 42
0.0000000001
 43
0.0000000001
 40
0.0
 40
0.0
 40
0.0
 40
0.0
 40
1.0
 40
1.0
 40
1.0
 40
2.0
 40
2.0
 40
2.0
 40
3.0
 40
3.0
 40
3.0
 40
3.0
 10
68.73795736701788
 20
-200.7469635701526
 30
0.0
 10
68.72878834443906
 20
-200.7469635701526
 30
0.0
 10
68.7168345656655
 20
-200.7469635701526
 30
0.0
 10
68.70807292008453
 20
-200.7469635701526
 30
0.0
 10
68.4032394008569
 20
-200.7441727337045
 30
0.0
 10
68.16096561194439
 20
-200.9892373590654
 30
0.0
 10
68.16096561194439
 20
-201.2880939889058
 30
0.0
 10
68.16096561194439
 20
-201.3000477676797
 30
0.0
 10
68.16096561194439
 20
-201.3120015464529
 30
0.0
 10
68.16096561194439
 20
-201.3207692722875
 30
0.0
  0
LINE
  5
391
330
D2
100
AcDbEntity
  8
Слой 1
 62
   250
420
  3947579
370
    25
100
AcDbLine
 10
111.1903434196407
 20
-201.3179784358395
 30
0.0
 11
111.1903434196407
 21
-201.2880939889058
 31
0.0
  0
LINE
  5
392
330
D2
100
AcDbEntity
  8
Слой 1
 62
   250
420
  3947579
370
    25
100
AcDbLine
 10
111.1903434196407
 20
-201.2880939889058
 30
0.0
 11
111.1903434196407
 21
-201.2311098512341
 31
0.0
  0
LINE
  5
393
330
D2
100
AcDbEntity
  8
Слой 1
 62
   250
420
  3947579
370
    25
100
AcDbLine
 10
111.1903434196407
 20
-201.2311098512341
 30
0.0
 11
111.1636389453918
 21
-201.1745270103059
 31
0.0
  0
LINE
  5
394
330
D2
100
AcDbEntity
  8
Слой 1
 62
   250
420
  3947579
370
    25
100
AcDbLine
 10
111.1636389453918
 20
-201.1745270103059
 30
0.0
 11
111.1636389453918
 21
-201.1175428726335
 31
0.0
  0
LINE
  5
395
330
D2
100
AcDbEntity
  8
Слой 1
 62
   250
420
  3947579
370
    25
100
AcDbLine
 10
111.1636389453918
 20
-201.1175428726335
 30
0.0
 11
111.1337605787125
 21
-201.0876584257005
 31
0.0
  0
LINE
  5
396
330
D2
100
AcDbEntity
  8
Слой 1
 62
   250
420
  3947579
370
    25
100
AcDbLine
 10
111.1337605787125
 20
-201.0876584257005
 30
0.0
 11
111.1070561044643
 21
-201.0310755847723
 31
0.0
  0
LINE
  5
397
330
D2
100
AcDbEntity
  8
Слой 1
 62
   250
420
  3947579
370
    25
100
AcDbLine
 10
111.1070561044643
 20
-201.0310755847723
 30
0.0
 11
111.0767764410402
 21
-200.9740914471
 31
0.0
  0
LINE
  5
398
330
D2
100
AcDbEntity
  8
Слой 1
 62
   250
420
  3947579
370
    25
100
AcDbLine
 10
111.0767764410402
 20
-200.9740914471
 30
0.0
 11
111.0472872105976
 21
-200.9442070001663
 31
0.0
  0
LINE
  5
399
330
D2
100
AcDbEntity
  8
Слой 1
 62
   250
420
  3947579
370
    25
100
AcDbLine
 10
111.0472872105976
 20
-200.9442070001663
 30
0.0
 11
111.020193600112
 21
-200.9175086061711
 31
0.0
  0
LINE
  5
39A
330
D2
100
AcDbEntity
  8
Слой 1
 62
   250
420
  3947579
370
    25
100
AcDbLine
 10
111.020193600112
 20
-200.9175086061711
 30
0.0
 11
110.9632094624396
 21
-200.8876241592387
 31
0.0
  0
LINE
  5
39B
330
D2
100
AcDbEntity
  8
Слой 1
 62
   250
420
  3947579
370
    25
100
AcDbLine
 10
110.9632094624396
 20
-200.8876241592387
 30
0.0
 11
110.9337202319971
 21
-200.8306400215664
 31
0.0
  0
LINE
  5
39C
330
D2
100
AcDbEntity
  8
Слой 1
 62
   250
420
  3947579
370
    25
100
AcDbLine
 10
110.9337202319971
 20
-200.8306400215664
 30
0.0
 11
110.8767360943247
 21
-200.8306400215664
 31
0.0
  0
LINE
  5
39D
330
D2
100
AcDbEntity
  8
Слой 1
 62
   250
420
  3947579
370
    25
100
AcDbLine
 10
110.8767360943247
 20
-200.8306400215664
 30
0.0
 11
110.8201532533965
 21
-200.8007555746327
 31
0.0
  0
LINE
  5
39E
330
D2
100
AcDbEntity
  8
Слой 1
 62
   250
420
  3947579
370
    25
100
AcDbLine
 10
110.8201532533965
 20
-200.8007555746327
 30
0.0
 11
110.789873589973
 21
-200.7740571806382
 31
0.0
  0
LINE
  5
39F
330
D2
100
AcDbEntity
  8
Слой 1
 62
   250
420
  3947579
370
    25
100
AcDbLine
 10
110.789873589973
 20
-200.7740571806382
 30
0.0
 11
110.7332907490448
 21
-200.7740571806382
 31
0.0
  0
LINE
  5
3A0
330
D2
100
AcDbEntity
  8
Слой 1
 62
   250
420
  3947579
370
    25
100
AcDbLine
 10
110.7332907490448
 20
-200.7740571806382
 30
0.0
 11
110.6763066113725
 21
-200.7740571806382
 31
0.0
  0
LINE
  5
3A1
330
D2
100
AcDbEntity
  8
Слой 1
 62
   250
420
  3947579
370
    25
100
AcDbLine
 10
110.6763066113725
 20
-200.7740571806382
 30
0.0
 11
110.6197237704443
 21
-200.7441727337045
 31
0.0
  0
SPLINE
  5
3A2
330
D2
100
AcDbEntity
  8
Слой 1
 62
   250
420
  3947579
370
    25
100
AcDbSpline
210
0.0
220
0.0
230
1.0
 70
     8
 71
     3
 72
     8
 73
     4
 74
     0
 42
0.0000000001
 43
0.0000000001
 40
0.0
 40
0.0
 40
0.0
 40
0.0
 40
1.0
 40
1.0
 40
1.0
 40
1.0
 10
110.6165377175057
 20
-217.0378359494179
 30
0.0
 10
110.8946728427389
 20
-217.0226961177061
 30
0.0
 10
111.1190098832375
 20
-216.7987542936979
 30
0.0
 10
111.1337605787125
 20
-216.5206130882104
 30
0.0
  0
LINE
  5
3A3
330
D2
100
AcDbEntity
  8
Слой 1
 62
   250
420
  3947579
370
    25
100
AcDbLine
 10
39.93415392369519
 20
-218.242030194616
 30
0.0
 11
39.93415392369519
 21
-218.242030194616
 31
0.0
  0
LINE
  5
3A4
330
D2
100
AcDbEntity
  8
Слой 1
 62
   250
420
  3947579
370
    25
100
AcDbLine
 10
39.93415392369519
 20
-199.5965613294346
 30
0.0
 11
39.93415392369519
 21
-199.5965613294346
 31
0.0
  0
LINE
  5
3A5
330
D2
100
AcDbEntity
  8
Слой 1
 62
   250
420
  3947579
370
    25
100
AcDbLine
 10
139.4175442443115
 20
-199.5961942730389
 30
0.0
 11
139.4175442434741
 21
-218.2416631382202
 31
0.0
  0
LINE
  5
3A6
330
D2
100
AcDbEntity
  8
Слой 1
 62
   250
420
  3947579
370
    25
100
AcDbLine
 10
139.4175442443115
 20
-199.5961942730389
 30
0.0
 11
138.8736260292614
 21
-199.0522790980663
 31
0.0
  0
LINE
  5
3A7
330
D2
100
AcDbEntity
  8
Слой 1
 62
   250
420
  3947579
370
    25
100
AcDbLine
 10
138.873626028374
 20
-218.8154688403315
 30
0.0
 11
139.4175442434741
 21
-218.2416631382202
 31
0.0
  0
LINE
  5
3A8
330
D2
100
AcDbEntity
  8
Слой 1
 62
   250
420
  3947579
370
    25
100
AcDbLine
 10
139.4175442443115
 20
-199.5961942730389
 30
0.0
 11
139.4175442443115
 21
-199.5961942730389
 31
0.0
  0
LINE
  5
3A9
330
D2
100
AcDbEntity
  8
Слой 1
 62
   250
420
  3947579
370
    25
100
AcDbLine
 10
54.24938770912291
 20
-218.242030194616
 30
0.0
 11
54.24938770912291
 21
-218.242030194616
 31
0.0
  0
LINE
  5
3AA
330
D2
100
AcDbEntity
  8
Слой 1
 62
   250
420
  3947579
370
    25
100
AcDbLine
 10
125.0752229284673
 20
-199.5965613294346
 30
0.0
 11
125.1055025918909
 21
-199.5965613294346
 31
0.0
  0
LINE
  5
3AB
330
D2
100
AcDbEntity
  8
Слой 1
 62
   250
420
  3947579
370
    25
100
AcDbLine
 10
125.1055025918909
 20
-218.242030194616
 30
0.0
 11
125.0752229284673
 21
-218.242030194616
 31
0.0
  0
LINE
  5
3AC
330
D2
100
AcDbEntity
  8
Слой 1
 62
   250
420
  3947579
370
    25
100
AcDbLine
 10
54.24938770912291
 20
-199.5965613294346
 30
0.0
 11
54.24938770912291
 21
-199.5965613294346
 31
0.0
  0
LWPOLYLINE
  5
3AD
330
D2
100
AcDbEntity
  8
Слой 1
 62
   250
420
  3947579
370
    25
100
AcDbPolyline
 90
       12
 70
     0
 43
0.0
 10
181.8236588523233
 20
-141.9112609610166
 10
181.8503511660648
 20
-141.9112609610166
 10
181.8503511660648
 20
-141.9379532747578
 10
181.8503511660648
 20
-141.9678438019445
 10
181.8802416932515
 20
-141.9678438019445
 10
181.8802416932515
 20
-141.9949374124298
 10
181.8802416932515
 20
-142.0248279396169
 10
181.9101200599315
 20
-142.0547063062965
 10
181.9101200599315
 20
-142.081410780545
 10
181.9372258309239
 20
-142.081410780545
 10
181.9372258309239
 20
-142.111289147225
 10
181.9372258309239
 20
-142.13838275771
  0
LWPOLYLINE
  5
3AE
330
D2
100
AcDbEntity
  8
Слой 1
 62
   250
420
  3947579
370
    25
100
AcDbPolyline
 90
       11
 70
     0
 43
0.0
 10
181.9372258309239
 20
-147.0723140667857
 10
181.9372258309239
 20
-147.0456095925375
 10
181.9101200599315
 20
-147.0157312258578
 10
181.9101200599315
 20
-146.9886376153725
 10
181.9101200599315
 20
-146.9587470881854
 10
181.8802416932515
 20
-146.9587470881854
 10
181.8802416932515
 20
-146.9288565609984
 10
181.8802416932515
 20
-146.9021642472573
 10
181.8503511660648
 20
-146.8722737200702
 10
181.8503511660648
 20
-146.8451801095849
 10
181.8236588523233
 20
-146.8152895823978
  0
LWPOLYLINE
  5
3AF
330
D2
100
AcDbEntity
  8
Слой 1
 62
   250
420
  3947579
370
    25
100
AcDbPolyline
 90
       12
 70
     0
 43
0.0
 10
185.0632545049723
 20
-148.937176518471
 10
185.093145032159
 20
-148.9670670456578
 10
185.093145032159
 20
-148.9969454123378
 10
185.093145032159
 20
-149.0240390228234
 10
185.1230355593464
 20
-149.0240390228234
 10
185.1230355593464
 20
-149.0539295500101
 10
185.1497278730879
 20
-149.0806340242583
 10
185.1497278730879
 20
-149.1105123909383
 10
185.1497278730879
 20
-149.140402918125
 10
185.1796184002746
 20
-149.140402918125
 10
185.1796184002746
 20
-149.1674965286106
 10
185.1796184002746
 20
-149.1973870557968
  0
LWPOLYLINE
  5
3B0
330
D2
100
AcDbEntity
  8
Слой 1
 62
   250
420
  3947579
370
    25
100
AcDbPolyline
 90
        5
 70
     0
 43
0.0
 10
185.093145032159
 20
-152.3800107312808
 10
185.093145032159
 20
-152.3800107312808
 10
185.1230355593464
 20
-152.3800107312808
 10
185.1497278730879
 20
-152.3800107312808
 10
185.1796184002746
 20
-152.3800107312808
  0
LWPOLYLINE
  5
3B1
330
D2
100
AcDbEntity
  8
Слой 1
 62
   250
420
  3947579
370
    25
100
AcDbPolyline
 90
       11
 70
     0
 43
0.0
 10
185.0632545049723
 20
-140.7903418704872
 10
185.0632545049723
 20
-140.8202323976746
 10
185.0632545049723
 20
-140.8501229248616
 10
185.093145032159
 20
-140.8772165353469
 10
185.1230355593464
 20
-140.9070949020263
 10
185.1230355593464
 20
-140.9337993762751
 10
185.1497278730879
 20
-140.9636777429548
 10
185.1497278730879
 20
-140.9935682701415
 10
185.1497278730879
 20
-141.0206618806268
 10
185.1497278730879
 20
-141.0505524078139
 10
185.1796184002746
 20
-141.0505524078139
  0
LWPOLYLINE
  5
3B2
330
D2
100
AcDbEntity
  8
Слой 1
 62
   250
420
  3947579
370
    25
100
AcDbPolyline
 90
       11
 70
     0
 43
0.0
 10
185.1796184002746
 20
-145.9844715563825
 10
185.1796184002746
 20
-145.9844715563825
 10
185.1796184002746
 20
-145.9545931897031
 10
185.1497278730879
 20
-145.9545931897031
 10
185.1497278730879
 20
-145.9247026625157
 10
185.1230355593464
 20
-145.8980103487746
 10
185.1230355593464
 20
-145.8681198215875
 10
185.1230355593464
 20
-145.8410262111026
 10
185.093145032159
 20
-145.8111356839155
 10
185.0632545049723
 20
-145.7812573172358
 10
185.0632545049723
 20
-145.754552842987
  0
LWPOLYLINE
  5
3B3
330
D2
100
AcDbEntity
  8
Слой 1
 62
   250
420
  3947579
370
    25
100
AcDbPolyline
 90
        5
 70
     0
 43
0.0
 10
185.0361608944867
 20
-136.3732442863816
 10
185.0632545049723
 20
-136.3732442863816
 10
185.093145032159
 20
-136.3732442863816
 10
185.1230355593464
 20
-136.3732442863816
 10
185.1497278730879
 20
-136.3732442863816
  0
LWPOLYLINE
  5
3B4
330
D2
100
AcDbEntity
  8
Слой 1
 62
   250
420
  3947579
370
    25
100
AcDbPolyline
 90
        9
 70
     0
 43
0.0
 10
185.1497278730879
 20
-137.8376369083989
 10
185.1497278730879
 20
-137.8376369083989
 10
185.1497278730879
 20
-137.8077585417193
 10
185.1230355593464
 20
-137.7810540674708
 10
185.1230355593464
 20
-137.7511757007911
 10
185.093145032159
 20
-137.721285173604
 10
185.093145032159
 20
-137.6941915631187
 10
185.0632545049723
 20
-137.664301035932
 10
185.0632545049723
 20
-137.6376087221909
  0
LWPOLYLINE
  5
3B5
330
D2
100
AcDbEntity
  8
Слой 1
 62
   250
420
  3947579
370
    25
100
AcDbPolyline
 90
        6
 70
     0
 43
0.0
 10
181.8236588523233
 20
-152.3800107312808
 10
181.8236588523233
 20
-152.3800107312808
 10
181.8503511660648
 20
-152.3800107312808
 10
181.8802416932515
 20
-152.3800107312808
 10
181.9101200599315
 20
-152.3800107312808
 10
181.9372258309239
 20
-152.3800107312808
  0
LWPOLYLINE
  5
3B6
330
D2
100
AcDbEntity
  8
Слой 1
 62
   250
420
  3947579
370
    25
100
AcDbPolyline
 90
       12
 70
     0
 43
0.0
 10
181.8236588523233
 20
-149.998314554626
 10
181.8236588523233
 20
-149.998314554626
 10
181.8236588523233
 20
-150.0282050818134
 10
181.8503511660648
 20
-150.0282050818134
 10
181.8503511660648
 20
-150.0580834484928
 10
181.8802416932515
 20
-150.084787922741
 10
181.8802416932515
 20
-150.1146784499277
 10
181.8802416932515
 20
-150.1417720604133
 10
181.9101200599315
 20
-150.1417720604133
 10
181.9101200599315
 20
-150.1716504270927
 10
181.9101200599315
 20
-150.20154095428
 10
181.9372258309239
 20
-150.2282332680208
  0
LWPOLYLINE
  5
3B7
330
D2
100
AcDbEntity
  8
Слой 1
 62
   250
420
  3947579
370
    25
100
AcDbPolyline
 90
       12
 70
     0
 43
0.0
 10
49.02816441274268
 20
-207.5999445518842
 10
49.02816441274268
 20
-207.5999445518842
 10
49.02816441274268
 20
-207.5130759672788
 10
49.02816441274268
 20
-207.4564931263506
 10
49.02816441274268
 20
-207.3696245417453
 10
49.05525802322831
 20
-207.3130417008164
 10
49.08514247016134
 20
-207.2560575631441
 10
49.11224216090065
 20
-207.1695902752828
 10
49.14172531108953
 20
-207.1126061376111
 10
49.19870944876188
 20
-207.0560232966829
 10
49.22859389569524
 20
-206.9990452392643
 10
49.28517673662311
 20
-206.9392702651439
  0
LWPOLYLINE
  5
3B8
330
D2
100
AcDbEntity
  8
Слой 1
 62
   250
420
  3947579
370
    25
100
AcDbPolyline
 90
       11
 70
     0
 43
0.0
 10
45.52874735900476
 20
-206.9392702651439
 10
45.55544575299926
 20
-206.9990452392643
 10
45.61242989067161
 20
-207.0560232966829
 10
45.64231433760497
 20
-207.1126061376111
 10
45.69889717853316
 20
-207.1695902752828
 10
45.72878770571989
 20
-207.2560575631441
 10
45.75588131620519
 20
-207.3130417008164
 10
45.75588131620519
 20
-207.3696245417453
 10
45.78576576313855
 20
-207.4564931263506
 10
45.78576576313855
 20
-207.5130759672788
 10
45.78576576313855
 20
-207.5999445518842
  0
LWPOLYLINE
  5
3B9
330
D2
100
AcDbEntity
  8
Слой 1
 62
   250
420
  3947579
370
    25
100
AcDbPolyline
 90
       12
 70
     0
 43
0.0
 10
45.78576576313855
 20
-208.0601832754186
 10
45.78576576313855
 20
-208.0601832754186
 10
45.78576576313855
 20
-208.1167661163469
 10
45.78576576313855
 20
-208.2036347009529
 10
45.75588131620519
 20
-208.2602175418811
 10
45.75588131620519
 20
-208.3470861264864
 10
45.72878770571989
 20
-208.4036689674146
 10
45.69889717853316
 20
-208.460653105087
 10
45.64231433760497
 20
-208.5172359460151
 10
45.61242989067161
 20
-208.6041045306206
 10
45.55544575299926
 20
-208.6339889775542
 10
45.52874735900476
 20
-208.6905718184818
  0
LWPOLYLINE
  5
3BA
330
D2
100
AcDbEntity
  8
Слой 1
 62
   250
420
  3947579
370
    25
100
AcDbPolyline
 90
       11
 70
     0
 43
0.0
 10
49.28517673662311
 20
-208.6905718184818
 10
49.22859389569524
 20
-208.6606873715487
 10
49.19870944876188
 20
-208.6041045306206
 10
49.14172531108953
 20
-208.5172359460151
 10
49.11224216090065
 20
-208.460653105087
 10
49.08514247016134
 20
-208.4036689674146
 10
49.05525802322831
 20
-208.3470861264864
 10
49.02816441274268
 20
-208.2602175418811
 10
49.02816441274268
 20
-208.2036347009529
 10
49.02816441274268
 20
-208.1167661163469
 10
49.02816441274268
 20
-208.0601832754186
  0
LWPOLYLINE
  5
3BB
330
D2
100
AcDbEntity
  8
Слой 1
 62
   250
420
  3947579
370
    25
100
AcDbPolyline
 90
       12
 70
     0
 43
0.0
 10
130.4127979596425
 20
-206.6822579412634
 10
130.4127979596425
 20
-206.6822579412634
 10
130.4127979596425
 20
-206.6256690200816
 10
130.4127979596425
 20
-206.5388065157292
 10
130.3833087291993
 20
-206.482223674801
 10
130.3833087291993
 20
-206.3953550901956
 10
130.3562151187143
 20
-206.3387722492675
 10
130.3263245915269
 20
-206.2817881115951
 10
130.269352614362
 20
-206.2220192177284
 10
130.2394620871752
 20
-206.1654302965465
 10
130.182879246247
 20
-206.1084522391278
 10
130.1529887190597
 20
-206.0518693981997
  0
LWPOLYLINE
  5
3BC
330
D2
100
AcDbEntity
  8
Слой 1
 62
   250
420
  3947579
370
    25
100
AcDbPolyline
 90
       11
 70
     0
 43
0.0
 10
130.1529887190597
 20
-207.799978818346
 10
130.182879246247
 20
-207.7433959774178
 10
130.2394620871752
 20
-207.6864118397454
 10
130.269352614362
 20
-207.6298289988173
 10
130.3263245915269
 20
-207.5728509413986
 10
130.3562151187143
 20
-207.4863775732843
 10
130.3833087291993
 20
-207.4293995158657
 10
130.3833087291993
 20
-207.3696245417453
 10
130.4127979596425
 20
-207.2859480903315
 10
130.4127979596425
 20
-207.226173116211
 10
130.4127979596425
 20
-207.1424966647972
  0
LWPOLYLINE
  5
3BD
330
D2
100
AcDbEntity
  8
Слой 1
 62
   250
420
  3947579
370
    25
100
AcDbPolyline
 90
       12
 70
     0
 43
0.0
 10
133.6257134590568
 20
-207.1424966647972
 10
133.6257134590568
 20
-207.1424966647972
 10
133.6524057727982
 20
-207.226173116211
 10
133.6524057727982
 20
-207.2859480903315
 10
133.6524057727982
 20
-207.3696245417453
 10
133.6826854362218
 20
-207.4293995158657
 10
133.712174666665
 20
-207.4863775732843
 10
133.7392682771499
 20
-207.5728509413986
 10
133.7691588043373
 20
-207.6298289988173
 10
133.8257416452655
 20
-207.6864118397454
 10
133.8556321724529
 20
-207.7433959774178
 10
133.9126041496172
 20
-207.799978818346
  0
LWPOLYLINE
  5
3BE
330
D2
100
AcDbEntity
  8
Слой 1
 62
   250
420
  3947579
370
    25
100
AcDbPolyline
 90
       11
 70
     0
 43
0.0
 10
133.9126041496172
 20
-206.0518693981997
 10
133.8556321724529
 20
-206.1084522391278
 10
133.8257416452655
 20
-206.1654302965465
 10
133.7691588043373
 20
-206.2220192177284
 10
133.7392682771499
 20
-206.2817881115951
 10
133.712174666665
 20
-206.3387722492675
 10
133.6826854362218
 20
-206.4252395371287
 10
133.6524057727982
 20
-206.482223674801
 10
133.6524057727982
 20
-206.5388065157292
 10
133.6524057727982
 20
-206.6256690200816
 10
133.6257134590568
 20
-206.6822579412634
  0
ENDBLK
  5
D5
330
D2
100
AcDbEntity
  8
0
100
AcDbBlockEnd
  0
ENDSEC
  0
SECTION
  2
ENTITIES
  0
LWPOLYLINE
  5
79
330
70
100
AcDbEntity
  8
Слой 1
100
AcDbPolyline
 90
        4
 70
     1
 43
0.0
 10
210.7588863604421
 20
-252.9647796302453
 10
0.785886412935537
 20
-252.9647796302453
 10
0.785886412935537
 20
-42.99177968273838
 10
210.7588863604421
 20
-42.99177968273838
  0
INSERT
  5
7B
330
70
100
AcDbEntity
  8
Слой 1
100
AcDbBlockReference
  2
Block_0
 10
0.0
 20
0.0
 30
0.0
  0
MTEXT
  5
9E
330
70
100
AcDbEntity
  8
Слой 1
100
AcDbMText
 10
9.781358165414903
 20
-58.55216461413258
 30
0.0
 40
0.2
 41
0.0
 46
0.0
 71
     7
 72
     1
  1
\C250;\c3882044;\FDINPro-Light|b0|i0|c1;\H5.494867;\W1.000000;ИСТОЧНИКИ НАПРЯЖЕНИЯ 
 73
     1
 44
1.0
  0
MTEXT
  5
9F
330
70
100
AcDbEntity
  8
Слой 1
100
AcDbMText
 10
9.781358165414903
 20
-67.86563574895699
 30
0.0
 40
0.2
 41
0.0
 46
0.0
 71
     7
 72
     1
  1
\C250;\c3882044;\FDINPro-Light|b0|i0|c1;\H5.494867;\W1.000000;СЕРИИ ARV-DR
 73
     1
 44
1.0
  0
MTEXT
  5
A0
330
70
100
AcDbEntity
  8
Слой 1
100
AcDbMText
 10
9.781358165414903
 20
-77.17876237423287
 30
0.0
 40
0.2
 41
0.0
 46
0.0
 71
     7
 72
     1
  1
\C250;\c3882044;\FDINPro-Light|b0|i0|c1;\H5.494867;\W1.000000;ARV-DR15-12/24/48
 73
     1
 44
1.0
  0
INSERT
  5
A2
330
70
100
AcDbEntity
  8
Слой 1
100
AcDbBlockReference
  2
Block_3
 10
0.0
 20
0.0
 30
0.0
  0
LINE
  5
BD
330
70
100
AcDbEntity
  8
Слой 1
 62
     8
420
  7368559
370
    18
100
AcDbLine
 10
20.79856188804573
 20
-173.6944616801684
 30
0.0
 11
20.79856188804573
 21
-107.6889907913003
 31
0.0
  0
LINE
  5
BE
330
70
100
AcDbEntity
  8
Слой 1
 62
     8
420
  7368559
370
    18
100
AcDbLine
 10
27.65393544960812
 20
-173.6944616801684
 30
0.0
 11
27.65393544960812
 21
-133.647673281494
 31
0.0
  0
LINE
  5
BF
330
70
100
AcDbEntity
  8
Слой 1
 62
     8
420
  7368559
370
    18
100
AcDbLine
 10
33.01861321164909
 20
-163.8831940634521
 30
0.0
 11
33.01861321164909
 21
-158.2316225707248
 31
0.0
  0
LINE
  5
C0
330
70
100
AcDbEntity
  8
Слой 1
 62
     8
420
  7368559
370
    18
100
AcDbLine
 10
33.01861321164909
 20
-173.6944616801684
 30
0.0
 11
33.01861321164909
 21
-163.8831940634521
 31
0.0
  0
LINE
  5
C1
330
70
100
AcDbEntity
  8
Слой 1
 62
     8
420
  7368559
370
    18
100
AcDbLine
 10
33.01861321164909
 20
-179.3460331728963
 30
0.0
 11
33.01861321164909
 21
-173.6944616801684
 31
0.0
  0
LINE
  5
C2
330
70
100
AcDbEntity
  8
Слой 1
 62
     8
420
  7368559
370
    18
100
AcDbLine
 10
38.66979252801336
 20
-174.3818343609039
 30
0.0
 11
38.66979252801336
 21
-186.0013815883768
 31
0.0
  0
LINE
  5
C3
330
70
100
AcDbEntity
  8
Слой 1
 62
     8
420
  7368559
370
    18
100
AcDbLine
 10
38.66979252801336
 20
-184.8808637945925
 30
0.0
 11
140.681908679935
 21
-184.8808637945925
 31
0.0
  0
LINE
  5
C4
330
70
100
AcDbEntity
  8
Слой 1
 62
     8
420
  7368559
370
    18
100
AcDbLine
 10
53.61581311312122
 20
-132.9603006007586
 30
0.0
 11
53.61581311312122
 21
-94.06112360635411
 31
0.0
  0
LINE
  5
C5
330
70
100
AcDbEntity
  8
Слой 1
 62
     8
420
  7368559
370
    18
100
AcDbLine
 10
38.55622554941283
 20
-173.6944616801684
 30
0.0
 11
19.68084101096287
 21
-173.6944616801684
 31
0.0
  0
LINE
  5
C6
330
70
100
AcDbEntity
  8
Слой 1
 62
     8
420
  7368559
370
    18
100
AcDbLine
 10
64.03116609539637
 20
-119.8496562770194
 30
0.0
 11
64.03116609539637
 21
-100.5164316751191
 31
0.0
  0
LINE
  5
C7
330
70
100
AcDbEntity
  8
Слой 1
 62
     8
420
  7368559
370
    18
100
AcDbLine
 10
38.81324395354726
 20
-163.8831940634521
 30
0.0
 11
31.90088929443906
 21
-163.8831940634521
 31
0.0
  0
LINE
  5
C8
330
70
100
AcDbEntity
  8
Слой 1
 62
     8
420
  7368559
370
    18
100
AcDbLine
 10
52.95832487931941
 20
-133.647673281494
 30
0.0
 11
26.53660978901573
 21
-133.647673281494
 31
0.0
  0
LINE
  5
C9
330
70
100
AcDbEntity
  8
Слой 1
 62
     8
420
  7368559
370
    18
100
AcDbLine
 10
115.2938458389377
 20
-119.8496562770194
 30
0.0
 11
115.2938458389377
 21
-100.5164316751191
 31
0.0
  0
LINE
  5
CA
330
70
100
AcDbEntity
  8
Слой 1
 62
     8
420
  7368559
370
    18
100
AcDbLine
 10
125.7358911349547
 20
-132.9603006007586
 30
0.0
 11
125.7358911349547
 21
-94.06112360635411
 31
0.0
  0
LINE
  5
CB
330
70
100
AcDbEntity
  8
Слой 1
 62
     8
420
  7368559
370
    18
100
AcDbLine
 10
65.89563333059098
 20
-107.6889907913003
 30
0.0
 11
19.68084101096287
 21
-107.6889907913003
 31
0.0
  0
LINE
  5
CC
330
70
100
AcDbEntity
  8
Слой 1
 62
     8
420
  7368559
370
    18
100
AcDbLine
 10
64.03116609539637
 20
-101.6341525522026
 30
0.0
 11
115.2938458389377
 21
-101.6341525522026
 31
0.0
  0
LINE
  5
CD
330
70
100
AcDbEntity
  8
Слой 1
 62
     8
420
  7368559
370
    18
100
AcDbLine
 10
53.61581311312122
 20
-95.18203053637552
 30
0.0
 11
125.7358911349547
 21
-95.18203053637552
 31
0.0
  0
LINE
  5
CE
330
70
100
AcDbEntity
  8
Слой 1
 62
     8
420
  7368559
370
    18
100
AcDbLine
 10
140.681908679935
 20
-174.3818343609039
 30
0.0
 11
140.681908679935
 21
-186.0013815883768
 31
0.0
  0
LINE
  5
CF
330
70
100
AcDbEntity
  8
Слой 1
 62
     8
420
  7368559
370
    18
100
AcDbLine
 10
168.2555605612444
 20
-183.3327825606543
 30
0.0
 11
188.4789951072971
 21
-183.3327825606543
 31
0.0
  0
LINE
  5
D0
330
70
100
AcDbEntity
  8
Слой 1
 62
     8
420
  7368559
370
    18
100
AcDbLine
 10
168.2555605612444
 20
-174.3818343609039
 30
0.0
 11
168.2555605612444
 21
-184.4803939649249
 31
0.0
  0
LINE
  5
D1
330
70
100
AcDbEntity
  8
Слой 1
 62
     8
420
  7368559
370
    18
100
AcDbLine
 10
188.4789951072971
 20
-174.3818343609039
 30
0.0
 11
188.4789951072971
 21
-184.4803939649249
 31
0.0
  0
INSERT
  5
D3
330
70
100
AcDbEntity
  8
Слой 1
100
AcDbBlockReference
  2
Block_7
 10
0.0
 20
0.0
 30
0.0
  0
MTEXT
  5
3BF
330
70
100
AcDbEntity
  8
Слой 1
100
AcDbMText
 10
175.8849575026867
 20
-182.5019524012061
 30
0.0
 40
0.2
 41
0.0
 46
0.0
 71
     7
 72
     1
  1
\C8;\c7303024;\FDINPro-Regular|b0|i0|c1;\H2.997200;\W1.000000;18
 73
     1
 44
1.0
  0
MTEXT
  5
3C0
330
70
100
AcDbEntity
  8
Слой 1
100
AcDbMText
 10
87.46124197574754
 20
-94.36947663385121
 30
0.0
 40
0.2
 41
0.0
 46
0.0
 71
     7
 72
     1
  1
\C8;\c7303024;\FDINPro-Regular|b0|i0|c1;\H2.997200;\W1.000000;63.8
 73
     1
 44
1.0
  0
MTEXT
  5
3C1
330
70
100
AcDbEntity
  8
Слой 1
100
AcDbMText
 10
87.18597884647607
 20
-100.8247673630316
 30
0.0
 40
0.2
 41
0.0
 46
0.0
 71
     7
 72
     1
  1
\C8;\c7303024;\FDINPro-Regular|b0|i0|c1;\H2.997200;\W1.000000;45.4
 73
     1
 44
1.0
  0
MTEXT
  5
3C2
330
70
100
AcDbEntity
  8
Слой 1
100
AcDbMText
 10
85.53526134471862
 20
-183.7778004504748
 30
0.0
 40
0.2
 41
0.0
 46
0.0
 71
     7
 72
     1
  1
\C8;\c7303024;\FDINPro-Regular|b0|i0|c1;\H2.997200;\W1.000000;90.3
 73
     1
 44
1.0
  0
MTEXT
  5
3C3
330
70
100
AcDbEntity
  8
Слой 1
100
AcDbMText
 10
19.68096923336101
 20
-144.8218234229959
 30
0.0
 40
0.2
 41
0.0
 46
0.0
 71
     7
 72
     1
  1
\C8;\c7303024;\FDINPro-Regular|b0|i0|c1;\H2.997200;\W1.000000;58.5
 11
0.0000000000000001
 21
1.0
 31
0.0
 73
     1
 44
1.0
  0
MTEXT
  5
3C4
330
70
100
AcDbEntity
  8
Слой 1
100
AcDbMText
 10
26.53670924900819
 20
-157.0464002428565
 30
0.0
 40
0.2
 41
0.0
 46
0.0
 71
     7
 72
     1
  1
\C8;\c7303024;\FDINPro-Regular|b0|i0|c1;\H2.997200;\W1.000000;35.5
 11
0.0000000000000001
 21
1.0
 31
0.0
 73
     1
 44
1.0
  0
MTEXT
  5
3C5
330
70
100
AcDbEntity
  8
Слой 1
100
AcDbMText
 10
32.13546311316839
 20
-171.2829128261029
 30
0.0
 40
0.2
 41
0.0
 46
0.0
 71
     7
 72
     1
  1
\C8;\c7303024;\FDINPro-Regular|b0|i0|c1;\H2.997200;\W1.000000;8.7
 11
0.0000000000000001
 21
1.0
 31
0.0
 73
     1
 44
1.0
  0
ENDSEC
  0
SECTION
  2
OBJECTS
  0
DICTIONARY
  5
C
330
0
100
AcDbDictionary
281
     1
  3
ACAD_COLOR
350
63
  3
ACAD_DETAILVIEWSTYLE
350
6A
  3
ACAD_GROUP
350
D
  3
ACAD_LAYOUT
350
62
  3
ACAD_MATERIAL
350
10
  3
ACAD_MLEADERSTYLE
350
66
  3
ACAD_MLINESTYLE
350
5F
  3
ACAD_PLOTSETTINGS
350
61
  3
ACAD_PLOTSTYLENAME
350
E
  3
ACAD_SCALELIST
350
42
  3
ACAD_SECTIONVIEWSTYLE
350
68
  3
ACAD_TABLESTYLE
350
64
  3
ACAD_VISUALSTYLE
350
29
  3
ACDB_RECOMPOSE_DATA
350
3CE
  3
AcDbVariableDictionary
350
3C6
  0
DICTIONARY
  5
63
102
{ACAD_REACTORS
330
C
102
}
330
C
100
AcDbDictionary
281
     1
  0
DICTIONARY
  5
6A
102
{ACAD_REACTORS
330
C
102
}
330
C
100
AcDbDictionary
281
     1
  3
Imperial24
350
6B
  0
DICTIONARY
  5
D
102
{ACAD_REACTORS
330
C
102
}
330
C
100
AcDbDictionary
281
     1
  0
DICTIONARY
  5
62
102
{ACAD_REACTORS
330
C
102
}
330
C
100
AcDbDictionary
281
     1
  3
Layout1
350
6F
  3
Layout2
350
77
  3
Model
350
73
  0
DICTIONARY
  5
10
102
{ACAD_REACTORS
330
C
102
}
330
C
100
AcDbDictionary
281
     1
  3
ByBlock
350
19
  3
ByLayer
350
11
  3
Global
350
21
  0
DICTIONARY
  5
66
102
{ACAD_REACTORS
330
C
102
}
330
C
100
AcDbDictionary
281
     1
  3
Standard
350
67
  0
DICTIONARY
  5
5F
102
{ACAD_REACTORS
330
C
102
}
330
C
100
AcDbDictionary
281
     1
  3
Standard
350
60
  0
DICTIONARY
  5
61
102
{ACAD_REACTORS
330
C
102
}
330
C
100
AcDbDictionary
281
     1
  0
ACDBDICTIONARYWDFLT
  5
E
102
{ACAD_REACTORS
330
C
102
}
330
C
100
AcDbDictionary
281
     1
  3
Normal
350
F
100
AcDbDictionaryWithDefault
340
F
  0
DICTIONARY
  5
42
102
{ACAD_REACTORS
330
C
102
}
330
C
100
AcDbDictionary
281
     1
  3
A0
350
43
  3
A1
350
44
  3
A2
350
45
  3
A3
350
46
  3
A4
350
47
  3
A5
350
48
  3
A6
350
49
  3
A7
350
4A
  3
A8
350
4B
  3
A9
350
4C
  3
B0
350
4D
  3
B1
350
4E
  3
B2
350
4F
  3
B3
350
50
  3
B4
350
51
  3
B5
350
52
  3
B6
350
53
  0
DICTIONARY
  5
68
102
{ACAD_REACTORS
330
C
102
}
330
C
100
AcDbDictionary
281
     1
  3
Imperial24
350
69
  0
DICTIONARY
  5
64
102
{ACAD_REACTORS
330
C
102
}
330
C
100
AcDbDictionary
281
     1
  3
Standard
350
65
  0
DICTIONARY
  5
29
102
{ACAD_REACTORS
330
C
102
}
330
C
100
AcDbDictionary
281
     1
  3
2dWireframe
350
2F
  3
Basic
350
2E
  3
Brighten
350
35
  3
ColorChange
350
39
  3
Conceptual
350
32
  3
Dim
350
34
  3
EdgeColorOff
350
41
  3
Facepattern
350
38
  3
Flat
350
2A
  3
FlatWithEdges
350
2B
  3
Gouraud
350
2C
  3
GouraudWithEdges
350
2D
  3
Hidden
350
31
  3
JitterOff
350
3F
  3
Linepattern
350
37
  3
OverhangOff
350
40
  3
Realistic
350
33
  3
Shaded
350
3E
  3
Shaded with edges
350
3D
  3
Shades of Gray
350
3A
  3
Sketchy
350
3B
  3
Thicken
350
36
  3
Wireframe
350
30
  3
X-Ray
350
3C
  0
XRECORD
  5
3CE
102
{ACAD_REACTORS
330
C
102
}
330
C
100
AcDbXrecord
280
     1
 90
        1
330
65
  0
DICTIONARY
  5
3C6
102
{ACAD_REACTORS
330
C
102
}
330
C
100
AcDbDictionary
281
     1
  3
CANNOSCALE
350
3CB
  3
CMLEADERSTYLE
350
3C8
  3
CTABLESTYLE
350
3C7
  3
CVIEWDETAILSTYLE
350
3C9
  3
CVIEWSECTIONSTYLE
350
3CA
  0
ACDBDETAILVIEWSTYLE
  5
6B
102
{ACAD_REACTORS
330
6A
102
}
330
6A
100
AcDbModelDocViewStyle
 70
     0
  3
Imperial24
290
     1
300
Imperial24
 90
        0
100
AcDbDetailViewStyle
 70
     0
 71
     0
 90
        3
 71
     1
340
55
 62
   256
 40
0.24
340
0
 62
   256
 40
0.24
300

 40
0.36
280
     3
 71
     2
340
5D
 90
       25
 62
   256
 71
     3
340
55
 62
   256
 40
0.24
 90
        1
 40
0.75
 90
        1
300
%<\AcVar ViewType \f "%tc1">% %<\AcVar ViewDetailId>%\PSCALE %<\AcVar ViewScale \f "%sn">%
 71
     4
340
5D
 90
       25
 62
   256
340
5D
 90
       25
 62
   256
280
     0
  0
LAYOUT
  5
6F
102
{ACAD_REACTORS
330
62
102
}
330
62
100
AcDbPlotSettings
  1

  2

  4

  6

 40
0.0
 41
0.0
 42
0.0
 43
0.0
 44
0.0
 45
0.0
 46
0.0
 47
0.0
 48
0.0
 49
0.0
140
0.0
141
0.0
142
1.0
143
1.0
 70
   688
 72
     0
 73
     0
 74
     5
  7

 75
    16
147
1.0
 76
     0
 77
     2
 78
   300
148
0.0
149
0.0
100
AcDbLayout
  1
Layout1
 70
     1
 71
     1
 10
0.0
 20
0.0
 11
12.0
 21
9.0
 12
0.0
 22
0.0
 32
0.0
 14
0.0
 24
0.0
 34
0.0
 15
0.0
 25
0.0
 35
0.0
146
0.0
 13
0.0
 23
0.0
 33
0.0
 16
1.0
 26
0.0
 36
0.0
 17
0.0
 27
1.0
 37
0.0
 76
     0
330
6C
  0
LAYOUT
  5
77
102
{ACAD_REACTORS
330
62
102
}
330
62
100
AcDbPlotSettings
  1

  2

  4

  6

 40
0.0
 41
0.0
 42
0.0
 43
0.0
 44
0.0
 45
0.0
 46
0.0
 47
0.0
 48
0.0
 49
0.0
140
0.0
141
0.0
142
1.0
143
1.0
 70
   688
 72
     0
 73
     0
 74
     5
  7

 75
    16
147
1.0
 76
     0
 77
     2
 78
   300
148
0.0
149
0.0
100
AcDbLayout
  1
Layout2
 70
     1
 71
     2
 10
0.0
 20
0.0
 11
12.0
 21
9.0
 12
0.0
 22
0.0
 32
0.0
 14
0.0
 24
0.0
 34
0.0
 15
0.0
 25
0.0
 35
0.0
146
0.0
 13
0.0
 23
0.0
 33
0.0
 16
1.0
 26
0.0
 36
0.0
 17
0.0
 27
1.0
 37
0.0
 76
     0
330
74
  0
LAYOUT
  5
73
102
{ACAD_REACTORS
330
62
102
}
330
62
100
AcDbPlotSettings
  1

  2

  4

  6

 40
0.0
 41
0.0
 42
0.0
 43
0.0
 44
0.0
 45
0.0
 46
0.0
 47
0.0
 48
0.0
 49
0.0
140
0.0
141
0.0
142
1.0
143
1.0
 70
  1712
 72
     0
 73
     0
 74
     0
  7

 75
     0
147
1.0
 76
     0
 77
     2
 78
   300
148
0.0
149
0.0
100
AcDbLayout
  1
Model
 70
     1
 71
     0
 10
0.0
 20
0.0
 11
12.0
 21
9.0
 12
0.0
 22
0.0
 32
0.0
 14
0.0
 24
0.0
 34
0.0
 15
0.0
 25
0.0
 35
0.0
146
0.0
 13
0.0
 23
0.0
 33
0.0
 16
1.0
 26
0.0
 36
0.0
 17
0.0
 27
1.0
 37
0.0
 76
     0
330
70
  0
MATERIAL
  5
19
102
{ACAD_XDICTIONARY
360
1A
102
}
102
{ACAD_REACTORS
330
10
102
}
330
10
100
AcDbMaterial
  1
ByBlock
 72
     0
 43
0.0208333333333333
 43
0.0
 43
0.0
 43
0.0
 43
0.0
 43
0.0208333333333333
 43
0.0
 43
0.0
 43
0.0
 43
0.0
 43
1.0
 43
0.0
 43
0.0
 43
0.0
 43
0.0
 43
1.0
 77
     0
 47
0.0208333333333333
 47
0.0
 47
0.0
 47
0.0
 47
0.0
 47
0.0208333333333333
 47
0.0
 47
0.0
 47
0.0
 47
0.0
 47
1.0
 47
0.0
 47
0.0
 47
0.0
 47
0.0
 47
1.0
171
     0
 49
0.0208333333333333
 49
0.0
 49
0.0
 49
0.0
 49
0.0
 49
0.0208333333333333
 49
0.0
 49
0.0
 49
0.0
 49
0.0
 49
1.0
 49
0.0
 49
0.0
 49
0.0
 49
0.0
 49
1.0
175
     0
142
0.0208333333333333
142
0.0
142
0.0
142
0.0
142
0.0
142
0.0208333333333333
142
0.0
142
0.0
142
0.0
142
0.0
142
1.0
142
0.0
142
0.0
142
0.0
142
0.0
142
1.0
179
     0
144
0.0208333333333333
144
0.0
144
0.0
144
0.0
144
0.0
144
0.0208333333333333
144
0.0
144
0.0
144
0.0
144
0.0
144
1.0
144
0.0
144
0.0
144
0.0
144
0.0
144
1.0
147
0.0208333333333333
147
0.0
147
0.0
147
0.0
147
0.0
147
0.0208333333333333
147
0.0
147
0.0
147
0.0
147
0.0
147
1.0
147
0.0
147
0.0
147
0.0
147
0.0
147
1.0
  0
MATERIAL
  5
11
102
{ACAD_XDICTIONARY
360
12
102
}
102
{ACAD_REACTORS
330
10
102
}
330
10
100
AcDbMaterial
  1
ByLayer
 72
     0
 43
0.0208333333333333
 43
0.0
 43
0.0
 43
0.0
 43
0.0
 43
0.0208333333333333
 43
0.0
 43
0.0
 43
0.0
 43
0.0
 43
1.0
 43
0.0
 43
0.0
 43
0.0
 43
0.0
 43
1.0
 77
     0
 47
0.0208333333333333
 47
0.0
 47
0.0
 47
0.0
 47
0.0
 47
0.0208333333333333
 47
0.0
 47
0.0
 47
0.0
 47
0.0
 47
1.0
 47
0.0
 47
0.0
 47
0.0
 47
0.0
 47
1.0
171
     0
 49
0.0208333333333333
 49
0.0
 49
0.0
 49
0.0
 49
0.0
 49
0.0208333333333333
 49
0.0
 49
0.0
 49
0.0
 49
0.0
 49
1.0
 49
0.0
 49
0.0
 49
0.0
 49
0.0
 49
1.0
175
     0
142
0.0208333333333333
142
0.0
142
0.0
142
0.0
142
0.0
142
0.0208333333333333
142
0.0
142
0.0
142
0.0
142
0.0
142
1.0
142
0.0
142
0.0
142
0.0
142
0.0
142
1.0
179
     0
144
0.0208333333333333
144
0.0
144
0.0
144
0.0
144
0.0
144
0.0208333333333333
144
0.0
144
0.0
144
0.0
144
0.0
144
1.0
144
0.0
144
0.0
144
0.0
144
0.0
144
1.0
147
0.0208333333333333
147
0.0
147
0.0
147
0.0
147
0.0
147
0.0208333333333333
147
0.0
147
0.0
147
0.0
147
0.0
147
1.0
147
0.0
147
0.0
147
0.0
147
0.0
147
1.0
  0
MATERIAL
  5
21
102
{ACAD_XDICTIONARY
360
22
102
}
102
{ACAD_REACTORS
330
10
102
}
330
10
100
AcDbMaterial
  1
Global
 72
     0
 43
0.0208333333333333
 43
0.0
 43
0.0
 43
0.0
 43
0.0
 43
0.0208333333333333
 43
0.0
 43
0.0
 43
0.0
 43
0.0
 43
1.0
 43
0.0
 43
0.0
 43
0.0
 43
0.0
 43
1.0
 77
     0
 47
0.0208333333333333
 47
0.0
 47
0.0
 47
0.0
 47
0.0
 47
0.0208333333333333
 47
0.0
 47
0.0
 47
0.0
 47
0.0
 47
1.0
 47
0.0
 47
0.0
 47
0.0
 47
0.0
 47
1.0
171
     0
 49
0.0208333333333333
 49
0.0
 49
0.0
 49
0.0
 49
0.0
 49
0.0208333333333333
 49
0.0
 49
0.0
 49
0.0
 49
0.0
 49
1.0
 49
0.0
 49
0.0
 49
0.0
 49
0.0
 49
1.0
175
     0
142
0.0208333333333333
142
0.0
142
0.0
142
0.0
142
0.0
142
0.0208333333333333
142
0.0
142
0.0
142
0.0
142
0.0
142
1.0
142
0.0
142
0.0
142
0.0
142
0.0
142
1.0
179
     0
144
0.0208333333333333
144
0.0
144
0.0
144
0.0
144
0.0
144
0.0208333333333333
144
0.0
144
0.0
144
0.0
144
0.0
144
1.0
144
0.0
144
0.0
144
0.0
144
0.0
144
1.0
147
0.0208333333333333
147
0.0
147
0.0
147
0.0
147
0.0
147
0.0208333333333333
147
0.0
147
0.0
147
0.0
147
0.0
147
1.0
147
0.0
147
0.0
147
0.0
147
0.0
147
1.0
  0
MLEADERSTYLE
  5
67
102
{ACAD_REACTORS
330
66
102
}
330
66
100
AcDbMLeaderStyle
179
     2
170
     2
171
     1
172
     0
 90
        2
 40
0.0
 41
0.0
173
     1
 91
-1056964608
340
5B
 92
       -2
290
     1
 42
0.09
291
     1
 43
0.36
  3
Standard
 44
0.18
300

342
55
174
     1
178
     6
175
     1
176
     0
 93
-1056964608
 45
0.18
292
     0
297
     0
 46
0.18
 94
-1056964608
 47
1.0
 49
1.0
140
1.0
293
     1
141
0.0
294
     1
177
     0
142
1.0
295
     1
296
     0
143
0.125
271
     0
272
     9
273
     9
298
     1
  0
MLINESTYLE
  5
60
102
{ACAD_REACTORS
330
5F
102
}
330
5F
100
AcDbMlineStyle
  2
STANDARD
 70
     0
  3

 62
   256
 51
90.0
 52
90.0
 71
     2
 49
0.5
 62
   256
  6
BYLAYER
 49
-0.5
 62
   256
  6
BYLAYER
  0
ACDBPLACEHOLDER
  5
F
102
{ACAD_REACTORS
330
E
102
}
330
E
  0
SCALE
  5
43
102
{ACAD_REACTORS
330
42
102
}
330
42
100
AcDbScale
 70
     0
300
1:1
140
1.0
141
1.0
290
     1
  0
SCALE
  5
44
102
{ACAD_REACTORS
330
42
102
}
330
42
100
AcDbScale
 70
     0
300
1/128" = 1'-0"
140
0.0078125
141
12.0
290
     0
  0
SCALE
  5
45
102
{ACAD_REACTORS
330
42
102
}
330
42
100
AcDbScale
 70
     0
300
1/64" = 1'-0"
140
0.015625
141
12.0
290
     0
  0
SCALE
  5
46
102
{ACAD_REACTORS
330
42
102
}
330
42
100
AcDbScale
 70
     0
300
1/32" = 1'-0"
140
0.03125
141
12.0
290
     0
  0
SCALE
  5
47
102
{ACAD_REACTORS
330
42
102
}
330
42
100
AcDbScale
 70
     0
300
1/16" = 1'-0"
140
0.0625
141
12.0
290
     0
  0
SCALE
  5
48
102
{ACAD_REACTORS
330
42
102
}
330
42
100
AcDbScale
 70
     0
300
3/32" = 1'-0"
140
0.09375
141
12.0
290
     0
  0
SCALE
  5
49
102
{ACAD_REACTORS
330
42
102
}
330
42
100
AcDbScale
 70
     0
300
1/8" = 1'-0"
140
0.125
141
12.0
290
     0
  0
SCALE
  5
4A
102
{ACAD_REACTORS
330
42
102
}
330
42
100
AcDbScale
 70
     0
300
3/16" = 1'-0"
140
0.1875
141
12.0
290
     0
  0
SCALE
  5
4B
102
{ACAD_REACTORS
330
42
102
}
330
42
100
AcDbScale
 70
     0
300
1/4" = 1'-0"
140
0.25
141
12.0
290
     0
  0
SCALE
  5
4C
102
{ACAD_REACTORS
330
42
102
}
330
42
100
AcDbScale
 70
     0
300
3/8" = 1'-0"
140
0.375
141
12.0
290
     0
  0
SCALE
  5
4D
102
{ACAD_REACTORS
330
42
102
}
330
42
100
AcDbScale
 70
     0
300
1/2" = 1'-0"
140
0.5
141
12.0
290
     0
  0
SCALE
  5
4E
102
{ACAD_REACTORS
330
42
102
}
330
42
100
AcDbScale
 70
     0
300
3/4" = 1'-0"
140
0.75
141
12.0
290
     0
  0
SCALE
  5
4F
102
{ACAD_REACTORS
330
42
102
}
330
42
100
AcDbScale
 70
     0
300
1" = 1'-0"
140
1.0
141
12.0
290
     0
  0
SCALE
  5
50
102
{ACAD_REACTORS
330
42
102
}
330
42
100
AcDbScale
 70
     0
300
1-1/2" = 1'-0"
140
1.5
141
12.0
290
     0
  0
SCALE
  5
51
102
{ACAD_REACTORS
330
42
102
}
330
42
100
AcDbScale
 70
     0
300
3" = 1'-0"
140
3.0
141
12.0
290
     0
  0
SCALE
  5
52
102
{ACAD_REACTORS
330
42
102
}
330
42
100
AcDbScale
 70
     0
300
6" = 1'-0"
140
6.0
141
12.0
290
     0
  0
SCALE
  5
53
102
{ACAD_REACTORS
330
42
102
}
330
42
100
AcDbScale
 70
     0
300
1'-0" = 1'-0"
140
12.0
141
12.0
290
     0
  0
ACDBSECTIONVIEWSTYLE
  5
69
102
{ACAD_REACTORS
330
68
102
}
330
68
100
AcDbModelDocViewStyle
 70
     0
  3
Imperial24
290
     1
300
Imperial24
 90
        0
100
AcDbSectionViewStyle
 70
     0
 71
     0
 90
       78
 71
     1
340
55
 62
   256
 40
0.24
340
0
340
0
 62
   256
 40
0.24
300
I, O, Q, S, X, Z
 40
0.48
 90
        3
 40
0.18
 90
        1
 71
     2
340
5D
 90
       25
 62
   256
340
5D
 90
       50
 62
   256
 40
0.24
 40
0.0
 40
0.24
 71
     3
340
55
 62
   256
 40
0.24
 90
        1
 40
0.75
 90
        1
300
%<\AcVar ViewType \f "%tc1">% %<\AcVar ViewSectionStartId>%-%<\AcVar ViewSectionEndId>%\PSCALE %<\AcVar ViewScale \f "%sn">%
 71
     4
 62
   256
 62
   257
300
ANSI31
 40
1.0
 90
        0
290
     0
290
     0
 90
        6
 40
0.0
 40
1.570796326794896
 40
0.2617993877991494
 40
1.308996938995747
 40
-0.2617993877991494
 40
1.832595714594046
  0
TABLESTYLE
  5
65
102
{ACAD_XDICTIONARY
360
3CC
102
}
102
{ACAD_REACTORS
330
64
102
}
330
64
100
AcDbTableStyle
280
     0
  3
Standard
 70
     0
 71
     0
 40
0.06
 41
0.06
280
     0
281
     0
  7
Standard
140
0.18
170
     2
 62
     0
 63
     7
283
     0
 90
      512
 91
        0
  1

274
    -2
284
     1
 64
     0
275
    -2
285
     1
 65
     0
276
    -2
286
     1
 66
     0
277
    -2
287
     1
 67
     0
278
    -2
288
     1
 68
     0
279
    -2
289
     1
 69
     0
  7
Standard
140
0.25
170
     5
 62
     0
 63
     7
283
     0
 90
      512
 91
        0
  1

274
    -2
284
     1
 64
     0
275
    -2
285
     1
 65
     0
276
    -2
286
     1
 66
     0
277
    -2
287
     1
 67
     0
278
    -2
288
     1
 68
     0
279
    -2
289
     1
 69
     0
  7
Standard
140
0.18
170
     5
 62
     0
 63
     7
283
     0
 90
      512
 91
        0
  1

274
    -2
284
     1
 64
     0
275
    -2
285
     1
 65
     0
276
    -2
286
     1
 66
     0
277
    -2
287
     1
 67
     0
278
    -2
288
     1
 68
     0
279
    -2
289
     1
 69
     0
  0
VISUALSTYLE
  5
2F
102
{ACAD_REACTORS
330
29
102
}
330
29
100
AcDbVisualStyle
  2
2dWireframe
 70
     4
177
     3
291
     0
 70
    58
 90
        0
176
     1
 90
        2
176
     1
 90
        0
176
     1
 90
        0
176
     1
 40
0.6
176
     1
 40
30.0
176
     1
 62
     7
420
 16777215
176
     1
 90
        1
176
     1
 90
        4
176
     1
 62
     7
176
     1
 62
   257
176
     1
 90
        1
176
     1
 90
        1
176
     1
 40
1.0
176
     1
 90
        0
176
     1
 62
   257
176
     1
 40
1.0
176
     1
 90
        1
176
     1
 90
        6
176
     1
 90
        2
176
     1
 62
     7
176
     1
 90
        5
176
     1
 90
        0
176
     1
 90
        0
176
     1
290
     0
176
     1
 90
        1
176
     1
 40
0.0
176
     1
 90
        0
176
     1
290
     1
176
     1
290
     1
176
     1
290
     0
176
     1
290
     0
176
     1
290
     0
176
     1
290
     0
176
     1
290
     0
176
     1
290
     0
176
     1
290
     0
176
     1
 90
       50
176
     1
 40
0.0
176
     1
 40
1.0
176
     1
 90
        0
176
     1
 62
    18
420
        0
176
     1
 90
       50
176
     1
 90
        3
176
     1
 62
     5
420
      255
176
     1
290
     0
176
     1
 90
       50
176
     1
 90
       50
176
     1
 90
       50
176
     1
290
     0
176
     1
 90
       50
176
     1
 62
   256
176
     0
 40
1.0
176
     0
 90
        2
176
     1
  1
strokes_ogs.tif
176
     1
290
     0
176
     1
 40
1.0
176
     1
 40
1.0
176
     1
  0
VISUALSTYLE
  5
2E
102
{ACAD_REACTORS
330
29
102
}
330
29
100
AcDbVisualStyle
  2
Basic
 70
     7
177
     3
291
     1
 70
    58
 90
        1
176
     1
 90
        0
176
     1
 90
        1
176
     1
 90
        0
176
     1
 40
0.6
176
     1
 40
30.0
176
     1
 62
     7
420
 16777215
176
     1
 90
        0
176
     1
 90
        4
176
     1
 62
     7
176
     1
 62
   257
176
     1
 90
        1
176
     1
 90
        1
176
     1
 40
1.0
176
     1
 90
        8
176
     1
 62
     7
176
     1
 40
1.0
176
     1
 90
        1
176
     1
 90
        6
176
     1
 90
        2
176
     1
 62
     7
176
     1
 90
        5
176
     1
 90
        0
176
     1
 90
        0
176
     1
290
     0
176
     1
 90
        1
176
     1
 40
0.0
176
     1
 90
        0
176
     1
290
     0
176
     1
290
     1
176
     1
290
     1
176
     1
290
     0
176
     1
290
     0
176
     1
290
     0
176
     1
290
     0
176
     1
290
     0
176
     1
290
     0
176
     1
 90
       50
176
     1
 40
0.0
176
     1
 40
1.0
176
     1
 90
        0
176
     1
 62
    18
420
        0
176
     1
 90
       50
176
     1
 90
        3
176
     1
 62
     5
420
      255
176
     1
290
     0
176
     1
 90
       50
176
     1
 90
       50
176
     1
 90
       50
176
     1
290
     0
176
     1
 90
       50
176
     1
 62
   256
176
     0
 40
1.0
176
     0
 90
        2
176
     1
  1
strokes_ogs.tif
176
     1
290
     0
176
     1
 40
1.0
176
     1
 40
1.0
176
     1
  0
VISUALSTYLE
  5
35
102
{ACAD_REACTORS
330
29
102
}
330
29
100
AcDbVisualStyle
  2
Brighten
 70
    12
177
     3
291
     1
 70
    58
 90
        2
176
     1
 90
        2
176
     1
 90
        0
176
     1
 90
        0
176
     1
 40
0.6
176
     1
 40
30.0
176
     1
 62
     7
420
 16777215
176
     1
 90
        1
176
     1
 90
        4
176
     1
 62
     7
176
     1
 62
   257
176
     1
 90
        1
176
     1
 90
        1
176
     1
 40
1.0
176
     1
 90
        8
176
     1
 62
     7
176
     1
 40
1.0
176
     1
 90
        1
176
     1
 90
        6
176
     1
 90
        2
176
     1
 62
     7
176
     1
 90
        5
176
     1
 90
        0
176
     1
 90
        0
176
     1
290
     0
176
     1
 90
        1
176
     1
 40
50.0
176
     1
 90
        0
176
     1
290
     0
176
     1
290
     1
176
     1
290
     1
176
     1
290
     0
176
     1
290
     0
176
     1
290
     0
176
     1
290
     0
176
     1
290
     0
176
     1
290
     0
176
     1
 90
       50
176
     1
 40
0.0
176
     1
 40
1.0
176
     1
 90
        0
176
     1
 62
    18
420
        0
176
     1
 90
       50
176
     1
 90
        3
176
     1
 62
     5
420
      255
176
     1
290
     0
176
     1
 90
       50
176
     1
 90
       50
176
     1
 90
       50
176
     1
290
     0
176
     1
 90
       50
176
     1
 62
   256
176
     0
 40
1.0
176
     0
 90
        2
176
     1
  1
strokes_ogs.tif
176
     1
290
     0
176
     1
 40
1.0
176
     1
 40
1.0
176
     1
  0
VISUALSTYLE
  5
39
102
{ACAD_REACTORS
330
29
102
}
330
29
100
AcDbVisualStyle
  2
ColorChange
 70
    16
177
     3
291
     1
 70
    58
 90
        2
176
     1
 90
        2
176
     1
 90
        3
176
     1
 90
        0
176
     1
 40
0.6
176
     1
 40
30.0
176
     1
 62
     8
420
  8421504
176
     1
 90
        1
176
     1
 90
        4
176
     1
 62
     7
176
     1
 62
   257
176
     1
 90
        1
176
     1
 90
        1
176
     1
 40
1.0
176
     1
 90
        8
176
     1
 62
     8
420
  8421504
176
     1
 40
1.0
176
     1
 90
        1
176
     1
 90
        6
176
     1
 90
        2
176
     1
 62
     7
176
     1
 90
        5
176
     1
 90
        0
176
     1
 90
        0
176
     1
290
     0
176
     1
 90
        1
176
     1
 40
0.0
176
     1
 90
        0
176
     1
290
     0
176
     1
290
     1
176
     1
290
     1
176
     1
290
     0
176
     1
290
     0
176
     1
290
     0
176
     1
290
     0
176
     1
290
     0
176
     1
290
     0
176
     1
 90
       50
176
     1
 40
0.0
176
     1
 40
1.0
176
     1
 90
        0
176
     1
 62
    18
420
        0
176
     1
 90
       50
176
     1
 90
        3
176
     1
 62
     5
420
      255
176
     1
290
     0
176
     1
 90
       50
176
     1
 90
       50
176
     1
 90
       50
176
     1
290
     0
176
     1
 90
       50
176
     1
 62
   256
176
     0
 40
1.0
176
     0
 90
        2
176
     1
  1
strokes_ogs.tif
176
     1
290
     0
176
     1
 40
1.0
176
     1
 40
1.0
176
     1
  0
VISUALSTYLE
  5
32
102
{ACAD_REACTORS
330
29
102
}
330
29
100
AcDbVisualStyle
  2
Conceptual
 70
     9
177
     3
291
     0
 70
    58
 90
        3
176
     1
 90
        2
176
     1
 90
        0
176
     1
 90
        0
176
     1
 40
0.6
176
     1
 40
30.0
176
     1
 62
     7
420
 16777215
176
     1
 90
        2
176
     1
 90
        2
176
     1
 62
     7
176
     1
 62
   257
176
     1
 90
        1
176
     1
 90
        1
176
     1
 40
179.0
176
     1
 90
        8
176
     1
 62
     7
176
     1
 40
1.0
176
     1
 90
        1
176
     1
 90
        6
176
     1
 90
        2
176
     1
 62
     7
176
     1
 90
        3
176
     1
 90
        0
176
     1
 90
        0
176
     1
290
     0
176
     1
 90
        1
176
     1
 40
0.0
176
     1
 90
        0
176
     1
290
     0
176
     1
290
     1
176
     1
290
     1
176
     1
290
     0
176
     1
290
     0
176
     1
290
     0
176
     1
290
     0
176
     1
290
     0
176
     1
290
     0
176
     1
 90
       50
176
     1
 40
0.0
176
     1
 40
1.0
176
     1
 90
        0
176
     1
 62
    18
420
        0
176
     1
 90
       50
176
     1
 90
        3
176
     1
 62
     5
420
      255
176
     1
290
     0
176
     1
 90
       50
176
     1
 90
       50
176
     1
 90
       50
176
     1
290
     0
176
     1
 90
       50
176
     1
 62
   256
176
     0
 40
1.0
176
     0
 90
        2
176
     1
  1
strokes_ogs.tif
176
     1
290
     0
176
     1
 40
1.0
176
     1
 40
1.0
176
     1
  0
VISUALSTYLE
  5
34
102
{ACAD_REACTORS
330
29
102
}
330
29
100
AcDbVisualStyle
  2
Dim
 70
    11
177
     3
291
     1
 70
    58
 90
        2
176
     1
 90
        2
176
     1
 90
        0
176
     1
 90
        0
176
     1
 40
0.6
176
     1
 40
30.0
176
     1
 62
     7
420
 16777215
176
     1
 90
        1
176
     1
 90
        4
176
     1
 62
     7
176
     1
 62
   257
176
     1
 90
        1
176
     1
 90
        1
176
     1
 40
1.0
176
     1
 90
        8
176
     1
 62
     7
176
     1
 40
1.0
176
     1
 90
        1
176
     1
 90
        6
176
     1
 90
        2
176
     1
 62
     7
176
     1
 90
        5
176
     1
 90
        0
176
     1
 90
        0
176
     1
290
     0
176
     1
 90
        1
176
     1
 40
-50.0
176
     1
 90
        0
176
     1
290
     0
176
     1
290
     1
176
     1
290
     1
176
     1
290
     0
176
     1
290
     0
176
     1
290
     0
176
     1
290
     0
176
     1
290
     0
176
     1
290
     0
176
     1
 90
       50
176
     1
 40
0.0
176
     1
 40
1.0
176
     1
 90
        0
176
     1
 62
    18
420
        0
176
     1
 90
       50
176
     1
 90
        3
176
     1
 62
     5
420
      255
176
     1
290
     0
176
     1
 90
       50
176
     1
 90
       50
176
     1
 90
       50
176
     1
290
     0
176
     1
 90
       50
176
     1
 62
   256
176
     0
 40
1.0
176
     0
 90
        2
176
     1
  1
strokes_ogs.tif
176
     1
290
     0
176
     1
 40
1.0
176
     1
 40
1.0
176
     1
  0
VISUALSTYLE
  5
41
102
{ACAD_REACTORS
330
29
102
}
330
29
100
AcDbVisualStyle
  2
EdgeColorOff
 70
    22
177
     3
291
     1
 70
    58
 90
        2
176
     0
 90
        2
176
     0
 90
        0
176
     0
 90
        0
176
     0
 40
0.6
176
     0
 40
30.0
176
     0
 62
     7
420
 16777215
176
     0
 90
        1
176
     0
 90
        4
176
     0
 62
     7
176
     0
 62
   257
176
     0
 90
        1
176
     0
 90
        1
176
     0
 40
1.0
176
     0
 90
        8
176
     2
 62
     7
176
     0
 40
1.0
176
     0
 90
        1
176
     0
 90
        6
176
     0
 90
        2
176
     0
 62
     7
176
     0
 90
        5
176
     0
 90
        0
176
     0
 90
        0
176
     0
290
     0
176
     0
 90
        1
176
     0
 40
0.0
176
     0
 90
        0
176
     0
290
     0
176
     0
290
     1
176
     0
290
     1
176
     0
290
     0
176
     0
290
     0
176
     0
290
     0
176
     0
290
     0
176
     0
290
     0
176
     0
290
     0
176
     0
 90
       50
176
     0
 40
0.0
176
     0
 40
1.0
176
     0
 90
        0
176
     0
 62
    18
420
        0
176
     0
 90
       50
176
     0
 90
        3
176
     0
 62
     5
420
      255
176
     0
290
     0
176
     0
 90
       50
176
     0
 90
       50
176
     0
 90
       50
176
     0
290
     0
176
     0
 90
       50
176
     0
 62
   256
176
     0
 40
1.0
176
     0
 90
        2
176
     0
  1
strokes_ogs.tif
176
     0
290
     0
176
     0
 40
1.0
176
     0
 40
1.0
176
     0
  0
VISUALSTYLE
  5
38
102
{ACAD_REACTORS
330
29
102
}
330
29
100
AcDbVisualStyle
  2
Facepattern
 70
    15
177
     3
291
     1
 70
    58
 90
        2
176
     1
 90
        2
176
     1
 90
        0
176
     1
 90
        0
176
     1
 40
0.6
176
     1
 40
30.0
176
     1
 62
     7
420
 16777215
176
     1
 90
        1
176
     1
 90
        4
176
     1
 62
     7
176
     1
 62
   257
176
     1
 90
        1
176
     1
 90
        1
176
     1
 40
1.0
176
     1
 90
        8
176
     1
 62
     7
176
     1
 40
1.0
176
     1
 90
        1
176
     1
 90
        6
176
     1
 90
        2
176
     1
 62
     7
176
     1
 90
        5
176
     1
 90
        0
176
     1
 90
        0
176
     1
290
     0
176
     1
 90
        1
176
     1
 40
0.0
176
     1
 90
        0
176
     1
290
     0
176
     1
290
     1
176
     1
290
     1
176
     1
290
     0
176
     1
290
     0
176
     1
290
     0
176
     1
290
     0
176
     1
290
     0
176
     1
290
     0
176
     1
 90
       50
176
     1
 40
0.0
176
     1
 40
1.0
176
     1
 90
        0
176
     1
 62
    18
420
        0
176
     1
 90
       50
176
     1
 90
        3
176
     1
 62
     5
420
      255
176
     1
290
     0
176
     1
 90
       50
176
     1
 90
       50
176
     1
 90
       50
176
     1
290
     0
176
     1
 90
       50
176
     1
 62
   256
176
     0
 40
1.0
176
     0
 90
        2
176
     1
  1
strokes_ogs.tif
176
     1
290
     0
176
     1
 40
1.0
176
     1
 40
1.0
176
     1
  0
VISUALSTYLE
  5
2A
102
{ACAD_REACTORS
330
29
102
}
330
29
100
AcDbVisualStyle
  2
Flat
 70
     0
177
     3
291
     1
 70
    58
 90
        2
176
     1
 90
        1
176
     1
 90
        1
176
     1
 90
        2
176
     1
 40
0.6
176
     1
 40
30.0
176
     1
 62
     7
420
 16777215
176
     1
 90
        0
176
     1
 90
        0
176
     1
 62
     7
176
     1
 62
   257
176
     1
 90
        1
176
     1
 90
        1
176
     1
 40
1.0
176
     1
 90
        8
176
     1
 62
     7
176
     1
 40
1.0
176
     1
 90
        1
176
     1
 90
        6
176
     1
 90
        2
176
     1
 62
     7
176
     1
 90
        5
176
     1
 90
        0
176
     1
 90
        0
176
     1
290
     0
176
     1
 90
       13
176
     1
 40
0.0
176
     1
 90
        0
176
     1
290
     0
176
     1
290
     1
176
     1
290
     1
176
     1
290
     0
176
     1
290
     0
176
     1
290
     0
176
     1
290
     0
176
     1
290
     0
176
     1
290
     0
176
     1
 90
       50
176
     1
 40
0.0
176
     1
 40
1.0
176
     1
 90
        0
176
     1
 62
    18
420
        0
176
     1
 90
       50
176
     1
 90
        3
176
     1
 62
     5
420
      255
176
     1
290
     0
176
     1
 90
       50
176
     1
 90
       50
176
     1
 90
       50
176
     1
290
     0
176
     1
 90
       50
176
     1
 62
   256
176
     0
 40
1.0
176
     0
 90
        2
176
     1
  1
strokes_ogs.tif
176
     1
290
     0
176
     1
 40
1.0
176
     1
 40
1.0
176
     1
  0
VISUALSTYLE
  5
2B
102
{ACAD_REACTORS
330
29
102
}
330
29
100
AcDbVisualStyle
  2
FlatWithEdges
 70
     1
177
     3
291
     1
 70
    58
 90
        2
176
     1
 90
        1
176
     1
 90
        1
176
     1
 90
        2
176
     1
 40
0.6
176
     1
 40
30.0
176
     1
 62
     7
420
 16777215
176
     1
 90
        1
176
     1
 90
        0
176
     1
 62
     7
176
     1
 62
   257
176
     1
 90
        1
176
     1
 90
        1
176
     1
 40
1.0
176
     1
 90
        0
176
     1
 62
   257
176
     1
 40
1.0
176
     1
 90
        1
176
     1
 90
        6
176
     1
 90
        2
176
     1
 62
     7
176
     1
 90
        5
176
     1
 90
        0
176
     1
 90
        0
176
     1
290
     0
176
     1
 90
       13
176
     1
 40
0.0
176
     1
 90
        0
176
     1
290
     0
176
     1
290
     1
176
     1
290
     1
176
     1
290
     0
176
     1
290
     0
176
     1
290
     0
176
     1
290
     0
176
     1
290
     0
176
     1
290
     0
176
     1
 90
       50
176
     1
 40
0.0
176
     1
 40
1.0
176
     1
 90
        0
176
     1
 62
    18
420
        0
176
     1
 90
       50
176
     1
 90
        3
176
     1
 62
     5
420
      255
176
     1
290
     0
176
     1
 90
       50
176
     1
 90
       50
176
     1
 90
       50
176
     1
290
     0
176
     1
 90
       50
176
     1
 62
   256
176
     0
 40
1.0
176
     0
 90
        2
176
     1
  1
strokes_ogs.tif
176
     1
290
     0
176
     1
 40
1.0
176
     1
 40
1.0
176
     1
  0
VISUALSTYLE
  5
2C
102
{ACAD_REACTORS
330
29
102
}
330
29
100
AcDbVisualStyle
  2
Gouraud
 70
     2
177
     3
291
     1
 70
    58
 90
        2
176
     1
 90
        2
176
     1
 90
        1
176
     1
 90
        2
176
     1
 40
0.6
176
     1
 40
30.0
176
     1
 62
     7
420
 16777215
176
     1
 90
        0
176
     1
 90
        0
176
     1
 62
     7
176
     1
 62
   257
176
     1
 90
        1
176
     1
 90
        1
176
     1
 40
1.0
176
     1
 90
        0
176
     1
 62
     7
176
     1
 40
1.0
176
     1
 90
        1
176
     1
 90
        6
176
     1
 90
        2
176
     1
 62
     7
176
     1
 90
        5
176
     1
 90
        0
176
     1
 90
        0
176
     1
290
     0
176
     1
 90
       13
176
     1
 40
0.0
176
     1
 90
        0
176
     1
290
     0
176
     1
290
     1
176
     1
290
     1
176
     1
290
     0
176
     1
290
     0
176
     1
290
     0
176
     1
290
     0
176
     1
290
     0
176
     1
290
     0
176
     1
 90
       50
176
     1
 40
0.0
176
     1
 40
1.0
176
     1
 90
        0
176
     1
 62
    18
420
        0
176
     1
 90
       50
176
     1
 90
        3
176
     1
 62
     5
420
      255
176
     1
290
     0
176
     1
 90
       50
176
     1
 90
       50
176
     1
 90
       50
176
     1
290
     0
176
     1
 90
       50
176
     1
 62
   256
176
     0
 40
1.0
176
     0
 90
        2
176
     1
  1
strokes_ogs.tif
176
     1
290
     0
176
     1
 40
1.0
176
     1
 40
1.0
176
     1
  0
VISUALSTYLE
  5
2D
102
{ACAD_REACTORS
330
29
102
}
330
29
100
AcDbVisualStyle
  2
GouraudWithEdges
 70
     3
177
     3
291
     1
 70
    58
 90
        2
176
     1
 90
        2
176
     1
 90
        1
176
     1
 90
        2
176
     1
 40
0.6
176
     1
 40
30.0
176
     1
 62
     7
420
 16777215
176
     1
 90
        1
176
     1
 90
        0
176
     1
 62
     7
176
     1
 62
   257
176
     1
 90
        1
176
     1
 90
        1
176
     1
 40
1.0
176
     1
 90
        0
176
     1
 62
   257
176
     1
 40
1.0
176
     1
 90
        1
176
     1
 90
        6
176
     1
 90
        2
176
     1
 62
     7
176
     1
 90
        5
176
     1
 90
        0
176
     1
 90
        0
176
     1
290
     0
176
     1
 90
       13
176
     1
 40
0.0
176
     1
 90
        0
176
     1
290
     0
176
     1
290
     1
176
     1
290
     1
176
     1
290
     0
176
     1
290
     0
176
     1
290
     0
176
     1
290
     0
176
     1
290
     0
176
     1
290
     0
176
     1
 90
       50
176
     1
 40
0.0
176
     1
 40
1.0
176
     1
 90
        0
176
     1
 62
    18
420
        0
176
     1
 90
       50
176
     1
 90
        3
176
     1
 62
     5
420
      255
176
     1
290
     0
176
     1
 90
       50
176
     1
 90
       50
176
     1
 90
       50
176
     1
290
     0
176
     1
 90
       50
176
     1
 62
   256
176
     0
 40
1.0
176
     0
 90
        2
176
     1
  1
strokes_ogs.tif
176
     1
290
     0
176
     1
 40
1.0
176
     1
 40
1.0
176
     1
  0
VISUALSTYLE
  5
31
102
{ACAD_REACTORS
330
29
102
}
330
29
100
AcDbVisualStyle
  2
Hidden
 70
     6
177
     3
291
     0
 70
    58
 90
        1
176
     1
 90
        2
176
     1
 90
        2
176
     1
 90
        0
176
     1
 40
0.6
176
     1
 40
30.0
176
     1
 62
     7
420
 16777215
176
     1
 90
        2
176
     1
 90
        2
176
     1
 62
     7
176
     1
 62
   257
176
     1
 90
        2
176
     1
 90
        1
176
     1
 40
40.0
176
     1
 90
        0
176
     1
 62
   257
176
     1
 40
1.0
176
     1
 90
        1
176
     1
 90
        6
176
     1
 90
        2
176
     1
 62
     7
176
     1
 90
        3
176
     1
 90
        0
176
     1
 90
        0
176
     1
290
     0
176
     1
 90
        1
176
     1
 40
0.0
176
     1
 90
        0
176
     1
290
     0
176
     1
290
     1
176
     1
290
     1
176
     1
290
     0
176
     1
290
     0
176
     1
290
     0
176
     1
290
     0
176
     1
290
     0
176
     1
290
     0
176
     1
 90
       50
176
     1
 40
0.0
176
     1
 40
1.0
176
     1
 90
        0
176
     1
 62
    18
420
        0
176
     1
 90
       50
176
     1
 90
        3
176
     1
 62
     5
420
      255
176
     1
290
     0
176
     1
 90
       50
176
     1
 90
       50
176
     1
 90
       50
176
     1
290
     0
176
     1
 90
       50
176
     1
 62
   256
176
     0
 40
1.0
176
     0
 90
        2
176
     1
  1
strokes_ogs.tif
176
     1
290
     0
176
     1
 40
1.0
176
     1
 40
1.0
176
     1
  0
VISUALSTYLE
  5
3F
102
{ACAD_REACTORS
330
29
102
}
330
29
100
AcDbVisualStyle
  2
JitterOff
 70
    20
177
     3
291
     1
 70
    58
 90
        2
176
     0
 90
        2
176
     0
 90
        0
176
     0
 90
        0
176
     0
 40
0.6
176
     0
 40
30.0
176
     0
 62
     7
420
 16777215
176
     0
 90
        1
176
     0
 90
        4
176
     0
 62
     7
176
     0
 62
   257
176
     0
 90
        1
176
     0
 90
        1
176
     0
 40
1.0
176
     0
 90
       10
176
     2
 62
     7
176
     0
 40
1.0
176
     0
 90
        1
176
     0
 90
        6
176
     0
 90
        2
176
     0
 62
     7
176
     0
 90
        5
176
     0
 90
        0
176
     0
 90
        0
176
     0
290
     0
176
     0
 90
        1
176
     0
 40
0.0
176
     0
 90
        0
176
     0
290
     0
176
     0
290
     1
176
     0
290
     1
176
     0
290
     0
176
     0
290
     0
176
     0
290
     0
176
     0
290
     0
176
     0
290
     0
176
     0
290
     0
176
     0
 90
       50
176
     0
 40
0.0
176
     0
 40
1.0
176
     0
 90
        0
176
     0
 62
    18
420
        0
176
     0
 90
       50
176
     0
 90
        3
176
     0
 62
     5
420
      255
176
     0
290
     0
176
     0
 90
       50
176
     0
 90
       50
176
     0
 90
       50
176
     0
290
     0
176
     0
 90
       50
176
     0
 62
   256
176
     0
 40
1.0
176
     0
 90
        2
176
     0
  1
strokes_ogs.tif
176
     0
290
     0
176
     0
 40
1.0
176
     0
 40
1.0
176
     0
  0
VISUALSTYLE
  5
37
102
{ACAD_REACTORS
330
29
102
}
330
29
100
AcDbVisualStyle
  2
Linepattern
 70
    14
177
     3
291
     1
 70
    58
 90
        2
176
     1
 90
        2
176
     1
 90
        0
176
     1
 90
        0
176
     1
 40
0.6
176
     1
 40
30.0
176
     1
 62
     7
420
 16777215
176
     1
 90
        1
176
     1
 90
        4
176
     1
 62
     7
176
     1
 62
   257
176
     1
 90
        7
176
     1
 90
        7
176
     1
 40
1.0
176
     1
 90
        8
176
     1
 62
     7
176
     1
 40
1.0
176
     1
 90
        1
176
     1
 90
        6
176
     1
 90
        2
176
     1
 62
     7
176
     1
 90
        5
176
     1
 90
        0
176
     1
 90
        0
176
     1
290
     0
176
     1
 90
        1
176
     1
 40
0.0
176
     1
 90
        0
176
     1
290
     0
176
     1
290
     1
176
     1
290
     1
176
     1
290
     0
176
     1
290
     0
176
     1
290
     0
176
     1
290
     0
176
     1
290
     0
176
     1
290
     0
176
     1
 90
       50
176
     1
 40
0.0
176
     1
 40
1.0
176
     1
 90
        0
176
     1
 62
    18
420
        0
176
     1
 90
       50
176
     1
 90
        3
176
     1
 62
     5
420
      255
176
     1
290
     0
176
     1
 90
       50
176
     1
 90
       50
176
     1
 90
       50
176
     1
290
     0
176
     1
 90
       50
176
     1
 62
   256
176
     0
 40
1.0
176
     0
 90
        2
176
     1
  1
strokes_ogs.tif
176
     1
290
     0
176
     1
 40
1.0
176
     1
 40
1.0
176
     1
  0
VISUALSTYLE
  5
40
102
{ACAD_REACTORS
330
29
102
}
330
29
100
AcDbVisualStyle
  2
OverhangOff
 70
    21
177
     3
291
     1
 70
    58
 90
        2
176
     0
 90
        2
176
     0
 90
        0
176
     0
 90
        0
176
     0
 40
0.6
176
     0
 40
30.0
176
     0
 62
     7
420
 16777215
176
     0
 90
        1
176
     0
 90
        4
176
     0
 62
     7
176
     0
 62
   257
176
     0
 90
        1
176
     0
 90
        1
176
     0
 40
1.0
176
     0
 90
        9
176
     2
 62
     7
176
     0
 40
1.0
176
     0
 90
        1
176
     0
 90
        6
176
     0
 90
        2
176
     0
 62
     7
176
     0
 90
        5
176
     0
 90
        0
176
     0
 90
        0
176
     0
290
     0
176
     0
 90
        1
176
     0
 40
0.0
176
     0
 90
        0
176
     0
290
     0
176
     0
290
     1
176
     0
290
     1
176
     0
290
     0
176
     0
290
     0
176
     0
290
     0
176
     0
290
     0
176
     0
290
     0
176
     0
290
     0
176
     0
 90
       50
176
     0
 40
0.0
176
     0
 40
1.0
176
     0
 90
        0
176
     0
 62
    18
420
        0
176
     0
 90
       50
176
     0
 90
        3
176
     0
 62
     5
420
      255
176
     0
290
     0
176
     0
 90
       50
176
     0
 90
       50
176
     0
 90
       50
176
     0
290
     0
176
     0
 90
       50
176
     0
 62
   256
176
     0
 40
1.0
176
     0
 90
        2
176
     0
  1
strokes_ogs.tif
176
     0
290
     0
176
     0
 40
1.0
176
     0
 40
1.0
176
     0
  0
VISUALSTYLE
  5
33
102
{ACAD_REACTORS
330
29
102
}
330
29
100
AcDbVisualStyle
  2
Realistic
 70
     8
177
     3
291
     0
 70
    58
 90
        2
176
     1
 90
        3
176
     1
 90
        0
176
     1
 90
        2
176
     1
 40
0.6
176
     1
 40
30.0
176
     1
 62
     7
420
 16777215
176
     1
 90
        0
176
     1
 90
        0
176
     1
 62
     7
176
     1
 62
   257
176
     1
 90
        1
176
     1
 90
        1
176
     1
 40
1.0
176
     1
 90
        8
176
     1
 62
   257
176
     1
 40
1.0
176
     1
 90
        1
176
     1
 90
        6
176
     1
 90
        2
176
     1
 62
     7
176
     1
 90
        3
176
     1
 90
        0
176
     1
 90
        0
176
     1
290
     0
176
     1
 90
       13
176
     1
 40
0.0
176
     1
 90
        0
176
     1
290
     0
176
     1
290
     1
176
     1
290
     1
176
     1
290
     0
176
     1
290
     0
176
     1
290
     0
176
     1
290
     0
176
     1
290
     0
176
     1
290
     0
176
     1
 90
       50
176
     1
 40
0.0
176
     1
 40
1.0
176
     1
 90
        0
176
     1
 62
    18
420
        0
176
     1
 90
       50
176
     1
 90
        3
176
     1
 62
     5
420
      255
176
     1
290
     0
176
     1
 90
       50
176
     1
 90
       50
176
     1
 90
       50
176
     1
290
     0
176
     1
 90
       50
176
     1
 62
   256
176
     0
 40
1.0
176
     0
 90
        2
176
     1
  1
strokes_ogs.tif
176
     1
290
     0
176
     1
 40
1.0
176
     1
 40
1.0
176
     1
  0
VISUALSTYLE
  5
3E
102
{ACAD_REACTORS
330
29
102
}
330
29
100
AcDbVisualStyle
  2
Shaded
 70
    27
177
     3
291
     0
 70
    58
 90
        2
176
     1
 90
        2
176
     1
 90
        1
176
     1
 90
        2
176
     1
 40
0.6
176
     1
 40
30.0
176
     1
 62
     7
420
 16777215
176
     1
 90
        0
176
     1
 90
        4
176
     1
 62
     7
176
     1
 62
   257
176
     1
 90
        1
176
     1
 90
        1
176
     1
 40
1.0
176
     1
 90
        8
176
     1
 62
   257
176
     1
 40
1.0
176
     1
 90
        1
176
     1
 90
        6
176
     1
 90
        2
176
     1
 62
     8
420
  7895160
176
     1
 90
        3
176
     1
 90
        0
176
     1
 90
        0
176
     1
290
     0
176
     1
 90
        5
176
     1
 40
0.0
176
     1
 90
        0
176
     1
290
     0
176
     1
290
     1
176
     1
290
     1
176
     1
290
     0
176
     1
290
     0
176
     1
290
     0
176
     1
290
     0
176
     1
290
     0
176
     1
290
     0
176
     1
 90
       50
176
     1
 40
0.0
176
     1
 40
1.0
176
     1
 90
        0
176
     1
 62
    18
420
        0
176
     1
 90
       50
176
     1
 90
        3
176
     1
 62
     5
420
      255
176
     1
290
     0
176
     1
 90
       50
176
     1
 90
       50
176
     1
 90
       50
176
     1
290
     0
176
     1
 90
       50
176
     1
 62
   256
176
     0
 40
1.0
176
     0
 90
        2
176
     1
  1
strokes_ogs.tif
176
     1
290
     0
176
     1
 40
1.0
176
     1
 40
1.0
176
     1
  0
VISUALSTYLE
  5
3D
102
{ACAD_REACTORS
330
29
102
}
330
29
100
AcDbVisualStyle
  2
Shaded with edges
 70
    26
177
     3
291
     0
 70
    58
 90
        2
176
     1
 90
        2
176
     1
 90
        1
176
     1
 90
        2
176
     1
 40
0.6
176
     1
 40
30.0
176
     1
 62
     7
420
 16777215
176
     1
 90
        1
176
     1
 90
        2
176
     1
 62
     7
176
     1
 62
   257
176
     1
 90
        2
176
     1
 90
        1
176
     1
 40
1.0
176
     1
 90
        8
176
     1
 62
   257
176
     1
 40
1.0
176
     1
 90
        1
176
     1
 90
        6
176
     1
 90
        2
176
     1
 62
     7
176
     1
 90
        3
176
     1
 90
        0
176
     1
 90
        0
176
     1
290
     0
176
     1
 90
        5
176
     1
 40
0.0
176
     1
 90
        0
176
     1
290
     0
176
     1
290
     1
176
     1
290
     1
176
     1
290
     0
176
     1
290
     0
176
     1
290
     0
176
     1
290
     0
176
     1
290
     0
176
     1
290
     0
176
     1
 90
       50
176
     1
 40
0.0
176
     1
 40
1.0
176
     1
 90
        0
176
     1
 62
    18
420
        0
176
     1
 90
       50
176
     1
 90
        3
176
     1
 62
     5
420
      255
176
     1
290
     0
176
     1
 90
       50
176
     1
 90
       50
176
     1
 90
       50
176
     1
290
     0
176
     1
 90
       50
176
     1
 62
   256
176
     0
 40
1.0
176
     0
 90
        2
176
     1
  1
strokes_ogs.tif
176
     1
290
     0
176
     1
 40
1.0
176
     1
 40
1.0
176
     1
  0
VISUALSTYLE
  5
3A
102
{ACAD_REACTORS
330
29
102
}
330
29
100
AcDbVisualStyle
  2
Shades of Gray
 70
    23
177
     3
291
     0
 70
    58
 90
        2
176
     1
 90
        2
176
     1
 90
        3
176
     1
 90
        0
176
     1
 40
0.6
176
     1
 40
30.0
176
     1
 62
     7
420
 16777215
176
     1
 90
        2
176
     1
 90
        2
176
     1
 62
     7
176
     1
 62
     7
176
     1
 90
        1
176
     1
 90
        1
176
     1
 40
40.0
176
     1
 90
        8
176
     1
 62
     7
176
     1
 40
1.0
176
     1
 90
        1
176
     1
 90
        6
176
     1
 90
        2
176
     1
 62
     7
176
     1
 90
        3
176
     1
 90
        0
176
     1
 90
        0
176
     1
290
     0
176
     1
 90
        1
176
     1
 40
0.0
176
     1
 90
        0
176
     1
290
     0
176
     1
290
     1
176
     1
290
     1
176
     1
290
     0
176
     1
290
     0
176
     1
290
     0
176
     1
290
     0
176
     1
290
     0
176
     1
290
     0
176
     1
 90
       50
176
     1
 40
0.0
176
     1
 40
1.0
176
     1
 90
        0
176
     1
 62
    18
420
        0
176
     1
 90
       50
176
     1
 90
        3
176
     1
 62
     5
420
      255
176
     1
290
     0
176
     1
 90
       50
176
     1
 90
       50
176
     1
 90
       50
176
     1
290
     0
176
     1
 90
       50
176
     1
 62
   256
176
     0
 40
1.0
176
     0
 90
        2
176
     1
  1
strokes_ogs.tif
176
     1
290
     0
176
     1
 40
1.0
176
     1
 40
1.0
176
     1
  0
VISUALSTYLE
  5
3B
102
{ACAD_REACTORS
330
29
102
}
330
29
100
AcDbVisualStyle
  2
Sketchy
 70
    24
177
     3
291
     0
 70
    58
 90
        1
176
     1
 90
        2
176
     1
 90
        2
176
     1
 90
        0
176
     1
 40
0.6
176
     1
 40
30.0
176
     1
 62
     7
420
 16777215
176
     1
 90
        2
176
     1
 90
        2
176
     1
 62
     7
176
     1
 62
     7
176
     1
 90
        1
176
     1
 90
        1
176
     1
 40
40.0
176
     1
 90
       11
176
     1
 62
     7
176
     1
 40
1.0
176
     1
 90
        1
176
     1
 90
        6
176
     1
 90
        2
176
     1
 62
     7
176
     1
 90
        6
176
     1
 90
        0
176
     1
 90
        0
176
     1
290
     0
176
     1
 90
        1
176
     1
 40
0.0
176
     1
 90
        0
176
     1
290
     0
176
     1
290
     1
176
     1
290
     1
176
     1
290
     0
176
     1
290
     0
176
     1
290
     0
176
     1
290
     0
176
     1
290
     0
176
     1
290
     0
176
     1
 90
       50
176
     1
 40
0.0
176
     1
 40
1.0
176
     1
 90
        0
176
     1
 62
    18
420
        0
176
     1
 90
       50
176
     1
 90
        3
176
     1
 62
     5
420
      255
176
     1
290
     0
176
     1
 90
       50
176
     1
 90
       50
176
     1
 90
       50
176
     1
290
     0
176
     1
 90
       50
176
     1
 62
   256
176
     0
 40
1.0
176
     0
 90
        2
176
     1
  1
strokes_ogs.tif
176
     1
290
     0
176
     1
 40
1.0
176
     1
 40
1.0
176
     1
  0
VISUALSTYLE
  5
36
102
{ACAD_REACTORS
330
29
102
}
330
29
100
AcDbVisualStyle
  2
Thicken
 70
    13
177
     3
291
     1
 70
    58
 90
        2
176
     1
 90
        2
176
     1
 90
        0
176
     1
 90
        0
176
     1
 40
0.6
176
     1
 40
30.0
176
     1
 62
     7
420
 16777215
176
     1
 90
        1
176
     1
 90
        4
176
     1
 62
     7
176
     1
 62
   257
176
     1
 90
        1
176
     1
 90
        1
176
     1
 40
1.0
176
     1
 90
       12
176
     1
 62
     7
176
     1
 40
1.0
176
     1
 90
        1
176
     1
 90
        6
176
     1
 90
        2
176
     1
 62
     7
176
     1
 90
        5
176
     1
 90
        0
176
     1
 90
        0
176
     1
290
     0
176
     1
 90
        1
176
     1
 40
0.0
176
     1
 90
        0
176
     1
290
     0
176
     1
290
     1
176
     1
290
     1
176
     1
290
     0
176
     1
290
     0
176
     1
290
     0
176
     1
290
     0
176
     1
290
     0
176
     1
290
     0
176
     1
 90
       50
176
     1
 40
0.0
176
     1
 40
1.0
176
     1
 90
        0
176
     1
 62
    18
420
        0
176
     1
 90
       50
176
     1
 90
        3
176
     1
 62
     5
420
      255
176
     1
290
     0
176
     1
 90
       50
176
     1
 90
       50
176
     1
 90
       50
176
     1
290
     0
176
     1
 90
       50
176
     1
 62
   256
176
     0
 40
1.0
176
     0
 90
        2
176
     1
  1
strokes_ogs.tif
176
     1
290
     0
176
     1
 40
1.0
176
     1
 40
1.0
176
     1
  0
VISUALSTYLE
  5
30
102
{ACAD_REACTORS
330
29
102
}
330
29
100
AcDbVisualStyle
  2
Wireframe
 70
     5
177
     3
291
     0
 70
    58
 90
        0
176
     1
 90
        2
176
     1
 90
        0
176
     1
 90
        0
176
     1
 40
0.6
176
     1
 40
30.0
176
     1
 62
     7
420
 16777215
176
     1
 90
        1
176
     1
 90
        4
176
     1
 62
     7
176
     1
 62
   257
176
     1
 90
        1
176
     1
 90
        1
176
     1
 40
1.0
176
     1
 90
        0
176
     1
 62
   257
176
     1
 40
1.0
176
     1
 90
        1
176
     1
 90
        6
176
     1
 90
        2
176
     1
 62
     7
176
     1
 90
        3
176
     1
 90
        0
176
     1
 90
        0
176
     1
290
     0
176
     1
 90
        1
176
     1
 40
0.0
176
     1
 90
        0
176
     1
290
     0
176
     1
290
     1
176
     1
290
     1
176
     1
290
     0
176
     1
290
     0
176
     1
290
     0
176
     1
290
     0
176
     1
290
     0
176
     1
290
     0
176
     1
 90
       50
176
     1
 40
0.0
176
     1
 40
1.0
176
     1
 90
        0
176
     1
 62
    18
420
        0
176
     1
 90
       50
176
     1
 90
        3
176
     1
 62
     5
420
      255
176
     1
290
     0
176
     1
 90
       50
176
     1
 90
       50
176
     1
 90
       50
176
     1
290
     0
176
     1
 90
       50
176
     1
 62
   256
176
     0
 40
1.0
176
     0
 90
        2
176
     1
  1
strokes_ogs.tif
176
     1
290
     0
176
     1
 40
1.0
176
     1
 40
1.0
176
     1
  0
VISUALSTYLE
  5
3C
102
{ACAD_REACTORS
330
29
102
}
330
29
100
AcDbVisualStyle
  2
X-Ray
 70
    25
177
     3
291
     0
 70
    58
 90
        2
176
     1
 90
        2
176
     1
 90
        1
176
     1
 90
        1
176
     1
 40
0.5
176
     1
 40
30.0
176
     1
 62
     7
420
 16777215
176
     1
 90
        1
176
     1
 90
        0
176
     1
 62
     7
176
     1
 62
   257
176
     1
 90
        1
176
     1
 90
        1
176
     1
 40
1.0
176
     1
 90
        8
176
     1
 62
     7
176
     1
 40
1.0
176
     1
 90
        1
176
     1
 90
        6
176
     1
 90
        2
176
     1
 62
     7
176
     1
 90
        3
176
     1
 90
        0
176
     1
 90
        0
176
     1
290
     0
176
     1
 90
       13
176
     1
 40
0.0
176
     1
 90
        0
176
     1
290
     0
176
     1
290
     1
176
     1
290
     1
176
     1
290
     0
176
     1
290
     0
176
     1
290
     0
176
     1
290
     0
176
     1
290
     0
176
     1
290
     0
176
     1
 90
       50
176
     1
 40
0.0
176
     1
 40
1.0
176
     1
 90
        0
176
     1
 62
    18
420
        0
176
     1
 90
       50
176
     1
 90
        3
176
     1
 62
     5
420
      255
176
     1
290
     0
176
     1
 90
       50
176
     1
 90
       50
176
     1
 90
       50
176
     1
290
     0
176
     1
 90
       50
176
     1
 62
   256
176
     0
 40
1.0
176
     0
 90
        2
176
     1
  1
strokes_ogs.tif
176
     1
290
     0
176
     1
 40
1.0
176
     1
 40
1.0
176
     1
  0
DICTIONARYVAR
  5
3CB
102
{ACAD_REACTORS
330
3C6
102
}
330
3C6
100
DictionaryVariables
280
     0
  1
1:1
  0
DICTIONARYVAR
  5
3C8
102
{ACAD_REACTORS
330
3C6
102
}
330
3C6
100
DictionaryVariables
280
     0
  1
STANDARD
  0
DICTIONARYVAR
  5
3C7
102
{ACAD_REACTORS
330
3C6
102
}
330
3C6
100
DictionaryVariables
280
     0
  1
STANDARD
  0
DICTIONARYVAR
  5
3C9
102
{ACAD_REACTORS
330
3C6
102
}
330
3C6
100
DictionaryVariables
280
     0
  1
Imperial24
  0
DICTIONARYVAR
  5
3CA
102
{ACAD_REACTORS
330
3C6
102
}
330
3C6
100
DictionaryVariables
280
     0
  1
Imperial24
  0
DICTIONARY
  5
1A
330
19
100
AcDbDictionary
280
     1
281
     1
  3
BUMPTILE
360
1C
  3
DIFFUSETILE
360
1B
  3
OPACITYTILE
360
1F
  3
REFLECTIONTILE
360
1E
  3
REFRACTIONTILE
360
20
  3
SPECULARTILE
360
1D
  0
DICTIONARY
  5
12
330
11
100
AcDbDictionary
280
     1
281
     1
  3
BUMPTILE
360
14
  3
DIFFUSETILE
360
13
  3
OPACITYTILE
360
17
  3
REFLECTIONTILE
360
16
  3
REFRACTIONTILE
360
18
  3
SPECULARTILE
360
15
  0
DICTIONARY
  5
22
330
21
100
AcDbDictionary
280
     1
281
     1
  3
BUMPTILE
360
24
  3
DIFFUSETILE
360
23
  3
OPACITYTILE
360
27
  3
REFLECTIONTILE
360
26
  3
REFRACTIONTILE
360
28
  3
SPECULARTILE
360
25
  0
DICTIONARY
  5
3CC
330
65
100
AcDbDictionary
280
     1
281
     1
  3
ACAD_ROUNDTRIP_2008_TABLESTYLE_CELLSTYLEMAP
360
3CD
  0
XRECORD
  5
1C
102
{ACAD_REACTORS
330
1A
102
}
330
1A
100
AcDbXrecord
280
     1
270
     1
271
     1
  0
XRECORD
  5
1B
102
{ACAD_REACTORS
330
1A
102
}
330
1A
100
AcDbXrecord
280
     1
270
     1
271
     1
  0
XRECORD
  5
1F
102
{ACAD_REACTORS
330
1A
102
}
330
1A
100
AcDbXrecord
280
     1
270
     1
271
     1
  0
XRECORD
  5
1E
102
{ACAD_REACTORS
330
1A
102
}
330
1A
100
AcDbXrecord
280
     1
270
     1
271
     1
  0
XRECORD
  5
20
102
{ACAD_REACTORS
330
1A
102
}
330
1A
100
AcDbXrecord
280
     1
270
     1
271
     1
  0
XRECORD
  5
1D
102
{ACAD_REACTORS
330
1A
102
}
330
1A
100
AcDbXrecord
280
     1
270
     1
271
     1
  0
XRECORD
  5
14
102
{ACAD_REACTORS
330
12
102
}
330
12
100
AcDbXrecord
280
     1
270
     1
271
     1
  0
XRECORD
  5
13
102
{ACAD_REACTORS
330
12
102
}
330
12
100
AcDbXrecord
280
     1
270
     1
271
     1
  0
XRECORD
  5
17
102
{ACAD_REACTORS
330
12
102
}
330
12
100
AcDbXrecord
280
     1
270
     1
271
     1
  0
XRECORD
  5
16
102
{ACAD_REACTORS
330
12
102
}
330
12
100
AcDbXrecord
280
     1
270
     1
271
     1
  0
XRECORD
  5
18
102
{ACAD_REACTORS
330
12
102
}
330
12
100
AcDbXrecord
280
     1
270
     1
271
     1
  0
XRECORD
  5
15
102
{ACAD_REACTORS
330
12
102
}
330
12
100
AcDbXrecord
280
     1
270
     1
271
     1
  0
XRECORD
  5
24
102
{ACAD_REACTORS
330
22
102
}
330
22
100
AcDbXrecord
280
     1
270
     1
271
     1
  0
XRECORD
  5
23
102
{ACAD_REACTORS
330
22
102
}
330
22
100
AcDbXrecord
280
     1
270
     1
271
     1
  0
XRECORD
  5
27
102
{ACAD_REACTORS
330
22
102
}
330
22
100
AcDbXrecord
280
     1
270
     1
271
     1
  0
XRECORD
  5
26
102
{ACAD_REACTORS
330
22
102
}
330
22
100
AcDbXrecord
280
     1
270
     1
271
     1
  0
XRECORD
  5
28
102
{ACAD_REACTORS
330
22
102
}
330
22
100
AcDbXrecord
280
     1
270
     1
271
     1
  0
XRECORD
  5
25
102
{ACAD_REACTORS
330
22
102
}
330
22
100
AcDbXrecord
280
     1
270
     1
271
     1
  0
CELLSTYLEMAP
  5
3CD
102
{ACAD_REACTORS
330
3CC
102
}
330
3CC
100
AcDbCellStyleMap
 90
        3
300
CELLSTYLE
  1
TABLEFORMAT_BEGIN
 90
        5
170
     1
 91
        0
 92
    32768
 62
   257
 93
        1
300
CONTENTFORMAT
  1
CONTENTFORMAT_BEGIN
 90
        0
 91
        0
 92
      512
 93
        0
300

 40
0.0
140
1.0
 94
        5
 62
     0
340
55
144
0.25
309
CONTENTFORMAT_END
171
     0
 94
        0
309
TABLEFORMAT_END
  1
CELLSTYLE_BEGIN
 90
        1
 91
        1
300
_TITLE
309
CELLSTYLE_END
300
CELLSTYLE
  1
TABLEFORMAT_BEGIN
 90
        5
170
     1
 91
        0
 92
        0
 62
   257
 93
        1
300
CONTENTFORMAT
  1
CONTENTFORMAT_BEGIN
 90
        0
 91
        0
 92
      512
 93
        0
300

 40
0.0
140
1.0
 94
        5
 62
     0
340
55
144
0.18
309
CONTENTFORMAT_END
171
     0
 94
        0
309
TABLEFORMAT_END
  1
CELLSTYLE_BEGIN
 90
        2
 91
        1
300
_HEADER
309
CELLSTYLE_END
300
CELLSTYLE
  1
TABLEFORMAT_BEGIN
 90
        5
170
     1
 91
        0
 92
        0
 62
   257
 93
        1
300
CONTENTFORMAT
  1
CONTENTFORMAT_BEGIN
 90
        0
 91
        0
 92
      512
 93
        0
300

 40
0.0
140
1.0
 94
        2
 62
     0
340
55
144
0.18
309
CONTENTFORMAT_END
171
     0
 94
        0
309
TABLEFORMAT_END
  1
CELLSTYLE_BEGIN
 90
        3
 91
        2
300
_DATA
309
CELLSTYLE_END
  0
ENDSEC
  0
EOF
