  0
SECTION
  2
HEADER
  9
$ACADVER
  1
AC1032
  9
$ACADMAINTVER
 90
      155
  9
$DWGCODEPAGE
  3
ANSI_1251
  9
$REQUIREDVERSIONS
160
                 0
  9
$INSBASE
 10
0.0
 20
0.0
 30
0.0
  9
$EXTMIN
 10
1.000000000000000E+20
 20
1.000000000000000E+20
 30
1.000000000000000E+20
  9
$EXTMAX
 10
-1.000000000000000E+20
 20
-1.000000000000000E+20
 30
-1.000000000000000E+20
  9
$LIMMIN
 10
0.0
 20
0.0
  9
$LIMMAX
 10
12.0
 20
9.0
  9
$ORTHOMODE
 70
     0
  9
$REGENMODE
 70
     1
  9
$FILLMODE
 70
     1
  9
$QTEXTMODE
 70
     0
  9
$MIRRTEXT
 70
     0
  9
$LTSCALE
 40
1.0
  9
$ATTMODE
 70
     1
  9
$TEXTSIZE
 40
0.2
  9
$TRACEWID
 40
0.05
  9
$TEXTSTYLE
  7
Standard
  9
$CLAYER
  8
0
  9
$CELTYPE
  6
ByLayer
  9
$CECOLOR
 62
   256
  9
$CELTSCALE
 40
1.0
  9
$DISPSILH
 70
     0
  9
$DIMSCALE
 40
1.0
  9
$DIMASZ
 40
0.18
  9
$DIMEXO
 40
0.0625
  9
$DIMDLI
 40
0.38
  9
$DIMRND
 40
0.0
  9
$DIMDLE
 40
0.0
  9
$DIMEXE
 40
0.18
  9
$DIMTP
 40
0.0
  9
$DIMTM
 40
0.0
  9
$DIMTXT
 40
0.18
  9
$DIMCEN
 40
0.09
  9
$DIMTSZ
 40
0.0
  9
$DIMTOL
 70
     0
  9
$DIMLIM
 70
     0
  9
$DIMTIH
 70
     1
  9
$DIMTOH
 70
     1
  9
$DIMSE1
 70
     0
  9
$DIMSE2
 70
     0
  9
$DIMTAD
 70
     0
  9
$DIMZIN
 70
     0
  9
$DIMBLK
  1

  9
$DIMASO
 70
     1
  9
$DIMSHO
 70
     1
  9
$DIMPOST
  1

  9
$DIMAPOST
  1

  9
$DIMALT
 70
     0
  9
$DIMALTD
 70
     2
  9
$DIMALTF
 40
25.4
  9
$DIMLFAC
 40
1.0
  9
$DIMTOFL
 70
     0
  9
$DIMTVP
 40
0.0
  9
$DIMTIX
 70
     0
  9
$DIMSOXD
 70
     0
  9
$DIMSAH
 70
     0
  9
$DIMBLK1
  1

  9
$DIMBLK2
  1

  9
$DIMSTYLE
  2
Standard
  9
$DIMCLRD
 70
     0
  9
$DIMCLRE
 70
     0
  9
$DIMCLRT
 70
     0
  9
$DIMTFAC
 40
1.0
  9
$DIMGAP
 40
0.09
  9
$DIMJUST
 70
     0
  9
$DIMSD1
 70
     0
  9
$DIMSD2
 70
     0
  9
$DIMTOLJ
 70
     1
  9
$DIMTZIN
 70
     0
  9
$DIMALTZ
 70
     0
  9
$DIMALTTZ
 70
     0
  9
$DIMUPT
 70
     0
  9
$DIMDEC
 70
     4
  9
$DIMTDEC
 70
     4
  9
$DIMALTU
 70
     2
  9
$DIMALTTD
 70
     2
  9
$DIMTXSTY
  7
Standard
  9
$DIMAUNIT
 70
     0
  9
$DIMADEC
 70
     0
  9
$DIMALTRND
 40
0.0
  9
$DIMAZIN
 70
     0
  9
$DIMDSEP
 70
    46
  9
$DIMATFIT
 70
     3
  9
$DIMFRAC
 70
     0
  9
$DIMLDRBLK
  1

  9
$DIMLUNIT
 70
     2
  9
$DIMLWD
 70
    -2
  9
$DIMLWE
 70
    -2
  9
$DIMTMOVE
 70
     0
  9
$DIMFXL
 40
1.0
  9
$DIMFXLON
 70
     0
  9
$DIMJOGANG
 40
0.7853981633974483
  9
$DIMTFILL
 70
     0
  9
$DIMTFILLCLR
 70
     0
  9
$DIMARCSYM
 70
     0
  9
$DIMLTYPE
  6

  9
$DIMLTEX1
  6

  9
$DIMLTEX2
  6

  9
$DIMTXTDIRECTION
 70
     0
  9
$LUNITS
 70
     2
  9
$LUPREC
 70
     4
  9
$SKETCHINC
 40
0.1
  9
$FILLETRAD
 40
0.0
  9
$AUNITS
 70
     0
  9
$AUPREC
 70
     0
  9
$MENU
  1
.
  9
$ELEVATION
 40
0.0
  9
$PELEVATION
 40
0.0
  9
$THICKNESS
 40
0.0
  9
$LIMCHECK
 70
     0
  9
$CHAMFERA
 40
0.0
  9
$CHAMFERB
 40
0.0
  9
$CHAMFERC
 40
0.0
  9
$CHAMFERD
 40
0.0
  9
$SKPOLY
 70
     0
  9
$TDCREATE
 40
2460563.559027778
  9
$TDUCREATE
 40
2460563.434027778
  9
$TDUPDATE
 40
2460563.559027778
  9
$TDUUPDATE
 40
2460563.434027778
  9
$TDINDWG
 40
0.0000000000
  9
$TDUSRTIMER
 40
0.0000000000
  9
$USRTIMER
 70
     1
  9
$ANGBASE
 50
0.0
  9
$ANGDIR
 70
     0
  9
$PDMODE
 70
     0
  9
$PDSIZE
 40
0.0
  9
$PLINEWID
 40
0.0
  9
$SPLFRAME
 70
     0
  9
$SPLINETYPE
 70
     6
  9
$SPLINESEGS
 70
     8
  9
$HANDSEED
  5
18E
  9
$SURFTAB1
 70
     6
  9
$SURFTAB2
 70
     6
  9
$SURFTYPE
 70
     6
  9
$SURFU
 70
     6
  9
$SURFV
 70
     6
  9
$UCSBASE
  2

  9
$UCSNAME
  2

  9
$UCSORG
 10
0.0
 20
0.0
 30
0.0
  9
$UCSXDIR
 10
1.0
 20
0.0
 30
0.0
  9
$UCSYDIR
 10
0.0
 20
1.0
 30
0.0
  9
$UCSORTHOREF
  2

  9
$UCSORTHOVIEW
 70
     0
  9
$UCSORGTOP
 10
0.0
 20
0.0
 30
0.0
  9
$UCSORGBOTTOM
 10
0.0
 20
0.0
 30
0.0
  9
$UCSORGLEFT
 10
0.0
 20
0.0
 30
0.0
  9
$UCSORGRIGHT
 10
0.0
 20
0.0
 30
0.0
  9
$UCSORGFRONT
 10
0.0
 20
0.0
 30
0.0
  9
$UCSORGBACK
 10
0.0
 20
0.0
 30
0.0
  9
$PUCSBASE
  2

  9
$PUCSNAME
  2

  9
$PUCSORG
 10
0.0
 20
0.0
 30
0.0
  9
$PUCSXDIR
 10
1.0
 20
0.0
 30
0.0
  9
$PUCSYDIR
 10
0.0
 20
1.0
 30
0.0
  9
$PUCSORTHOREF
  2

  9
$PUCSORTHOVIEW
 70
     0
  9
$PUCSORGTOP
 10
0.0
 20
0.0
 30
0.0
  9
$PUCSORGBOTTOM
 10
0.0
 20
0.0
 30
0.0
  9
$PUCSORGLEFT
 10
0.0
 20
0.0
 30
0.0
  9
$PUCSORGRIGHT
 10
0.0
 20
0.0
 30
0.0
  9
$PUCSORGFRONT
 10
0.0
 20
0.0
 30
0.0
  9
$PUCSORGBACK
 10
0.0
 20
0.0
 30
0.0
  9
$USERI1
 70
     0
  9
$USERI2
 70
     0
  9
$USERI3
 70
     0
  9
$USERI4
 70
     0
  9
$USERI5
 70
     0
  9
$USERR1
 40
0.0
  9
$USERR2
 40
0.0
  9
$USERR3
 40
0.0
  9
$USERR4
 40
0.0
  9
$USERR5
 40
0.0
  9
$WORLDVIEW
 70
     1
  9
$SHADEDGE
 70
     3
  9
$SHADEDIF
 70
    70
  9
$TILEMODE
 70
     1
  9
$MAXACTVP
 70
    64
  9
$PINSBASE
 10
0.0
 20
0.0
 30
0.0
  9
$PLIMCHECK
 70
     0
  9
$PEXTMIN
 10
1.000000000000000E+20
 20
1.000000000000000E+20
 30
1.000000000000000E+20
  9
$PEXTMAX
 10
-1.000000000000000E+20
 20
-1.000000000000000E+20
 30
-1.000000000000000E+20
  9
$PLIMMIN
 10
0.0
 20
0.0
  9
$PLIMMAX
 10
12.0
 20
9.0
  9
$UNITMODE
 70
     0
  9
$VISRETAIN
 70
     1
  9
$PLINEGEN
 70
     0
  9
$PSLTSCALE
 70
     1
  9
$TREEDEPTH
 70
  3020
  9
$CMLSTYLE
  2
Standard
  9
$CMLJUST
 70
     0
  9
$CMLSCALE
 40
1.0
  9
$PROXYGRAPHICS
 70
     1
  9
$MEASUREMENT
 70
     0
  9
$CELWEIGHT
370
    -1
  9
$ENDCAPS
280
     0
  9
$JOINSTYLE
280
     0
  9
$LWDISPLAY
290
     1
  9
$INSUNITS
 70
     4
  9
$HYPERLINKBASE
  1

  9
$STYLESHEET
  1

  9
$XEDIT
290
     1
  9
$CEPSNTYPE
380
     0
  9
$PSTYLEMODE
290
     1
  9
$FINGERPRINTGUID
  2
{0F7AB204-F789-0A42-9641-8923B8C570A5}
  9
$VERSIONGUID
  2
{F5140A91-584C-B94F-AC7A-56FE9988A330}
  9
$EXTNAMES
290
     1
  9
$PSVPSCALE
 40
0.0
  9
$OLESTARTUP
290
     0
  9
$SORTENTS
280
   127
  9
$INDEXCTL
280
     0
  9
$HIDETEXT
280
     1
  9
$XCLIPFRAME
280
     2
  9
$HALOGAP
280
     0
  9
$OBSCOLOR
 70
   257
  9
$OBSLTYPE
280
     0
  9
$INTERSECTIONDISPLAY
280
     0
  9
$INTERSECTIONCOLOR
 70
   257
  9
$DIMASSOC
280
     2
  9
$PROJECTNAME
  1

  9
$CAMERADISPLAY
290
     0
  9
$LENSLENGTH
 40
50.0
  9
$CAMERAHEIGHT
 40
0.0
  9
$STEPSPERSEC
 40
2.0
  9
$STEPSIZE
 40
6.0
  9
$3DDWFPREC
 40
2.0
  9
$PSOLWIDTH
 40
0.25
  9
$PSOLHEIGHT
 40
4.0
  9
$LOFTANG1
 40
1.570796326794896
  9
$LOFTANG2
 40
1.570796326794896
  9
$LOFTMAG1
 40
0.0
  9
$LOFTMAG2
 40
0.0
  9
$LOFTPARAM
 70
     7
  9
$LOFTNORMALS
280
     1
  9
$LATITUDE
 40
37.795
  9
$LONGITUDE
 40
-122.394
  9
$NORTHDIRECTION
 40
0.0
  9
$TIMEZONE
 70
 -8000
  9
$LIGHTGLYPHDISPLAY
280
     1
  9
$TILEMODELIGHTSYNCH
280
     1
  9
$CMATERIAL
347
11
  9
$SOLIDHIST
280
     0
  9
$SHOWHIST
280
     1
  9
$DWFFRAME
280
     2
  9
$DGNFRAME
280
     0
  9
$REALWORLDSCALE
290
     1
  9
$INTERFERECOLOR
 62
     1
  9
$INTERFEREOBJVS
345
33
  9
$INTERFEREVPVS
346
30
  9
$CSHADOW
280
     0
  9
$SHADOWPLANELOCATION
 40
0.0
  0
ENDSEC
  0
SECTION
  2
CLASSES
  0
CLASS
  1
ACDBDICTIONARYWDFLT
  2
AcDbDictionaryWithDefault
  3
ObjectDBX Classes
 90
        0
 91
        1
280
     0
281
     0
  0
CLASS
  1
MATERIAL
  2
AcDbMaterial
  3
ObjectDBX Classes
 90
     1153
 91
        3
280
     0
281
     0
  0
CLASS
  1
VISUALSTYLE
  2
AcDbVisualStyle
  3
ObjectDBX Classes
 90
     4095
 91
       24
280
     0
281
     0
  0
CLASS
  1
SCALE
  2
AcDbScale
  3
ObjectDBX Classes
 90
     1153
 91
       17
280
     0
281
     0
  0
CLASS
  1
TABLESTYLE
  2
AcDbTableStyle
  3
ObjectDBX Classes
 90
     4095
 91
        1
280
     0
281
     0
  0
CLASS
  1
MLEADERSTYLE
  2
AcDbMLeaderStyle
  3
ACDB_MLEADERSTYLE_CLASS
 90
     4095
 91
        1
280
     0
281
     0
  0
CLASS
  1
ACDBSECTIONVIEWSTYLE
  2
AcDbSectionViewStyle
  3
ObjectDBX Classes
 90
     1025
 91
        1
280
     0
281
     0
  0
CLASS
  1
ACDBDETAILVIEWSTYLE
  2
AcDbDetailViewStyle
  3
ObjectDBX Classes
 90
     1025
 91
        1
280
     0
281
     0
  0
CLASS
  1
DICTIONARYVAR
  2
AcDbDictionaryVar
  3
ObjectDBX Classes
 90
        0
 91
        5
280
     0
281
     0
  0
CLASS
  1
CELLSTYLEMAP
  2
AcDbCellStyleMap
  3
ObjectDBX Classes
 90
     1152
 91
        1
280
     0
281
     0
  0
ENDSEC
  0
SECTION
  2
TABLES
  0
TABLE
  2
VPORT
  5
8
330
0
100
AcDbSymbolTable
 70
     1
  0
VPORT
  5
57
330
8
100
AcDbSymbolTableRecord
100
AcDbViewportTableRecord
  2
*Active
 70
     0
 10
0.0
 20
0.0
 11
1.0
 21
1.0
 12
0.0
 22
0.0
 13
0.0
 23
0.0
 14
1.0
 24
1.0
 15
0.0
 25
0.0
 16
0.0
 26
0.0
 36
1.0
 17
105.6535468009907
 27
-147.9782796564918
 37
0.0
 40
214.172459946457
 41
1.00113195111493
 42
50.0
 43
0.0
 44
0.0
 50
0.0
 51
0.0
 71
     0
 72
   100
 73
     1
 74
     0
 75
     1
 76
     0
 77
     0
 78
     0
281
     0
 65
     1
110
0.0
120
0.0
130
0.0
111
1.0
121
0.0
131
0.0
112
0.0
122
1.0
132
0.0
 79
     0
146
0.0
 60
     3
 61
     5
292
     1
282
     1
141
0.0
142
0.0
 63
   250
421
  3355443
  0
ENDTAB
  0
TABLE
  2
LTYPE
  5
5
330
0
100
AcDbSymbolTable
 70
     1
  0
LTYPE
  5
5B
330
5
100
AcDbSymbolTableRecord
100
AcDbLinetypeTableRecord
  2
ByBlock
 70
     0
  3

 72
    65
 73
     0
 40
0.0
  0
LTYPE
  5
5C
330
5
100
AcDbSymbolTableRecord
100
AcDbLinetypeTableRecord
  2
ByLayer
 70
     0
  3

 72
    65
 73
     0
 40
0.0
  0
LTYPE
  5
5D
330
5
100
AcDbSymbolTableRecord
100
AcDbLinetypeTableRecord
  2
Continuous
 70
     0
  3
Solid line
 72
    65
 73
     0
 40
0.0
  0
ENDTAB
  0
TABLE
  2
LAYER
  5
2
330
0
100
AcDbSymbolTable
 70
     4
  0
LAYER
  5
54
330
2
100
AcDbSymbolTableRecord
100
AcDbLayerTableRecord
  2
0
 70
     0
 62
     7
  6
Continuous
370
    -3
390
F
347
21
348
0
  0
LAYER
  5
78
330
2
100
AcDbSymbolTableRecord
100
AcDbLayerTableRecord
  2
Слой 3
 70
     4
 62
     7
  6
Continuous
370
     0
390
F
347
21
348
0
  0
LAYER
  5
7A
330
2
100
AcDbSymbolTableRecord
100
AcDbLayerTableRecord
  2
Слой 1
 70
     0
 62
     7
  6
Continuous
370
     0
390
F
347
21
348
0
  0
LAYER
  5
141
330
2
100
AcDbSymbolTableRecord
100
AcDbLayerTableRecord
  2
Слой 2
 70
     0
 62
     7
  6
Continuous
370
     0
390
F
347
21
348
0
  0
ENDTAB
  0
TABLE
  2
STYLE
  5
3
330
0
100
AcDbSymbolTable
 70
     2
  0
STYLE
  5
55
330
3
100
AcDbSymbolTableRecord
100
AcDbTextStyleTableRecord
  2
Standard
 70
     0
 40
0.0
 41
1.0
 50
0.0
 71
     0
 42
0.2
  3
txt
  4

  0
STYLE
  5
5A
330
3
100
AcDbSymbolTableRecord
100
AcDbTextStyleTableRecord
  2
Annotative
 70
     0
 40
0.0
 41
1.0
 50
0.0
 71
     0
 42
0.2
  3
txt
  4

1001
AcadAnnotative
1000
AnnotativeData
1002
{
1070
     1
1070
     1
1002
}
  0
ENDTAB
  0
TABLE
  2
VIEW
  5
6
330
0
100
AcDbSymbolTable
 70
     0
  0
ENDTAB
  0
TABLE
  2
UCS
  5
7
330
0
100
AcDbSymbolTable
 70
     0
  0
ENDTAB
  0
TABLE
  2
APPID
  5
9
330
0
100
AcDbSymbolTable
 70
     2
  0
APPID
  5
56
330
9
100
AcDbSymbolTableRecord
100
AcDbRegAppTableRecord
  2
ACAD
 70
     0
  0
APPID
  5
5E
330
9
100
AcDbSymbolTableRecord
100
AcDbRegAppTableRecord
  2
AcadAnnotative
 70
     0
  0
ENDTAB
  0
TABLE
  2
DIMSTYLE
  5
A
330
0
100
AcDbSymbolTable
 70
     2
100
AcDbDimStyleTable
 71
     0
  0
DIMSTYLE
105
58
330
A
100
AcDbSymbolTableRecord
100
AcDbDimStyleTableRecord
  2
Standard
 70
     0
340
55
  0
DIMSTYLE
105
59
330
A
100
AcDbSymbolTableRecord
100
AcDbDimStyleTableRecord
  2
Annotative
 70
     0
340
55
1001
AcadAnnotative
1000
AnnotativeData
1002
{
1070
     1
1070
     1
1002
}
  0
ENDTAB
  0
TABLE
  2
BLOCK_RECORD
  5
1
330
0
100
AcDbSymbolTable
 70
    16
  0
BLOCK_RECORD
  5
70
330
1
100
AcDbSymbolTableRecord
100
AcDbBlockTableRecord
  2
*Model_Space
340
73
 70
     0
280
     1
281
     0
  0
BLOCK_RECORD
  5
6C
330
1
100
AcDbSymbolTableRecord
100
AcDbBlockTableRecord
  2
*Paper_Space
340
6F
 70
     0
280
     1
281
     0
  0
BLOCK_RECORD
  5
74
330
1
100
AcDbSymbolTableRecord
100
AcDbBlockTableRecord
  2
*Paper_Space0
340
77
 70
     0
280
     1
281
     0
  0
BLOCK_RECORD
  5
87
330
1
100
AcDbSymbolTableRecord
100
AcDbBlockTableRecord
  2
Block_0
340
0
102
{BLKREFS
331
88
102
}
 70
     0
280
     1
281
     0
  0
BLOCK_RECORD
  5
9D
330
1
100
AcDbSymbolTableRecord
100
AcDbBlockTableRecord
  2
Block_1
340
0
102
{BLKREFS
331
9E
102
}
 70
     0
280
     1
281
     0
  0
BLOCK_RECORD
  5
A8
330
1
100
AcDbSymbolTableRecord
100
AcDbBlockTableRecord
  2
Block_2
340
0
102
{BLKREFS
331
A9
102
}
 70
     0
280
     1
281
     0
  0
BLOCK_RECORD
  5
B3
330
1
100
AcDbSymbolTableRecord
100
AcDbBlockTableRecord
  2
Block_3
340
0
102
{BLKREFS
331
B4
102
}
 70
     0
280
     1
281
     0
  0
BLOCK_RECORD
  5
BE
330
1
100
AcDbSymbolTableRecord
100
AcDbBlockTableRecord
  2
Block_4
340
0
102
{BLKREFS
331
BF
102
}
 70
     0
280
     1
281
     0
  0
BLOCK_RECORD
  5
C9
330
1
100
AcDbSymbolTableRecord
100
AcDbBlockTableRecord
  2
Block_5
340
0
102
{BLKREFS
331
CA
102
}
 70
     0
280
     1
281
     0
  0
BLOCK_RECORD
  5
D6
330
1
100
AcDbSymbolTableRecord
100
AcDbBlockTableRecord
  2
Block_6
340
0
102
{BLKREFS
331
D7
102
}
 70
     0
280
     1
281
     0
  0
BLOCK_RECORD
  5
FB
330
1
100
AcDbSymbolTableRecord
100
AcDbBlockTableRecord
  2
Block_7
340
0
102
{BLKREFS
331
FC
102
}
 70
     0
280
     1
281
     0
  0
BLOCK_RECORD
  5
142
330
1
100
AcDbSymbolTableRecord
100
AcDbBlockTableRecord
  2
Block_8
340
0
102
{BLKREFS
331
143
102
}
 70
     0
280
     1
281
     0
  0
BLOCK_RECORD
  5
146
330
1
100
AcDbSymbolTableRecord
100
AcDbBlockTableRecord
  2
Block_9
340
0
102
{BLKREFS
331
147
102
}
 70
     0
280
     1
281
     0
  0
BLOCK_RECORD
  5
14A
330
1
100
AcDbSymbolTableRecord
100
AcDbBlockTableRecord
  2
Block_10
340
0
102
{BLKREFS
331
14B
102
}
 70
     0
280
     1
281
     0
  0
BLOCK_RECORD
  5
169
330
1
100
AcDbSymbolTableRecord
100
AcDbBlockTableRecord
  2
Block_11
340
0
102
{BLKREFS
331
16A
102
}
 70
     0
280
     1
281
     0
  0
BLOCK_RECORD
  5
16F
330
1
100
AcDbSymbolTableRecord
100
AcDbBlockTableRecord
  2
Block_12
340
0
102
{BLKREFS
331
170
102
}
 70
     0
280
     1
281
     0
  0
BLOCK_RECORD
  5
176
330
1
100
AcDbSymbolTableRecord
100
AcDbBlockTableRecord
  2
Block_13
340
0
102
{BLKREFS
331
177
102
}
 70
     0
280
     1
281
     0
  0
BLOCK_RECORD
  5
17D
330
1
100
AcDbSymbolTableRecord
100
AcDbBlockTableRecord
  2
Block_14
340
0
102
{BLKREFS
331
17E
102
}
 70
     0
280
     1
281
     0
  0
ENDTAB
  0
ENDSEC
  0
SECTION
  2
BLOCKS
  0
BLOCK
  5
71
330
70
100
AcDbEntity
  8
0
100
AcDbBlockBegin
  2
*Model_Space
 70
     0
 10
0.0
 20
0.0
 30
0.0
  3
*Model_Space
  1

  0
ENDBLK
  5
72
330
70
100
AcDbEntity
  8
0
100
AcDbBlockEnd
  0
BLOCK
  5
6D
330
6C
100
AcDbEntity
 67
     1
  8
0
100
AcDbBlockBegin
  2
*Paper_Space
 70
     0
 10
0.0
 20
0.0
 30
0.0
  3
*Paper_Space
  1

  0
ENDBLK
  5
6E
330
6C
100
AcDbEntity
 67
     1
  8
0
100
AcDbBlockEnd
  0
BLOCK
  5
75
330
74
100
AcDbEntity
 67
     1
  8
0
100
AcDbBlockBegin
  2
*Paper_Space0
 70
     0
 10
0.0
 20
0.0
 30
0.0
  3
*Paper_Space0
  1

  0
ENDBLK
  5
76
330
74
100
AcDbEntity
 67
     1
  8
0
100
AcDbBlockEnd
  0
BLOCK
  5
89
330
87
100
AcDbEntity
  8
0
100
AcDbBlockBegin
  2
Block_0
 70
     0
 10
0.0
 20
0.0
 30
0.0
  3
Block_0
  1

  0
LWPOLYLINE
  5
8B
330
87
100
AcDbEntity
  8
Слой 1
 62
   250
420
  3947579
370
    25
100
AcDbPolyline
 90
       15
 70
     0
 43
0.0
 10
84.78425923806309
 20
-155.1287197397827
 10
83.11836417675102
 20
-155.1634258871353
 10
80.90370368347768
 20
-156.2805555164854
 10
80.90370368347768
 20
-159.8083332933812
 10
82.82438269534315
 20
-160.5726851450418
 10
82.82438269534315
 20
-185.5905092128618
 10
84.54907530895241
 20
-185.5905092128618
 10
156.0159721832182
 20
-185.5905092128618
 10
159.181172799711
 20
-182.5331018062184
 10
159.181172799711
 20
-181.7981481026982
 10
159.181172799711
 20
-106.3037036771276
 10
155.8885802079414
 20
-103.0111110853583
 10
84.78425923806309
 20
-103.0111110853583
 10
84.78425923806309
 20
-109.7530863923146
 10
84.78425923806309
 20
-185.4435184721574
  0
SPLINE
  5
8C
330
87
100
AcDbEntity
  8
Слой 1
 62
   250
420
  3947579
370
    25
100
AcDbSpline
210
0.0
220
0.0
230
1.0
 70
     8
 71
     3
 72
    23
 73
    19
 74
     0
 42
0.0000000001
 43
0.0000000001
 40
0.0
 40
0.0
 40
0.0
 40
0.0
 40
1.0
 40
1.0
 40
1.0
 40
2.0
 40
2.0
 40
2.0
 40
3.0
 40
3.0
 40
3.0
 40
4.0
 40
4.0
 40
4.0
 40
5.0
 40
5.0
 40
5.0
 40
6.0
 40
6.0
 40
6.0
 40
6.0
 10
83.74552467042157
 20
-155.0654320599988
 30
0.0
 10
83.74552467042157
 20
-155.0654320599988
 30
0.0
 10
83.41234565815922
 20
-153.1447530481336
 30
0.0
 10
83.41234565815922
 20
-153.1447530481336
 30
0.0
 10
83.41234565815922
 20
-153.1447530481336
 30
0.0
 10
83.0399691150424
 20
-152.3999999618993
 30
0.0
 10
82.82438269534315
 20
-152.5959876161717
 30
0.0
 10
82.60879627564388
 20
-152.791975270444
 30
0.0
 10
80.06095677010819
 20
-155.359413541407
 30
0.0
 10
80.06095677010819
 20
-155.359413541407
 30
0.0
 10
80.06095677010819
 20
-155.359413541407
 30
0.0
 10
80.06095677010819
 20
-164.4924382304817
 30
0.0
 10
80.06095677010819
 20
-164.4924382304817
 30
0.0
 10
80.06095677010819
 20
-164.4924382304817
 30
0.0
 10
81.27608022659449
 20
-165.6487653906863
 30
0.0
 10
81.27608022659449
 20
-165.6487653906863
 30
0.0
 10
81.27608022659449
 20
-165.6487653906863
 30
0.0
 10
82.82438269534315
 20
-165.6487653906863
 30
0.0
 10
82.82438269534315
 20
-165.6487653906863
 30
0.0
  0
SPLINE
  5
8D
330
87
100
AcDbEntity
  8
Слой 1
 62
   250
420
  3947579
370
    25
100
AcDbSpline
210
0.0
220
0.0
230
1.0
 70
     8
 71
     3
 72
    17
 73
    13
 74
     0
 42
0.0000000001
 43
0.0000000001
 40
0.0
 40
0.0
 40
0.0
 40
0.0
 40
1.0
 40
1.0
 40
1.0
 40
2.0
 40
2.0
 40
2.0
 40
3.0
 40
3.0
 40
3.0
 40
4.0
 40
4.0
 40
4.0
 40
4.0
 10
82.82438269534315
 20
-178.917129584902
 30
0.0
 10
82.82438269534315
 20
-178.917129584902
 30
0.0
 10
81.68765430056515
 20
-178.917129584902
 30
0.0
 10
81.68765430056515
 20
-178.917129584902
 30
0.0
 10
81.68765430056515
 20
-178.917129584902
 30
0.0
 10
80.903703683478
 20
-178.6427468689207
 30
0.0
 10
80.90370368347768
 20
-178.1527777332408
 30
0.0
 10
80.90370368347736
 20
-177.6628085975609
 30
0.0
 10
80.90370368347768
 20
-170.39166662407
 30
0.0
 10
80.90370368347768
 20
-170.39166662407
 30
0.0
 10
80.90370368347768
 20
-170.39166662407
 30
0.0
 10
82.82438269534315
 20
-170.39166662407
 30
0.0
 10
82.82438269534315
 20
-170.39166662407
 30
0.0
  0
LWPOLYLINE
  5
8E
330
87
100
AcDbEntity
  8
Слой 1
 62
   250
420
  3947579
370
    25
100
AcDbPolyline
 90
        4
 70
     0
 43
0.0
 10
82.82438269534315
 20
-169.4901234144191
 10
80.31574072066126
 20
-169.4901234144191
 10
80.31574072066126
 20
-170.39166662407
 10
80.90370368347768
 20
-170.39166662407
  0
SPLINE
  5
8F
330
87
100
AcDbEntity
  8
Слой 1
 62
   250
420
  3947579
370
    25
100
AcDbSpline
210
0.0
220
0.0
230
1.0
 70
     8
 71
     3
 72
    23
 73
    19
 74
     0
 42
0.0000000001
 43
0.0000000001
 40
0.0
 40
0.0
 40
0.0
 40
0.0
 40
1.0
 40
1.0
 40
1.0
 40
2.0
 40
2.0
 40
2.0
 40
3.0
 40
3.0
 40
3.0
 40
4.0
 40
4.0
 40
4.0
 40
5.0
 40
5.0
 40
5.0
 40
6.0
 40
6.0
 40
6.0
 40
6.0
 10
83.71122683092384
 20
-185.6787036572836
 30
0.0
 10
83.71122683092384
 20
-185.6787036572836
 30
0.0
 10
83.71122683092384
 20
-189.5004629155876
 30
0.0
 10
83.71122683092384
 20
-189.5004629155876
 30
0.0
 10
83.71122683092384
 20
-189.5004629155876
 30
0.0
 10
83.78472220127603
 20
-190.1031249524742
 30
0.0
 10
84.5784722010776
 20
-190.1178240265444
 30
0.0
 10
85.37222220087917
 20
-190.1325231006146
 30
0.0
 10
86.37175923766621
 20
-190.1178240265444
 30
0.0
 10
86.37175923766621
 20
-190.1178240265444
 30
0.0
 10
86.37175923766621
 20
-190.1178240265444
 30
0.0
 10
86.37175923766621
 20
-189.4563656933764
 30
0.0
 10
86.37175923766621
 20
-189.4563656933764
 30
0.0
 10
86.37175923766621
 20
-189.4563656933764
 30
0.0
 10
84.31388886781041
 20
-189.4563656933764
 30
0.0
 10
84.31388886781041
 20
-189.4563656933764
 30
0.0
 10
84.31388886781041
 20
-189.4563656933764
 30
0.0
 10
84.3285879418806
 20
-185.5905092128618
 30
0.0
 10
84.3285879418806
 20
-185.5905092128618
 30
0.0
  0
LINE
  5
90
330
87
100
AcDbEntity
  8
Слой 1
 62
   250
420
  3947579
370
    25
100
AcDbLine
 10
84.31388886781041
 20
-131.7624999670597
 30
0.0
 11
84.31388886781041
 21
-155.1385191227381
 31
0.0
  0
SPLINE
  5
91
330
87
100
AcDbEntity
  8
Слой 1
 62
   250
420
  3947579
370
    25
100
AcDbSpline
210
0.0
220
0.0
230
1.0
 70
     8
 71
     3
 72
    29
 73
    25
 74
     0
 42
0.0000000001
 43
0.0000000001
 40
0.0
 40
0.0
 40
0.0
 40
0.0
 40
1.0
 40
1.0
 40
1.0
 40
2.0
 40
2.0
 40
2.0
 40
3.0
 40
3.0
 40
3.0
 40
4.0
 40
4.0
 40
4.0
 40
5.0
 40
5.0
 40
5.0
 40
6.0
 40
6.0
 40
6.0
 40
7.0
 40
7.0
 40
7.0
 40
8.0
 40
8.0
 40
8.0
 40
8.0
 10
84.78425923806309
 20
-125.1773147835213
 30
0.0
 10
84.78425923806309
 20
-125.1773147835213
 30
0.0
 10
82.40300923865905
 20
-125.1773147835213
 30
0.0
 10
82.40300923865905
 20
-125.1773147835213
 30
0.0
 10
82.40300923865905
 20
-125.1773147835213
 30
0.0
 10
81.02129627604172
 20
-127.558564782926
 30
0.0
 10
81.02129627604172
 20
-127.558564782926
 30
0.0
 10
81.02129627604172
 20
-127.558564782926
 30
0.0
 10
81.02129627604172
 20
-130.6453703377099
 30
0.0
 10
81.02129627604172
 20
-130.6453703377099
 30
0.0
 10
81.02129627604172
 20
-130.6453703377099
 30
0.0
 10
82.49120368308144
 20
-133.3499999666631
 30
0.0
 10
82.49120368308144
 20
-133.3499999666631
 30
0.0
 10
82.49120368308144
 20
-133.3499999666631
 30
0.0
 10
83.13796294217922
 20
-133.3499999666631
 30
0.0
 10
83.13796294217922
 20
-133.3499999666631
 30
0.0
 10
83.13796294217922
 20
-133.3499999666631
 30
0.0
 10
83.5495370161502
 20
-132.9972221889735
 30
0.0
 10
83.5201388680095
 20
-132.2916666335944
 30
0.0
 10
83.49074071986882
 20
-131.5861110782152
 30
0.0
 10
83.96111109012148
 20
-131.7624999670597
 30
0.0
 10
83.96111109012148
 20
-131.7624999670597
 30
0.0
 10
83.96111109012148
 20
-131.7624999670597
 30
0.0
 10
84.78425923806309
 20
-131.7624999670597
 30
0.0
 10
84.78425923806309
 20
-131.7624999670597
 30
0.0
  0
LWPOLYLINE
  5
92
330
87
100
AcDbEntity
  8
Слой 1
 62
   250
420
  3947579
370
    25
100
AcDbPolyline
 90
        4
 70
     0
 43
0.0
 10
84.25509257152873
 20
-133.3499999666631
 10
83.78472220127603
 20
-134.4524305219424
 10
83.78472220127603
 20
-134.996296262547
 10
84.25509257152873
 20
-134.996296262547
  0
LWPOLYLINE
  5
93
330
87
100
AcDbEntity
  8
Слой 1
 62
   250
420
  3947579
370
    25
100
AcDbPolyline
 90
        4
 70
     1
 43
0.0
 10
144.9916666304181
 20
-110.145061700858
 10
143.8941357664955
 20
-110.145061700858
 10
143.8941357664955
 20
-105.6765431834568
 10
144.9916666304181
 20
-105.6765431834568
  0
LWPOLYLINE
  5
94
330
87
100
AcDbEntity
  8
Слой 1
 62
   250
420
  3947579
370
    25
100
AcDbPolyline
 90
        4
 70
     1
 43
0.0
 10
144.9916666304181
 20
-182.5037036580773
 10
143.8941357664955
 20
-182.5037036580773
 10
143.8941357664955
 20
-178.4271604492196
 10
144.9916666304181
 20
-178.4271604492196
  0
SPLINE
  5
95
330
87
100
AcDbEntity
  8
Слой 1
 62
   250
420
  3947579
370
    25
100
AcDbSpline
210
0.0
220
0.0
230
1.0
 70
     9
 71
     3
 72
    23
 73
    19
 74
     0
 42
0.0000000001
 43
0.0000000001
 40
0.0
 40
0.0
 40
0.0
 40
0.0
 40
1.0
 40
1.0
 40
1.0
 40
2.0
 40
2.0
 40
2.0
 40
3.0
 40
3.0
 40
3.0
 40
4.0
 40
4.0
 40
4.0
 40
5.0
 40
5.0
 40
5.0
 40
6.0
 40
6.0
 40
6.0
 40
6.0
 10
155.9903743756467
 20
-134.5727241042878
 30
0.0
 10
155.9903743756467
 20
-134.5727241042878
 30
0.0
 10
159.181172799711
 20
-134.5727241042878
 30
0.0
 10
159.181172799711
 20
-134.5727241042878
 30
0.0
 10
159.181172799711
 20
-134.5727241042878
 30
0.0
 10
159.181172799711
 20
-122.2374999694406
 30
0.0
 10
159.181172799711
 20
-122.2374999694406
 30
0.0
 10
159.181172799711
 20
-122.2374999694406
 30
0.0
 10
155.9903743756467
 20
-122.2374999694406
 30
0.0
 10
155.9903743756467
 20
-122.2374999694406
 30
0.0
 10
154.9383378771937
 20
-122.2374999694406
 30
0.0
 10
154.085493788639
 20
-123.0903440579953
 30
0.0
 10
154.085493788639
 20
-124.1423805564483
 30
0.0
 10
154.085493788639
 20
-124.1423805564483
 30
0.0
 10
154.085493788639
 20
-132.6678435172804
 30
0.0
 10
154.085493788639
 20
-132.6678435172804
 30
0.0
 10
154.085493788639
 20
-133.7198800157328
 30
0.0
 10
154.9383378771937
 20
-134.5727241042878
 30
0.0
 10
155.9903743756467
 20
-134.5727241042878
 30
0.0
  0
SPLINE
  5
96
330
87
100
AcDbEntity
  8
Слой 1
 62
   250
420
  3947579
370
    25
100
AcDbSpline
210
0.0
220
0.0
230
1.0
 70
     9
 71
     3
 72
    23
 73
    19
 74
     0
 42
0.0000000001
 43
0.0000000001
 40
0.0
 40
0.0
 40
0.0
 40
0.0
 40
1.0
 40
1.0
 40
1.0
 40
2.0
 40
2.0
 40
2.0
 40
3.0
 40
3.0
 40
3.0
 40
4.0
 40
4.0
 40
4.0
 40
5.0
 40
5.0
 40
5.0
 40
6.0
 40
6.0
 40
6.0
 40
6.0
 10
156.0649690967862
 20
-133.7615740406334
 30
0.0
 10
156.0649690967862
 20
-133.7615740406334
 30
0.0
 10
159.181172799711
 20
-133.7615740406334
 30
0.0
 10
159.181172799711
 20
-133.7615740406334
 30
0.0
 10
159.181172799711
 20
-133.7615740406334
 30
0.0
 10
159.181172799711
 20
-123.1978394753732
 30
0.0
 10
159.181172799711
 20
-123.1978394753732
 30
0.0
 10
159.181172799711
 20
-123.1978394753732
 30
0.0
 10
156.0649690967862
 20
-123.1978394753732
 30
0.0
 10
156.0649690967862
 20
-123.1978394753732
 30
0.0
 10
155.5454123322602
 20
-123.1978394753732
 30
0.0
 10
155.1242283562808
 20
-123.619023451353
 30
0.0
 10
155.1242283562808
 20
-124.1385802158785
 30
0.0
 10
155.1242283562808
 20
-124.1385802158785
 30
0.0
 10
155.1242283562808
 20
-132.8208333001281
 30
0.0
 10
155.1242283562808
 20
-132.8208333001281
 30
0.0
 10
155.1242283562808
 20
-133.3403900646537
 30
0.0
 10
155.5454123322602
 20
-133.7615740406334
 30
0.0
 10
156.0649690967862
 20
-133.7615740406334
 30
0.0
  0
CIRCLE
  5
97
330
87
100
AcDbEntity
  8
Слой 1
 62
   250
420
  3947579
370
    25
100
AcDbCircle
 10
156.8685184793018
 20
-126.2748456474432
 30
0.0
 40
0.7839506171434923
  0
CIRCLE
  5
98
330
87
100
AcDbEntity
  8
Слой 1
 62
   250
420
  3947579
370
    25
100
AcDbCircle
 10
156.8685184793018
 20
-130.6061728068544
 30
0.0
 40
0.7839506171434522
  0
SPLINE
  5
99
330
87
100
AcDbEntity
  8
Слой 1
 62
   250
420
  3947579
370
    25
100
AcDbSpline
210
0.0
220
0.0
230
1.0
 70
     9
 71
     3
 72
    23
 73
    19
 74
     0
 42
0.0000000001
 43
0.0000000001
 40
0.0
 40
0.0
 40
0.0
 40
0.0
 40
1.0
 40
1.0
 40
1.0
 40
2.0
 40
2.0
 40
2.0
 40
3.0
 40
3.0
 40
3.0
 40
4.0
 40
4.0
 40
4.0
 40
5.0
 40
5.0
 40
5.0
 40
6.0
 40
6.0
 40
6.0
 40
6.0
 10
155.9903743756467
 20
-166.3227240963506
 30
0.0
 10
155.9903743756467
 20
-166.3227240963506
 30
0.0
 10
159.181172799711
 20
-166.3227240963506
 30
0.0
 10
159.181172799711
 20
-166.3227240963506
 30
0.0
 10
159.181172799711
 20
-166.3227240963506
 30
0.0
 10
159.181172799711
 20
-153.9874999615031
 30
0.0
 10
159.181172799711
 20
-153.9874999615031
 30
0.0
 10
159.181172799711
 20
-153.9874999615031
 30
0.0
 10
155.9903743756467
 20
-153.9874999615031
 30
0.0
 10
155.9903743756467
 20
-153.9874999615031
 30
0.0
 10
154.9383378771937
 20
-153.9874999615031
 30
0.0
 10
154.085493788639
 20
-154.8403440500578
 30
0.0
 10
154.085493788639
 20
-155.8923805485109
 30
0.0
 10
154.085493788639
 20
-155.8923805485109
 30
0.0
 10
154.085493788639
 20
-164.4178435093429
 30
0.0
 10
154.085493788639
 20
-164.4178435093429
 30
0.0
 10
154.085493788639
 20
-165.4698800077959
 30
0.0
 10
154.9383378771937
 20
-166.3227240963506
 30
0.0
 10
155.9903743756467
 20
-166.3227240963506
 30
0.0
  0
SPLINE
  5
9A
330
87
100
AcDbEntity
  8
Слой 1
 62
   250
420
  3947579
370
    25
100
AcDbSpline
210
0.0
220
0.0
230
1.0
 70
     9
 71
     3
 72
    23
 73
    19
 74
     0
 42
0.0000000001
 43
0.0000000001
 40
0.0
 40
0.0
 40
0.0
 40
0.0
 40
1.0
 40
1.0
 40
1.0
 40
2.0
 40
2.0
 40
2.0
 40
3.0
 40
3.0
 40
3.0
 40
4.0
 40
4.0
 40
4.0
 40
5.0
 40
5.0
 40
5.0
 40
6.0
 40
6.0
 40
6.0
 40
6.0
 10
156.0649690967862
 20
-165.5115740326959
 30
0.0
 10
156.0649690967862
 20
-165.5115740326959
 30
0.0
 10
159.181172799711
 20
-165.5115740326959
 30
0.0
 10
159.181172799711
 20
-165.5115740326959
 30
0.0
 10
159.181172799711
 20
-165.5115740326959
 30
0.0
 10
159.181172799711
 20
-154.947839467436
 30
0.0
 10
159.181172799711
 20
-154.947839467436
 30
0.0
 10
159.181172799711
 20
-154.947839467436
 30
0.0
 10
156.0649690967862
 20
-154.947839467436
 30
0.0
 10
156.0649690967862
 20
-154.947839467436
 30
0.0
 10
155.5454123322602
 20
-154.947839467436
 30
0.0
 10
155.1242283562808
 20
-155.3690234434155
 30
0.0
 10
155.1242283562808
 20
-155.8885802079407
 30
0.0
 10
155.1242283562808
 20
-155.8885802079407
 30
0.0
 10
155.1242283562808
 20
-164.5708332921906
 30
0.0
 10
155.1242283562808
 20
-164.5708332921906
 30
0.0
 10
155.1242283562808
 20
-165.0903900567165
 30
0.0
 10
155.5454123322602
 20
-165.5115740326959
 30
0.0
 10
156.0649690967862
 20
-165.5115740326959
 30
0.0
  0
CIRCLE
  5
9B
330
87
100
AcDbEntity
  8
Слой 1
 62
   250
420
  3947579
370
    25
100
AcDbCircle
 10
156.8685184793018
 20
-158.0248456395058
 30
0.0
 40
0.7839506171436124
  0
CIRCLE
  5
9C
330
87
100
AcDbEntity
  8
Слой 1
 62
   250
420
  3947579
370
    25
100
AcDbCircle
 10
156.8685184793018
 20
-162.3561727989171
 30
0.0
 40
0.7839506171433719
  0
INSERT
  5
9E
330
87
100
AcDbEntity
  8
Слой 1
100
AcDbBlockReference
  2
Block_1
 10
0.0
 20
0.0
 30
0.0
  0
INSERT
  5
A9
330
87
100
AcDbEntity
  8
Слой 1
100
AcDbBlockReference
  2
Block_2
 10
0.0
 20
0.0
 30
0.0
  0
INSERT
  5
B4
330
87
100
AcDbEntity
  8
Слой 1
100
AcDbBlockReference
  2
Block_3
 10
0.0
 20
0.0
 30
0.0
  0
INSERT
  5
BF
330
87
100
AcDbEntity
  8
Слой 1
100
AcDbBlockReference
  2
Block_4
 10
0.0
 20
0.0
 30
0.0
  0
INSERT
  5
CA
330
87
100
AcDbEntity
  8
Слой 1
100
AcDbBlockReference
  2
Block_5
 10
0.0
 20
0.0
 30
0.0
  0
LWPOLYLINE
  5
D4
330
87
100
AcDbEntity
  8
Слой 1
 62
   250
420
  3947579
370
    25
100
AcDbPolyline
 90
        4
 70
     0
 43
0.0
 10
145.2660493463994
 20
-185.5905092128618
 10
145.2660493463994
 20
-186.0314814349732
 10
150.6361110734521
 20
-186.0314814349732
 10
150.6361110734521
 20
-185.5905092128618
  0
SPLINE
  5
D5
330
87
100
AcDbEntity
  8
Слой 1
 62
   250
420
  3947579
370
    25
100
AcDbSpline
210
0.0
220
0.0
230
1.0
 70
     8
 71
     3
 72
    11
 73
     7
 74
     0
 42
0.0000000001
 43
0.0000000001
 40
0.0
 40
0.0
 40
0.0
 40
0.0
 40
1.0
 40
1.0
 40
1.0
 40
2.0
 40
2.0
 40
2.0
 40
2.0
 10
146.089197494342
 20
-186.1490740275372
 30
0.0
 10
146.089197494342
 20
-186.1490740275372
 30
0.0
 10
147.2455246545466
 20
-186.9526234100516
 30
0.0
 10
147.9510802099257
 20
-186.9722221754791
 30
0.0
 10
148.6566357653049
 20
-186.9918209409067
 30
0.0
 10
149.4209876169654
 20
-186.3646604472365
 30
0.0
 10
149.7149690983737
 20
-186.1490740275372
 30
0.0
  0
ENDBLK
  5
8A
330
87
100
AcDbEntity
  8
0
100
AcDbBlockEnd
  0
BLOCK
  5
9F
330
9D
100
AcDbEntity
  8
0
100
AcDbBlockBegin
  2
Block_1
 70
     0
 10
0.0
 20
0.0
 30
0.0
  3
Block_1
  1

  0
CIRCLE
  5
A1
330
9D
100
AcDbEntity
  8
Слой 1
 62
   250
420
  3947579
370
    25
100
AcDbCircle
 10
147.9902777407795
 20
-143.5805555196604
 30
0.0
 40
2.26365740684192
  0
CIRCLE
  5
A2
330
9D
100
AcDbEntity
  8
Слой 1
 62
   250
420
  3947579
370
    25
100
AcDbCircle
 10
147.9902777407797
 20
-143.5805555196602
 30
0.0
 40
1.778587962425857
  0
CIRCLE
  5
A3
330
9D
100
AcDbEntity
  8
Слой 1
 62
   250
420
  3947579
370
    25
100
AcDbCircle
 10
147.9902777407795
 20
-143.5805555196604
 30
0.0
 40
1.162566287613685
  0
LWPOLYLINE
  5
A4
330
9D
100
AcDbEntity
  8
Слой 1
 62
   250
420
  3947579
370
    25
100
AcDbPolyline
 90
        3
 70
     0
 43
0.0
 10
149.0841386210406
 20
-143.1912381979804
 10
148.3626494990421
 20
-143.1912381979804
 10
148.3626494990421
 20
-142.4697490759819
  0
LWPOLYLINE
  5
A5
330
9D
100
AcDbEntity
  8
Слой 1
 62
   250
420
  3947579
370
    25
100
AcDbPolyline
 90
        3
 70
     0
 43
0.0
 10
148.3626494990421
 20
-144.629091862443
 10
148.3626494990421
 20
-143.9076027404445
 10
149.0841386210406
 20
-143.9076027404445
  0
LWPOLYLINE
  5
A6
330
9D
100
AcDbEntity
  8
Слой 1
 62
   250
420
  3947579
370
    25
100
AcDbPolyline
 90
        3
 70
     0
 43
0.0
 10
146.9247958345795
 20
-143.9076027404445
 10
147.646284956578
 20
-143.9076027404445
 10
147.646284956578
 20
-144.629091862443
  0
LWPOLYLINE
  5
A7
330
9D
100
AcDbEntity
  8
Слой 1
 62
   250
420
  3947579
370
    25
100
AcDbPolyline
 90
        3
 70
     0
 43
0.0
 10
147.646284956578
 20
-142.4697490759819
 10
147.646284956578
 20
-143.1912381979804
 10
146.9247958345795
 20
-143.1912381979804
  0
ENDBLK
  5
A0
330
9D
100
AcDbEntity
  8
0
100
AcDbBlockEnd
  0
BLOCK
  5
AA
330
A8
100
AcDbEntity
  8
0
100
AcDbBlockBegin
  2
Block_2
 70
     0
 10
0.0
 20
0.0
 30
0.0
  3
Block_2
  1

  0
CIRCLE
  5
AC
330
A8
100
AcDbEntity
  8
Слой 1
 62
   250
420
  3947579
370
    25
100
AcDbCircle
 10
127.5399804067232
 20
-106.3010456902636
 30
0.0
 40
2.26365740684192
  0
CIRCLE
  5
AD
330
A8
100
AcDbEntity
  8
Слой 1
 62
   250
420
  3947579
370
    25
100
AcDbCircle
 10
127.5399804067234
 20
-106.3010456902635
 30
0.0
 40
1.778587962425857
  0
CIRCLE
  5
AE
330
A8
100
AcDbEntity
  8
Слой 1
 62
   250
420
  3947579
370
    25
100
AcDbCircle
 10
127.5399804067232
 20
-106.3010456902636
 30
0.0
 40
1.162566287613685
  0
LWPOLYLINE
  5
AF
330
A8
100
AcDbEntity
  8
Слой 1
 62
   250
420
  3947579
370
    25
100
AcDbPolyline
 90
        3
 70
     0
 43
0.0
 10
128.6338412869843
 20
-105.9117283685836
 10
127.9123521649858
 20
-105.9117283685836
 10
127.9123521649858
 20
-105.1902392465851
  0
LWPOLYLINE
  5
B0
330
A8
100
AcDbEntity
  8
Слой 1
 62
   250
420
  3947579
370
    25
100
AcDbPolyline
 90
        3
 70
     0
 43
0.0
 10
127.9123521649858
 20
-107.3495820330462
 10
127.9123521649858
 20
-106.6280929110477
 10
128.6338412869843
 20
-106.6280929110477
  0
LWPOLYLINE
  5
B1
330
A8
100
AcDbEntity
  8
Слой 1
 62
   250
420
  3947579
370
    25
100
AcDbPolyline
 90
        3
 70
     0
 43
0.0
 10
126.4744985005233
 20
-106.6280929110477
 10
127.1959876225217
 20
-106.6280929110477
 10
127.1959876225217
 20
-107.3495820330462
  0
LWPOLYLINE
  5
B2
330
A8
100
AcDbEntity
  8
Слой 1
 62
   250
420
  3947579
370
    25
100
AcDbPolyline
 90
        3
 70
     0
 43
0.0
 10
127.1959876225217
 20
-105.1902392465851
 10
127.1959876225217
 20
-105.9117283685836
 10
126.4744985005233
 20
-105.9117283685836
  0
ENDBLK
  5
AB
330
A8
100
AcDbEntity
  8
0
100
AcDbBlockEnd
  0
BLOCK
  5
B5
330
B3
100
AcDbEntity
  8
0
100
AcDbBlockBegin
  2
Block_3
 70
     0
 10
0.0
 20
0.0
 30
0.0
  3
Block_3
  1

  0
CIRCLE
  5
B7
330
B3
100
AcDbEntity
  8
Слой 1
 62
   250
420
  3947579
370
    25
100
AcDbCircle
 10
121.0331902848935
 20
-117.9035148231655
 30
0.0
 40
2.263657406842041
  0
CIRCLE
  5
B8
330
B3
100
AcDbEntity
  8
Слой 1
 62
   250
420
  3947579
370
    25
100
AcDbCircle
 10
121.0331902848937
 20
-117.9035148231652
 30
0.0
 40
1.778587962425857
  0
CIRCLE
  5
B9
330
B3
100
AcDbEntity
  8
Слой 1
 62
   250
420
  3947579
370
    25
100
AcDbCircle
 10
121.0331902848935
 20
-117.9035148231655
 30
0.0
 40
1.162566287613645
  0
LWPOLYLINE
  5
BA
330
B3
100
AcDbEntity
  8
Слой 1
 62
   250
420
  3947579
370
    25
100
AcDbPolyline
 90
        3
 70
     0
 43
0.0
 10
122.1270511651545
 20
-117.5141975014854
 10
121.4055620431561
 20
-117.5141975014854
 10
121.4055620431561
 20
-116.7927083794869
  0
LWPOLYLINE
  5
BB
330
B3
100
AcDbEntity
  8
Слой 1
 62
   250
420
  3947579
370
    25
100
AcDbPolyline
 90
        3
 70
     0
 43
0.0
 10
121.4055620431561
 20
-118.952051165948
 10
121.4055620431561
 20
-118.2305620439495
 10
122.1270511651545
 20
-118.2305620439495
  0
LWPOLYLINE
  5
BC
330
B3
100
AcDbEntity
  8
Слой 1
 62
   250
420
  3947579
370
    25
100
AcDbPolyline
 90
        3
 70
     0
 43
0.0
 10
119.9677083786935
 20
-118.2305620439495
 10
120.689197500692
 20
-118.2305620439495
 10
120.689197500692
 20
-118.952051165948
  0
LWPOLYLINE
  5
BD
330
B3
100
AcDbEntity
  8
Слой 1
 62
   250
420
  3947579
370
    25
100
AcDbPolyline
 90
        3
 70
     0
 43
0.0
 10
120.689197500692
 20
-116.7927083794869
 10
120.689197500692
 20
-117.5141975014854
 10
119.9677083786935
 20
-117.5141975014854
  0
ENDBLK
  5
B6
330
B3
100
AcDbEntity
  8
0
100
AcDbBlockEnd
  0
BLOCK
  5
C0
330
BE
100
AcDbEntity
  8
0
100
AcDbBlockBegin
  2
Block_4
 70
     0
 10
0.0
 20
0.0
 30
0.0
  3
Block_4
  1

  0
CIRCLE
  5
C2
330
BE
100
AcDbEntity
  8
Слой 1
 62
   250
420
  3947579
370
    25
100
AcDbCircle
 10
121.0331902848935
 20
-170.39166662407
 30
0.0
 40
2.26365740684192
  0
CIRCLE
  5
C3
330
BE
100
AcDbEntity
  8
Слой 1
 62
   250
420
  3947579
370
    25
100
AcDbCircle
 10
121.0331902848937
 20
-170.3916666240699
 30
0.0
 40
1.778587962425857
  0
CIRCLE
  5
C4
330
BE
100
AcDbEntity
  8
Слой 1
 62
   250
420
  3947579
370
    25
100
AcDbCircle
 10
121.0331902848935
 20
-170.39166662407
 30
0.0
 40
1.162566287613685
  0
LWPOLYLINE
  5
C5
330
BE
100
AcDbEntity
  8
Слой 1
 62
   250
420
  3947579
370
    25
100
AcDbPolyline
 90
        3
 70
     0
 43
0.0
 10
122.1270511651545
 20
-170.00234930239
 10
121.4055620431561
 20
-170.00234930239
 10
121.4055620431561
 20
-169.2808601803916
  0
LWPOLYLINE
  5
C6
330
BE
100
AcDbEntity
  8
Слой 1
 62
   250
420
  3947579
370
    25
100
AcDbPolyline
 90
        3
 70
     0
 43
0.0
 10
121.4055620431561
 20
-171.4402029668526
 10
121.4055620431561
 20
-170.7187138448541
 10
122.1270511651545
 20
-170.7187138448541
  0
LWPOLYLINE
  5
C7
330
BE
100
AcDbEntity
  8
Слой 1
 62
   250
420
  3947579
370
    25
100
AcDbPolyline
 90
        3
 70
     0
 43
0.0
 10
119.9677083786935
 20
-170.7187138448541
 10
120.689197500692
 20
-170.7187138448541
 10
120.689197500692
 20
-171.4402029668526
  0
LWPOLYLINE
  5
C8
330
BE
100
AcDbEntity
  8
Слой 1
 62
   250
420
  3947579
370
    25
100
AcDbPolyline
 90
        3
 70
     0
 43
0.0
 10
120.689197500692
 20
-169.2808601803916
 10
120.689197500692
 20
-170.00234930239
 10
119.9677083786935
 20
-170.00234930239
  0
ENDBLK
  5
C1
330
BE
100
AcDbEntity
  8
0
100
AcDbBlockEnd
  0
BLOCK
  5
CB
330
C9
100
AcDbEntity
  8
0
100
AcDbBlockBegin
  2
Block_5
 70
     0
 10
0.0
 20
0.0
 30
0.0
  3
Block_5
  1

  0
CIRCLE
  5
CD
330
C9
100
AcDbEntity
  8
Слой 1
 62
   250
420
  3947579
370
    25
100
AcDbCircle
 10
127.5399804067232
 20
-182.1090703626699
 30
0.0
 40
2.26365740684192
  0
CIRCLE
  5
CE
330
C9
100
AcDbEntity
  8
Слой 1
 62
   250
420
  3947579
370
    25
100
AcDbCircle
 10
127.5399804067234
 20
-182.1090703626697
 30
0.0
 40
1.778587962425857
  0
CIRCLE
  5
CF
330
C9
100
AcDbEntity
  8
Слой 1
 62
   250
420
  3947579
370
    25
100
AcDbCircle
 10
127.5399804067232
 20
-182.1090703626699
 30
0.0
 40
1.162566287613685
  0
LWPOLYLINE
  5
D0
330
C9
100
AcDbEntity
  8
Слой 1
 62
   250
420
  3947579
370
    25
100
AcDbPolyline
 90
        3
 70
     0
 43
0.0
 10
128.6338412869843
 20
-181.7197530409899
 10
127.9123521649858
 20
-181.7197530409899
 10
127.9123521649858
 20
-180.9982639189914
  0
LWPOLYLINE
  5
D1
330
C9
100
AcDbEntity
  8
Слой 1
 62
   250
420
  3947579
370
    25
100
AcDbPolyline
 90
        3
 70
     0
 43
0.0
 10
127.9123521649858
 20
-183.1576067054525
 10
127.9123521649858
 20
-182.436117583454
 10
128.6338412869843
 20
-182.436117583454
  0
LWPOLYLINE
  5
D2
330
C9
100
AcDbEntity
  8
Слой 1
 62
   250
420
  3947579
370
    25
100
AcDbPolyline
 90
        3
 70
     0
 43
0.0
 10
126.4744985005233
 20
-182.436117583454
 10
127.1959876225217
 20
-182.436117583454
 10
127.1959876225217
 20
-183.1576067054525
  0
LWPOLYLINE
  5
D3
330
C9
100
AcDbEntity
  8
Слой 1
 62
   250
420
  3947579
370
    25
100
AcDbPolyline
 90
        3
 70
     0
 43
0.0
 10
127.1959876225217
 20
-180.9982639189914
 10
127.1959876225217
 20
-181.7197530409899
 10
126.4744985005233
 20
-181.7197530409899
  0
ENDBLK
  5
CC
330
C9
100
AcDbEntity
  8
0
100
AcDbBlockEnd
  0
BLOCK
  5
D8
330
D6
100
AcDbEntity
  8
0
100
AcDbBlockBegin
  2
Block_6
 70
     0
 10
0.0
 20
0.0
 30
0.0
  3
Block_6
  1

  0
LWPOLYLINE
  5
DA
330
D6
100
AcDbEntity
  8
Слой 1
 62
   250
420
  3947579
370
    25
100
AcDbPolyline
 90
        4
 70
     1
 43
0.0
 10
61.34413578713335
 20
-185.8109953239172
 10
33.37955168843246
 20
-185.8109953239172
 10
33.37955168843246
 20
-103.0111110853583
 10
61.34413578713335
 20
-103.0111110853583
  0
LWPOLYLINE
  5
DB
330
D6
100
AcDbEntity
  8
Слой 1
 62
   250
420
  3947579
370
    25
100
AcDbPolyline
 90
        4
 70
     1
 43
0.0
 10
52.05432097464078
 20
-185.8109953239172
 10
43.15768726813033
 20
-185.8109953239172
 10
43.15768726813033
 20
-190.2256172363943
 10
52.05432097464078
 20
-190.2256172363943
  0
LWPOLYLINE
  5
DC
330
D6
100
AcDbEntity
  8
Слой 1
 62
   250
420
  3947579
370
    25
100
AcDbPolyline
 90
        4
 70
     1
 43
0.0
 10
52.05432097464078
 20
-185.8109953239172
 10
43.15768726813033
 20
-185.8109953239172
 10
43.15768726813033
 20
-189.4710647674466
 10
52.05432097464078
 20
-189.4710647674466
  0
LWPOLYLINE
  5
DD
330
D6
100
AcDbEntity
  8
Слой 1
 62
   250
420
  3947579
370
    25
100
AcDbPolyline
 90
        4
 70
     1
 43
0.0
 10
49.77106480237194
 20
-185.8109953239172
 10
45.15555554426667
 20
-185.8109953239172
 10
45.15555554426667
 20
-188.2363425455331
 10
49.77106480237194
 20
-188.2363425455331
  0
SPLINE
  5
DE
330
D6
100
AcDbEntity
  8
Слой 1
 62
   250
420
  3947579
370
    25
100
AcDbSpline
210
0.0
220
0.0
230
1.0
 70
     9
 71
     3
 72
    23
 73
    19
 74
     0
 42
0.0000000001
 43
0.0000000001
 40
0.0
 40
0.0
 40
0.0
 40
0.0
 40
1.0
 40
1.0
 40
1.0
 40
2.0
 40
2.0
 40
2.0
 40
3.0
 40
3.0
 40
3.0
 40
4.0
 40
4.0
 40
4.0
 40
5.0
 40
5.0
 40
5.0
 40
6.0
 40
6.0
 40
6.0
 40
6.0
 10
61.08200229954388
 20
-165.3743826747056
 30
0.0
 10
61.08200229954388
 20
-165.3743826747056
 30
0.0
 10
61.34413578713335
 20
-165.3743826747056
 30
0.0
 10
61.34413578713335
 20
-165.3743826747056
 30
0.0
 10
61.34413578713335
 20
-165.3743826747056
 30
0.0
 10
61.34413578713335
 20
-154.5558641588919
 30
0.0
 10
61.34413578713335
 20
-154.5558641588919
 30
0.0
 10
61.34413578713335
 20
-154.5558641588919
 30
0.0
 10
61.08200229954388
 20
-154.5558641588919
 30
0.0
 10
61.08200229954388
 20
-154.5558641588919
 30
0.0
 10
60.88040345080864
 20
-154.5558641588919
 30
0.0
 10
60.71697529346248
 20
-154.7192923162381
 30
0.0
 10
60.71697529346248
 20
-154.920891164973
 30
0.0
 10
60.71697529346248
 20
-154.920891164973
 30
0.0
 10
60.71697529346248
 20
-165.0093556686239
 30
0.0
 10
60.71697529346248
 20
-165.0093556686239
 30
0.0
 10
60.71697529346248
 20
-165.2109545173594
 30
0.0
 10
60.88040345080864
 20
-165.3743826747056
 30
0.0
 10
61.08200229954388
 20
-165.3743826747056
 30
0.0
  0
SPLINE
  5
DF
330
D6
100
AcDbEntity
  8
Слой 1
 62
   250
420
  3947579
370
    25
100
AcDbSpline
210
0.0
220
0.0
230
1.0
 70
     9
 71
     3
 72
    23
 73
    19
 74
     0
 42
0.0000000001
 43
0.0000000001
 40
0.0
 40
0.0
 40
0.0
 40
0.0
 40
1.0
 40
1.0
 40
1.0
 40
2.0
 40
2.0
 40
2.0
 40
3.0
 40
3.0
 40
3.0
 40
4.0
 40
4.0
 40
4.0
 40
5.0
 40
5.0
 40
5.0
 40
6.0
 40
6.0
 40
6.0
 40
6.0
 10
61.08200229954388
 20
-133.8007715714879
 30
0.0
 10
61.08200229954388
 20
-133.8007715714879
 30
0.0
 10
61.34413578713335
 20
-133.8007715714879
 30
0.0
 10
61.34413578713335
 20
-133.8007715714879
 30
0.0
 10
61.34413578713335
 20
-133.8007715714879
 30
0.0
 10
61.34413578713335
 20
-122.9822530556742
 30
0.0
 10
61.34413578713335
 20
-122.9822530556742
 30
0.0
 10
61.34413578713335
 20
-122.9822530556742
 30
0.0
 10
61.08200229954388
 20
-122.9822530556742
 30
0.0
 10
61.08200229954388
 20
-122.9822530556742
 30
0.0
 10
60.88040345080864
 20
-122.9822530556742
 30
0.0
 10
60.71697529346248
 20
-123.1456812130204
 30
0.0
 10
60.71697529346248
 20
-123.3472800617553
 30
0.0
 10
60.71697529346248
 20
-123.3472800617553
 30
0.0
 10
60.71697529346248
 20
-133.4357445654062
 30
0.0
 10
60.71697529346248
 20
-133.4357445654062
 30
0.0
 10
60.71697529346248
 20
-133.6373434141417
 30
0.0
 10
60.88040345080864
 20
-133.8007715714879
 30
0.0
 10
61.08200229954388
 20
-133.8007715714879
 30
0.0
  0
SPLINE
  5
E0
330
D6
100
AcDbEntity
  8
Слой 1
 62
   250
420
  3947579
370
    25
100
AcDbSpline
210
0.0
220
0.0
230
1.0
 70
     9
 71
     3
 72
    23
 73
    19
 74
     0
 42
0.0000000001
 43
0.0000000001
 40
0.0
 40
0.0
 40
0.0
 40
0.0
 40
1.0
 40
1.0
 40
1.0
 40
2.0
 40
2.0
 40
2.0
 40
3.0
 40
3.0
 40
3.0
 40
4.0
 40
4.0
 40
4.0
 40
5.0
 40
5.0
 40
5.0
 40
6.0
 40
6.0
 40
6.0
 40
6.0
 10
33.64168517602192
 20
-165.3743826747172
 30
0.0
 10
33.64168517602192
 20
-165.3743826747172
 30
0.0
 10
33.37955168843246
 20
-165.3743826747056
 30
0.0
 10
33.37955168843246
 20
-165.3743826747056
 30
0.0
 10
33.37955168843246
 20
-165.3743826747056
 30
0.0
 10
33.37955168891823
 20
-154.5558641588919
 30
0.0
 10
33.37955168891823
 20
-154.5558641588919
 30
0.0
 10
33.37955168891823
 20
-154.5558641588919
 30
0.0
 10
33.64168517650802
 20
-154.5558641589035
 30
0.0
 10
33.64168517650802
 20
-154.5558641589035
 30
0.0
 10
33.84328402524294
 20
-154.5558641589131
 30
0.0
 10
34.00671218258171
 20
-154.7192923162663
 30
0.0
 10
34.00671218257273
 20
-154.9208911650013
 30
0.0
 10
34.00671218257273
 20
-154.9208911650013
 30
0.0
 10
34.00671218211969
 20
-165.0093556686521
 30
0.0
 10
34.00671218211969
 20
-165.0093556686521
 30
0.0
 10
34.0067121821107
 20
-165.2109545173877
 30
0.0
 10
33.84328402475717
 20
-165.3743826747268
 30
0.0
 10
33.64168517602192
 20
-165.3743826747172
 30
0.0
  0
SPLINE
  5
E1
330
D6
100
AcDbEntity
  8
Слой 1
 62
   250
420
  3947579
370
    25
100
AcDbSpline
210
0.0
220
0.0
230
1.0
 70
     9
 71
     3
 72
    23
 73
    19
 74
     0
 42
0.0000000001
 43
0.0000000001
 40
0.0
 40
0.0
 40
0.0
 40
0.0
 40
1.0
 40
1.0
 40
1.0
 40
2.0
 40
2.0
 40
2.0
 40
3.0
 40
3.0
 40
3.0
 40
4.0
 40
4.0
 40
4.0
 40
5.0
 40
5.0
 40
5.0
 40
6.0
 40
6.0
 40
6.0
 40
6.0
 10
33.64168517743975
 20
-133.8007715714995
 30
0.0
 10
33.64168517743975
 20
-133.8007715714995
 30
0.0
 10
33.37955168985029
 20
-133.8007715714879
 30
0.0
 10
33.37955168985029
 20
-133.8007715714879
 30
0.0
 10
33.37955168985029
 20
-133.8007715714879
 30
0.0
 10
33.37955169033574
 20
-122.9822530556742
 30
0.0
 10
33.37955169033574
 20
-122.9822530556742
 30
0.0
 10
33.37955169033574
 20
-122.9822530556742
 30
0.0
 10
33.64168517792553
 20
-122.9822530556858
 30
0.0
 10
33.64168517792553
 20
-122.9822530556858
 30
0.0
 10
33.84328402666045
 20
-122.9822530556948
 30
0.0
 10
34.00671218399923
 20
-123.1456812130483
 30
0.0
 10
34.00671218399025
 20
-123.3472800617832
 30
0.0
 10
34.00671218399025
 20
-123.3472800617832
 30
0.0
 10
34.00671218353752
 20
-133.4357445654344
 30
0.0
 10
34.00671218353752
 20
-133.4357445654344
 30
0.0
 10
34.00671218352854
 20
-133.6373434141697
 30
0.0
 10
33.84328402617501
 20
-133.8007715715084
 30
0.0
 10
33.64168517743975
 20
-133.8007715714995
 30
0.0
  0
LINE
  5
E2
330
D6
100
AcDbEntity
  8
Слой 1
 62
   250
420
  3947579
370
    25
100
AcDbLine
 10
33.37955168843246
 20
-105.6569444180295
 30
0.0
 11
61.34413578713335
 21
-105.6569444180295
 31
0.0
  0
LINE
  5
E3
330
D6
100
AcDbEntity
  8
Слой 1
 62
   250
420
  3947579
370
    25
100
AcDbLine
 10
56.97361095974561
 20
-182.5624999543587
 30
0.0
 11
61.34413578713335
 21
-182.5624999543587
 31
0.0
  0
LINE
  5
E4
330
D6
100
AcDbEntity
  8
Слой 1
 62
   250
420
  3947579
370
    25
100
AcDbLine
 10
33.37955168843246
 20
-182.5624999543587
 30
0.0
 11
41.26029882746816
 21
-182.5624999543587
 31
0.0
  0
SPLINE
  5
E5
330
D6
100
AcDbEntity
  8
Слой 1
 62
   250
420
  3947579
370
    25
100
AcDbSpline
210
0.0
220
0.0
230
1.0
 70
     9
 71
     3
 72
    29
 73
    25
 74
     0
 42
0.0000000001
 43
0.0000000001
 40
0.0
 40
0.0
 40
0.0
 40
0.0
 40
1.0
 40
1.0
 40
1.0
 40
2.0
 40
2.0
 40
2.0
 40
3.0
 40
3.0
 40
3.0
 40
4.0
 40
4.0
 40
4.0
 40
5.0
 40
5.0
 40
5.0
 40
6.0
 40
6.0
 40
6.0
 40
7.0
 40
7.0
 40
7.0
 40
8.0
 40
8.0
 40
8.0
 40
8.0
 10
54.85694443073021
 20
-176.888657363185
 30
0.0
 10
54.85694443073021
 20
-176.888657363185
 30
0.0
 10
43.62685184094493
 20
-176.888657363185
 30
0.0
 10
43.62685184094493
 20
-176.888657363185
 30
0.0
 10
42.21430688739049
 20
-176.888657363185
 30
0.0
 10
41.06921295269544
 20
-178.0337512978804
 30
0.0
 10
41.06921295269544
 20
-179.4462962514345
 30
0.0
 10
41.06921295269544
 20
-179.4462962514345
 30
0.0
 10
41.06921295269544
 20
-180.9162036584742
 30
0.0
 10
41.06921295269544
 20
-180.9162036584742
 30
0.0
 10
41.06921295269544
 20
-182.328748612029
 30
0.0
 10
42.21430688739049
 20
-183.4738425467237
 30
0.0
 10
43.62685184094493
 20
-183.4738425467237
 30
0.0
 10
43.62685184094493
 20
-183.4738425467237
 30
0.0
 10
54.85694443073021
 20
-183.4738425467237
 30
0.0
 10
54.85694443073021
 20
-183.4738425467237
 30
0.0
 10
56.26948938428465
 20
-183.4738425467237
 30
0.0
 10
57.41458331897969
 20
-182.328748612029
 30
0.0
 10
57.41458331897969
 20
-180.9162036584742
 30
0.0
 10
57.41458331897969
 20
-180.9162036584742
 30
0.0
 10
57.41458331897969
 20
-179.4462962514345
 30
0.0
 10
57.41458331897969
 20
-179.4462962514345
 30
0.0
 10
57.41458331897969
 20
-178.0337512978804
 30
0.0
 10
56.26948938428465
 20
-176.888657363185
 30
0.0
 10
54.85694443073021
 20
-176.888657363185
 30
0.0
  0
SPLINE
  5
E6
330
D6
100
AcDbEntity
  8
Слой 1
 62
   250
420
  3947579
370
    25
100
AcDbSpline
210
0.0
220
0.0
230
1.0
 70
     9
 71
     3
 72
    29
 73
    25
 74
     0
 42
0.0000000001
 43
0.0000000001
 40
0.0
 40
0.0
 40
0.0
 40
0.0
 40
1.0
 40
1.0
 40
1.0
 40
2.0
 40
2.0
 40
2.0
 40
3.0
 40
3.0
 40
3.0
 40
4.0
 40
4.0
 40
4.0
 40
5.0
 40
5.0
 40
5.0
 40
6.0
 40
6.0
 40
6.0
 40
7.0
 40
7.0
 40
7.0
 40
8.0
 40
8.0
 40
8.0
 40
8.0
 10
54.51002914356146
 20
-177.635336051101
 30
0.0
 10
54.51002914356146
 20
-177.635336051101
 30
0.0
 10
43.97376712684856
 20
-177.6353360510882
 30
0.0
 10
43.97376712684856
 20
-177.6353360510882
 30
0.0
 10
42.82423832064531
 20
-177.6353360510863
 30
0.0
 10
41.89236110120208
 20
-178.5672132707021
 30
0.0
 10
41.8923611014164
 20
-179.7167420769054
 30
0.0
 10
41.8923611014164
 20
-179.7167420769054
 30
0.0
 10
41.89236110158869
 20
-180.6457578329918
 30
0.0
 10
41.89236110158869
 20
-180.6457578329918
 30
0.0
 10
41.89236110180238
 20
-181.7952866393003
 30
0.0
 10
42.82423832144968
 20
-182.7271638587743
 30
0.0
 10
43.97376712775753
 20
-182.7271638587762
 30
0.0
 10
43.97376712775753
 20
-182.7271638587762
 30
0.0
 10
54.51002914662461
 20
-182.7271638587897
 30
0.0
 10
54.51002914662461
 20
-182.7271638587897
 30
0.0
 10
55.65955795269632
 20
-182.7271638587916
 30
0.0
 10
56.59143517189378
 20
-181.7952866390186
 30
0.0
 10
56.59143517118149
 20
-180.6457578329469
 30
0.0
 10
56.59143517118149
 20
-180.6457578329469
 30
0.0
 10
56.59143517060621
 20
-179.7167420768592
 30
0.0
 10
56.59143517060621
 20
-179.7167420768592
 30
0.0
 10
56.59143516989424
 20
-178.5672132704197
 30
0.0
 10
55.65955795000117
 20
-177.6353360511023
 30
0.0
 10
54.51002914356146
 20
-177.635336051101
 30
0.0
  0
CIRCLE
  5
E7
330
D6
100
AcDbEntity
  8
Слой 1
 62
   250
420
  3947579
370
    25
100
AcDbCircle
 10
49.24189813583756
 20
-180.1812499549547
 30
0.0
 40
1.734490740419842
  0
CIRCLE
  5
E8
330
D6
100
AcDbEntity
  8
Слой 1
 62
   250
420
  3947579
370
    25
100
AcDbCircle
 10
49.24189813583756
 20
-180.1812499549547
 30
0.0
 40
2.369525015011581
  0
CIRCLE
  5
E9
330
D6
100
AcDbEntity
  8
Слой 1
 62
   250
420
  3947579
370
    25
100
AcDbCircle
 10
54.22191015616975
 20
-180.1812499549547
 30
0.0
 40
1.734490740419842
  0
CIRCLE
  5
EA
330
D6
100
AcDbEntity
  8
Слой 1
 62
   250
420
  3947579
370
    25
100
AcDbCircle
 10
54.22191015616975
 20
-180.1812499549547
 30
0.0
 40
2.369525015011581
  0
CIRCLE
  5
EB
330
D6
100
AcDbEntity
  8
Слой 1
 62
   250
420
  3947579
370
    25
100
AcDbCircle
 10
44.26188611642782
 20
-180.1812499549393
 30
0.0
 40
1.734490740419842
  0
CIRCLE
  5
EC
330
D6
100
AcDbEntity
  8
Слой 1
 62
   250
420
  3947579
370
    25
100
AcDbCircle
 10
44.2618861164279
 20
-180.1812499549393
 30
0.0
 40
2.369525015011461
  0
CIRCLE
  5
ED
330
D6
100
AcDbEntity
  8
Слой 1
 62
   250
420
  3947579
370
    25
100
AcDbCircle
 10
45.30254628497269
 20
-108.7828400603683
 30
0.0
 40
1.454659567602978
  0
CIRCLE
  5
EE
330
D6
100
AcDbEntity
  8
Слой 1
 62
   250
420
  3947579
370
    25
100
AcDbCircle
 10
45.30254628497269
 20
-108.7828400603682
 30
0.0
 40
1.98724164588329
  0
CIRCLE
  5
EF
330
D6
100
AcDbEntity
  8
Слой 1
 62
   250
420
  3947579
370
    25
100
AcDbCircle
 10
49.47911636594117
 20
-108.7828400603683
 30
0.0
 40
1.454659567602777
  0
CIRCLE
  5
F0
330
D6
100
AcDbEntity
  8
Слой 1
 62
   250
420
  3947579
370
    25
100
AcDbCircle
 10
49.47911636594109
 20
-108.7828400603682
 30
0.0
 40
1.98724164588321
  0
CIRCLE
  5
F1
330
D6
100
AcDbEntity
  8
Слой 1
 62
   250
420
  3947579
370
    25
100
AcDbCircle
 10
53.70061727052529
 20
-108.7828400603683
 30
0.0
 40
1.454659567602978
  0
CIRCLE
  5
F2
330
D6
100
AcDbEntity
  8
Слой 1
 62
   250
420
  3947579
370
    25
100
AcDbCircle
 10
53.70061727052537
 20
-108.7828400603682
 30
0.0
 40
1.98724164588317
  0
CIRCLE
  5
F3
330
D6
100
AcDbEntity
  8
Слой 1
 62
   250
420
  3947579
370
    25
100
AcDbCircle
 10
41.12597620477802
 20
-108.7828400603551
 30
0.0
 40
1.454659567603017
  0
CIRCLE
  5
F4
330
D6
100
AcDbEntity
  8
Слой 1
 62
   250
420
  3947579
370
    25
100
AcDbCircle
 10
41.12597620477802
 20
-108.782840060355
 30
0.0
 40
1.98724164588317
  0
SPLINE
  5
F5
330
D6
100
AcDbEntity
  8
Слой 1
 62
   250
420
  3947579
370
    25
100
AcDbSpline
210
0.0
220
0.0
230
1.0
 70
     9
 71
     3
 72
    29
 73
    25
 74
     0
 42
0.0000000001
 43
0.0000000001
 40
0.0
 40
0.0
 40
0.0
 40
0.0
 40
1.0
 40
1.0
 40
1.0
 40
2.0
 40
2.0
 40
2.0
 40
3.0
 40
3.0
 40
3.0
 40
4.0
 40
4.0
 40
4.0
 40
5.0
 40
5.0
 40
5.0
 40
6.0
 40
6.0
 40
6.0
 40
7.0
 40
7.0
 40
7.0
 40
8.0
 40
8.0
 40
8.0
 40
8.0
 10
53.72021603595253
 20
-111.6933641696073
 30
0.0
 10
53.72021603595253
 20
-111.6933641696073
 30
0.0
 10
41.31419752053572
 20
-111.6933641696073
 30
0.0
 10
41.31419752053572
 20
-111.6933641696073
 30
0.0
 10
39.73387902843669
 20
-111.6933641696073
 30
0.0
 10
38.45277776816459
 20
-110.4122629093355
 30
0.0
 10
38.45277776816459
 20
-108.8319444172358
 30
0.0
 10
38.45277776816459
 20
-108.8319444172358
 30
0.0
 10
38.45277776816459
 20
-108.518364170401
 30
0.0
 10
38.45277776816459
 20
-108.518364170401
 30
0.0
 10
38.45277776816459
 20
-106.9380456783016
 30
0.0
 10
39.73387902843669
 20
-105.6569444180295
 30
0.0
 10
41.31419752053572
 20
-105.6569444180295
 30
0.0
 10
41.31419752053572
 20
-105.6569444180295
 30
0.0
 10
53.72021603595253
 20
-105.6569444180295
 30
0.0
 10
53.72021603595253
 20
-105.6569444180295
 30
0.0
 10
55.30053452805155
 20
-105.6569444180295
 30
0.0
 10
56.58163578832366
 20
-106.9380456783016
 30
0.0
 10
56.58163578832366
 20
-108.518364170401
 30
0.0
 10
56.58163578832366
 20
-108.518364170401
 30
0.0
 10
56.58163578832366
 20
-108.8319444172358
 30
0.0
 10
56.58163578832366
 20
-108.8319444172358
 30
0.0
 10
56.58163578832366
 20
-110.4122629093355
 30
0.0
 10
55.30053452805155
 20
-111.6933641696073
 30
0.0
 10
53.72021603595253
 20
-111.6933641696073
 30
0.0
  0
SPLINE
  5
F6
330
D6
100
AcDbEntity
  8
Слой 1
 62
   250
420
  3947579
370
    25
100
AcDbSpline
210
0.0
220
0.0
230
1.0
 70
     9
 71
     3
 72
    29
 73
    25
 74
     0
 42
0.0000000001
 43
0.0000000001
 40
0.0
 40
0.0
 40
0.0
 40
0.0
 40
1.0
 40
1.0
 40
1.0
 40
2.0
 40
2.0
 40
2.0
 40
3.0
 40
3.0
 40
3.0
 40
4.0
 40
4.0
 40
4.0
 40
5.0
 40
5.0
 40
5.0
 40
6.0
 40
6.0
 40
6.0
 40
7.0
 40
7.0
 40
7.0
 40
8.0
 40
8.0
 40
8.0
 40
8.0
 10
53.70061925158048
 20
-110.7700817063938
 30
0.0
 10
53.70061925158048
 20
-110.7700817063938
 30
0.0
 10
41.12597421560084
 20
-110.7700817052035
 30
0.0
 10
41.12597421560084
 20
-110.7700817052035
 30
0.0
 10
40.02845205801308
 20
-110.7700817050995
 30
0.0
 10
39.1387345572114
 20
-109.8803642043707
 30
0.0
 10
39.13873455701729
 20
-108.7828420467826
 30
0.0
 10
39.13873455701729
 20
-108.7828420467826
 30
0.0
 10
39.13873455701729
 20
-108.7828380720445
 30
0.0
 10
39.13873455701729
 20
-108.7828380720445
 30
0.0
 10
39.13873455682285
 20
-107.6853159151267
 30
0.0
 10
40.02845205697161
 20
-106.7955984147348
 30
0.0
 10
41.12597421388943
 20
-106.7955984146289
 30
0.0
 10
41.12597421388943
 20
-106.7955984146289
 30
0.0
 10
53.70061925506043
 20
-106.7955984134148
 30
0.0
 10
53.70061925506043
 20
-106.7955984134148
 30
0.0
 10
54.79814141141034
 20
-106.7955984133086
 30
0.0
 10
55.68785891159278
 20
-107.6853159124595
 30
0.0
 10
55.68785891275908
 20
-108.7828380688094
 30
0.0
 10
55.68785891275908
 20
-108.7828380688094
 30
0.0
 10
55.68785891275908
 20
-108.7828420432927
 30
0.0
 10
55.68785891275908
 20
-108.7828420432927
 30
0.0
 10
55.68785891392472
 20
-109.8803642032143
 30
0.0
 10
54.7981414115021
 20
-110.7700817064981
 30
0.0
 10
53.70061925158048
 20
-110.7700817063938
 30
0.0
  0
CIRCLE
  5
F7
330
D6
100
AcDbEntity
  8
Слой 1
 62
   250
420
  3947579
370
    25
100
AcDbCircle
 10
53.59282406067598
 20
-129.6752314490626
 30
0.0
 40
0.9848379627842387
  0
CIRCLE
  5
F8
330
D6
100
AcDbEntity
  8
Слой 1
 62
   250
420
  3947579
370
    25
100
AcDbCircle
 10
53.59282406067598
 20
-136.8483795954173
 30
0.0
 40
1.058333333143989
  0
CIRCLE
  5
F9
330
D6
100
AcDbEntity
  8
Слой 1
 62
   250
420
  3947579
370
    25
100
AcDbCircle
 10
53.59282406067598
 20
-136.8483795954173
 30
0.0
 40
1.484606481054234
  0
SPLINE
  5
FA
330
D6
100
AcDbEntity
  8
Слой 1
 62
   250
420
  3947579
370
    25
100
AcDbSpline
210
0.0
220
0.0
230
1.0
 70
     8
 71
     3
 72
    11
 73
     7
 74
     0
 42
0.0000000001
 43
0.0000000001
 40
0.0
 40
0.0
 40
0.0
 40
0.0
 40
1.0
 40
1.0
 40
1.0
 40
2.0
 40
2.0
 40
2.0
 40
2.0
 10
36.0715277687599
 20
-185.8109953239172
 30
0.0
 10
36.0715277687599
 20
-185.8109953239172
 30
0.0
 10
37.10046295368763
 20
-187.1045138421121
 30
0.0
 10
38.15879628675638
 20
-187.0236689347251
 30
0.0
 10
39.21712961982514
 20
-186.9428240273381
 30
0.0
 10
40.27546295289388
 20
-185.8109953239172
 30
0.0
 10
40.27546295289388
 20
-185.8109953239172
 30
0.0
  0
ENDBLK
  5
D9
330
D6
100
AcDbEntity
  8
0
100
AcDbBlockEnd
  0
BLOCK
  5
FD
330
FB
100
AcDbEntity
  8
0
100
AcDbBlockBegin
  2
Block_7
 70
     0
 10
0.0
 20
0.0
 30
0.0
  3
Block_7
  1

  0
LWPOLYLINE
  5
FF
330
FB
100
AcDbEntity
  8
Слой 1
 62
   250
420
  3947579
370
    25
100
AcDbPolyline
 90
        6
 70
     1
 43
0.0
 10
159.181172799711
 20
-229.5592240805421
 10
159.181172799711
 20
-201.5537036533155
 10
85.48981479344226
 20
-201.5537036533155
 10
84.31388886781041
 20
-202.808024640656
 10
84.31388886781041
 20
-228.2864196960149
 10
85.48981479344226
 20
-229.5592240805421
  0
LWPOLYLINE
  5
100
330
FB
100
AcDbEntity
  8
Слой 1
 62
   250
420
  3947579
370
    25
100
AcDbPolyline
 90
        4
 70
     1
 43
0.0
 10
83.71122683092384
 20
-223.0731480923795
 10
84.31388886781041
 20
-223.0731480923795
 10
84.31388886781041
 20
-207.9429011825818
 10
83.71122683092384
 20
-207.9429011825818
  0
LWPOLYLINE
  5
101
330
FB
100
AcDbEntity
  8
Слой 1
 62
   250
420
  3947579
370
    25
100
AcDbPolyline
 90
        4
 70
     1
 43
0.0
 10
83.71122683092384
 20
-218.3694443898521
 10
80.433333313225
 20
-218.3694443898521
 10
80.433333313225
 20
-212.6858024159643
 10
83.71122683092384
 20
-212.6858024159643
  0
LWPOLYLINE
  5
102
330
FB
100
AcDbEntity
  8
Слой 1
 62
   250
420
  3947579
370
    25
100
AcDbPolyline
 90
        4
 70
     1
 43
0.0
 10
84.31388886781041
 20
-207.0021604420765
 10
80.90370368347768
 20
-207.0021604420765
 10
80.90370368347768
 20
-206.2966048866973
 10
84.31388886781041
 20
-206.2966048866973
  0
LWPOLYLINE
  5
103
330
FB
100
AcDbEntity
  8
Слой 1
 62
   250
420
  3947579
370
    25
100
AcDbPolyline
 90
        4
 70
     1
 43
0.0
 10
84.31388886781041
 20
-224.9546295733908
 10
80.90370368347768
 20
-224.9546295733908
 10
80.90370368347768
 20
-224.1314814254482
 10
84.31388886781041
 20
-224.1314814254482
  0
LWPOLYLINE
  5
104
330
FB
100
AcDbEntity
  8
Слой 1
 62
   250
420
  3947579
370
    25
100
AcDbPolyline
 90
        4
 70
     1
 43
0.0
 10
159.181172799711
 20
-229.5592240805421
 10
156.0845678621585
 20
-229.5592240805421
 10
156.0845678621585
 20
-201.5537036533155
 10
159.181172799711
 20
-201.5537036533155
  0
LWPOLYLINE
  5
105
330
FB
100
AcDbEntity
  8
Слой 1
 62
   250
420
  3947579
370
    25
100
AcDbPolyline
 90
        4
 70
     1
 43
0.0
 10
153.5759258875315
 20
-224.7194443882646
 10
144.9916666304187
 20
-224.7194443882646
 10
144.9916666304187
 20
-206.3749999484063
 10
153.5759258875315
 20
-206.3749999484063
  0
LWPOLYLINE
  5
106
330
FB
100
AcDbEntity
  8
Слой 1
 62
   250
420
  3947579
370
    25
100
AcDbPolyline
 90
        4
 70
     1
 43
0.0
 10
153.5759258875315
 20
-207.1197530346399
 10
145.2660493463994
 20
-207.1197530346399
 10
145.2660493463994
 20
-223.8962962403227
 10
153.5759258875315
 20
-223.8962962403227
  0
LWPOLYLINE
  5
107
330
FB
100
AcDbEntity
  8
Слой 1
 62
   250
420
  3947579
370
    25
100
AcDbPolyline
 90
        4
 70
     1
 43
0.0
 10
145.7756172475062
 20
-207.6685184666018
 10
152.4391974927545
 20
-207.6685184666018
 10
152.4391974927545
 20
-210.5299382189723
 10
145.7756172475062
 20
-210.5299382189723
  0
LWPOLYLINE
  5
108
330
FB
100
AcDbEntity
  8
Слой 1
 62
   250
420
  3947579
370
    25
100
AcDbPolyline
 90
        4
 70
     1
 43
0.0
 10
146.8731481114294
 20
-207.6685184666018
 10
152.4391974927545
 20
-207.6685184666018
 10
152.4391974927545
 20
-210.5299382189723
 10
146.8731481114294
 20
-210.5299382189723
  0
LWPOLYLINE
  5
109
330
FB
100
AcDbEntity
  8
Слой 1
 62
   250
420
  3947579
370
    25
100
AcDbPolyline
 90
        4
 70
     1
 43
0.0
 10
145.7756172475062
 20
-211.9802468605851
 10
152.4391974927545
 20
-211.9802468605851
 10
152.4391974927545
 20
-214.8416666129556
 10
145.7756172475062
 20
-214.8416666129556
  0
LWPOLYLINE
  5
10A
330
FB
100
AcDbEntity
  8
Слой 1
 62
   250
420
  3947579
370
    25
100
AcDbPolyline
 90
        4
 70
     1
 43
0.0
 10
146.8731481114294
 20
-211.9802468605851
 10
152.4391974927545
 20
-211.9802468605851
 10
152.4391974927545
 20
-214.8416666129556
 10
146.8731481114294
 20
-214.8416666129556
  0
LWPOLYLINE
  5
10B
330
FB
100
AcDbEntity
  8
Слой 1
 62
   250
420
  3947579
370
    25
100
AcDbPolyline
 90
        4
 70
     1
 43
0.0
 10
145.7756172475062
 20
-216.1743826620057
 10
152.4391974927545
 20
-216.1743826620057
 10
152.4391974927545
 20
-219.0358024143761
 10
145.7756172475062
 20
-219.0358024143761
  0
LWPOLYLINE
  5
10C
330
FB
100
AcDbEntity
  8
Слой 1
 62
   250
420
  3947579
370
    25
100
AcDbPolyline
 90
        4
 70
     1
 43
0.0
 10
146.8731481114294
 20
-216.1743826620057
 10
152.4391974927545
 20
-216.1743826620057
 10
152.4391974927545
 20
-219.0358024143761
 10
146.8731481114294
 20
-219.0358024143761
  0
LWPOLYLINE
  5
10D
330
FB
100
AcDbEntity
  8
Слой 1
 62
   250
420
  3947579
370
    25
100
AcDbPolyline
 90
        4
 70
     1
 43
0.0
 10
145.7756172475062
 20
-220.4861110559889
 10
152.4391974927545
 20
-220.4861110559889
 10
152.4391974927545
 20
-223.3475308083594
 10
145.7756172475062
 20
-223.3475308083594
  0
LWPOLYLINE
  5
10E
330
FB
100
AcDbEntity
  8
Слой 1
 62
   250
420
  3947579
370
    25
100
AcDbPolyline
 90
        4
 70
     1
 43
0.0
 10
146.8731481114294
 20
-220.4861110559889
 10
152.4391974927545
 20
-220.4861110559889
 10
152.4391974927545
 20
-223.3475308083594
 10
146.8731481114294
 20
-223.3475308083594
  0
SPLINE
  5
10F
330
FB
100
AcDbEntity
  8
Слой 1
 62
   250
420
  3947579
370
    25
100
AcDbSpline
210
0.0
220
0.0
230
1.0
 70
     9
 71
     3
 72
    29
 73
    25
 74
     0
 42
0.0000000001
 43
0.0000000001
 40
0.0
 40
0.0
 40
0.0
 40
0.0
 40
1.0
 40
1.0
 40
1.0
 40
2.0
 40
2.0
 40
2.0
 40
3.0
 40
3.0
 40
3.0
 40
4.0
 40
4.0
 40
4.0
 40
5.0
 40
5.0
 40
5.0
 40
6.0
 40
6.0
 40
6.0
 40
7.0
 40
7.0
 40
7.0
 40
8.0
 40
8.0
 40
8.0
 40
8.0
 10
127.7899015201752
 20
-203.8651412535015
 30
0.0
 10
127.7899015201752
 20
-203.8651412535015
 30
0.0
 10
124.4981435690466
 20
-205.1405423264457
 30
0.0
 10
124.4981435690466
 20
-205.1405423264457
 30
0.0
 10
124.0084157434299
 20
-205.3302887791061
 30
0.0
 10
124.0071227465326
 20
-206.0227601807212
 30
0.0
 10
124.4961385627595
 20
-206.2143341637158
 30
0.0
 10
124.4961385627595
 20
-206.2143341637158
 30
0.0
 10
127.7837331890231
 20
-207.5022630529784
 30
0.0
 10
127.7837331890231
 20
-207.5022630529784
 30
0.0
 10
128.1994235309886
 20
-207.6651114759948
 30
0.0
 10
128.661254256272
 20
-207.6651108401134
 30
0.0
 10
129.0769441497925
 20
-207.5022612723925
 30
0.0
 10
129.0769441497925
 20
-207.5022612723925
 30
0.0
 10
132.3645090605946
 20
-206.2143335817705
 30
0.0
 10
132.3645090605946
 20
-206.2143335817705
 30
0.0
 10
132.8535229099113
 20
-206.0227588160333
 30
0.0
 10
132.8522299103521
 20
-205.3302901237177
 30
0.0
 10
132.362504044478
 20
-205.1405428918949
 30
0.0
 10
132.362504044478
 20
-205.1405428918949
 30
0.0
 10
129.0707758384144
 20
-203.8651430028206
 30
0.0
 10
129.0707758384144
 20
-203.8651430028206
 30
0.0
 10
128.6587412175081
 20
-203.7054977110769
 30
0.0
 10
128.2019365771423
 20
-203.7054970872081
 30
0.0
 10
127.7899015201752
 20
-203.8651412535015
 30
0.0
  0
SPLINE
  5
110
330
FB
100
AcDbEntity
  8
Слой 1
 62
   250
420
  3947579
370
    25
100
AcDbSpline
210
0.0
220
0.0
230
1.0
 70
     9
 71
     3
 72
    29
 73
    25
 74
     0
 42
0.0000000001
 43
0.0000000001
 40
0.0
 40
0.0
 40
0.0
 40
0.0
 40
1.0
 40
1.0
 40
1.0
 40
2.0
 40
2.0
 40
2.0
 40
3.0
 40
3.0
 40
3.0
 40
4.0
 40
4.0
 40
4.0
 40
5.0
 40
5.0
 40
5.0
 40
6.0
 40
6.0
 40
6.0
 40
7.0
 40
7.0
 40
7.0
 40
8.0
 40
8.0
 40
8.0
 40
8.0
 10
127.7899015201752
 20
-208.8040301411557
 30
0.0
 10
127.7899015201752
 20
-208.8040301411557
 30
0.0
 10
124.4981435690466
 20
-210.0794312140999
 30
0.0
 10
124.4981435690466
 20
-210.0794312140999
 30
0.0
 10
124.0084157434299
 20
-210.2691776667602
 30
0.0
 10
124.0071227465326
 20
-210.9616490683754
 30
0.0
 10
124.4961385627595
 20
-211.15322305137
 30
0.0
 10
124.4961385627595
 20
-211.15322305137
 30
0.0
 10
127.7837331890231
 20
-212.4411519406326
 30
0.0
 10
127.7837331890231
 20
-212.4411519406326
 30
0.0
 10
128.1994235309886
 20
-212.604000363649
 30
0.0
 10
128.661254256272
 20
-212.6039997277676
 30
0.0
 10
129.0769441497925
 20
-212.4411501600467
 30
0.0
 10
129.0769441497925
 20
-212.4411501600467
 30
0.0
 10
132.3645090605946
 20
-211.1532224694247
 30
0.0
 10
132.3645090605946
 20
-211.1532224694247
 30
0.0
 10
132.8535229099113
 20
-210.9616477036875
 30
0.0
 10
132.8522299103521
 20
-210.2691790113719
 30
0.0
 10
132.362504044478
 20
-210.079431779549
 30
0.0
 10
132.362504044478
 20
-210.079431779549
 30
0.0
 10
129.0707758384144
 20
-208.8040318904748
 30
0.0
 10
129.0707758384144
 20
-208.8040318904748
 30
0.0
 10
128.6587412175081
 20
-208.644386598731
 30
0.0
 10
128.2019365771423
 20
-208.6443859748623
 30
0.0
 10
127.7899015201752
 20
-208.8040301411557
 30
0.0
  0
SPLINE
  5
111
330
FB
100
AcDbEntity
  8
Слой 1
 62
   250
420
  3947579
370
    25
100
AcDbSpline
210
0.0
220
0.0
230
1.0
 70
     9
 71
     3
 72
    29
 73
    25
 74
     0
 42
0.0000000001
 43
0.0000000001
 40
0.0
 40
0.0
 40
0.0
 40
0.0
 40
1.0
 40
1.0
 40
1.0
 40
2.0
 40
2.0
 40
2.0
 40
3.0
 40
3.0
 40
3.0
 40
4.0
 40
4.0
 40
4.0
 40
5.0
 40
5.0
 40
5.0
 40
6.0
 40
6.0
 40
6.0
 40
7.0
 40
7.0
 40
7.0
 40
8.0
 40
8.0
 40
8.0
 40
8.0
 10
127.7899015201752
 20
-213.7429190288099
 30
0.0
 10
127.7899015201752
 20
-213.7429190288099
 30
0.0
 10
124.4981435690466
 20
-215.0183201017541
 30
0.0
 10
124.4981435690466
 20
-215.0183201017541
 30
0.0
 10
124.0084157434299
 20
-215.2080665544144
 30
0.0
 10
124.0071227465326
 20
-215.9005379560295
 30
0.0
 10
124.4961385627595
 20
-216.0921119390242
 30
0.0
 10
124.4961385627595
 20
-216.0921119390242
 30
0.0
 10
127.7837331890231
 20
-217.3800408282867
 30
0.0
 10
127.7837331890231
 20
-217.3800408282867
 30
0.0
 10
128.1994235309886
 20
-217.5428892513032
 30
0.0
 10
128.661254256272
 20
-217.5428886154218
 30
0.0
 10
129.0769441497925
 20
-217.3800390477009
 30
0.0
 10
129.0769441497925
 20
-217.3800390477009
 30
0.0
 10
132.3645090605946
 20
-216.0921113570789
 30
0.0
 10
132.3645090605946
 20
-216.0921113570789
 30
0.0
 10
132.8535229099113
 20
-215.9005365913417
 30
0.0
 10
132.8522299103521
 20
-215.2080678990261
 30
0.0
 10
132.362504044478
 20
-215.0183206672032
 30
0.0
 10
132.362504044478
 20
-215.0183206672032
 30
0.0
 10
129.0707758384144
 20
-213.7429207781289
 30
0.0
 10
129.0707758384144
 20
-213.7429207781289
 30
0.0
 10
128.6587412175081
 20
-213.5832754863852
 30
0.0
 10
128.2019365771423
 20
-213.5832748625164
 30
0.0
 10
127.7899015201752
 20
-213.7429190288099
 30
0.0
  0
SPLINE
  5
112
330
FB
100
AcDbEntity
  8
Слой 1
 62
   250
420
  3947579
370
    25
100
AcDbSpline
210
0.0
220
0.0
230
1.0
 70
     9
 71
     3
 72
    29
 73
    25
 74
     0
 42
0.0000000001
 43
0.0000000001
 40
0.0
 40
0.0
 40
0.0
 40
0.0
 40
1.0
 40
1.0
 40
1.0
 40
2.0
 40
2.0
 40
2.0
 40
3.0
 40
3.0
 40
3.0
 40
4.0
 40
4.0
 40
4.0
 40
5.0
 40
5.0
 40
5.0
 40
6.0
 40
6.0
 40
6.0
 40
7.0
 40
7.0
 40
7.0
 40
8.0
 40
8.0
 40
8.0
 40
8.0
 10
127.7899015201752
 20
-218.681807916464
 30
0.0
 10
127.7899015201752
 20
-218.681807916464
 30
0.0
 10
124.4981435690466
 20
-219.9572089894082
 30
0.0
 10
124.4981435690466
 20
-219.9572089894082
 30
0.0
 10
124.0084157434299
 20
-220.1469554420685
 30
0.0
 10
124.0071227465326
 20
-220.8394268436837
 30
0.0
 10
124.4961385627595
 20
-221.0310008266784
 30
0.0
 10
124.4961385627595
 20
-221.0310008266784
 30
0.0
 10
127.7837331890231
 20
-222.3189297159409
 30
0.0
 10
127.7837331890231
 20
-222.3189297159409
 30
0.0
 10
128.1994235309886
 20
-222.4817781389573
 30
0.0
 10
128.661254256272
 20
-222.4817775030759
 30
0.0
 10
129.0769441497925
 20
-222.3189279353551
 30
0.0
 10
129.0769441497925
 20
-222.3189279353551
 30
0.0
 10
132.3645090605946
 20
-221.0310002447331
 30
0.0
 10
132.3645090605946
 20
-221.0310002447331
 30
0.0
 10
132.8535229099113
 20
-220.8394254789958
 30
0.0
 10
132.8522299103521
 20
-220.1469567866802
 30
0.0
 10
132.362504044478
 20
-219.9572095548574
 30
0.0
 10
132.362504044478
 20
-219.9572095548574
 30
0.0
 10
129.0707758384144
 20
-218.6818096657831
 30
0.0
 10
129.0707758384144
 20
-218.6818096657831
 30
0.0
 10
128.6587412175081
 20
-218.5221643740394
 30
0.0
 10
128.2019365771423
 20
-218.5221637501706
 30
0.0
 10
127.7899015201752
 20
-218.681807916464
 30
0.0
  0
SPLINE
  5
113
330
FB
100
AcDbEntity
  8
Слой 1
 62
   250
420
  3947579
370
    25
100
AcDbSpline
210
0.0
220
0.0
230
1.0
 70
     9
 71
     3
 72
    29
 73
    25
 74
     0
 42
0.0000000001
 43
0.0000000001
 40
0.0
 40
0.0
 40
0.0
 40
0.0
 40
1.0
 40
1.0
 40
1.0
 40
2.0
 40
2.0
 40
2.0
 40
3.0
 40
3.0
 40
3.0
 40
4.0
 40
4.0
 40
4.0
 40
5.0
 40
5.0
 40
5.0
 40
6.0
 40
6.0
 40
6.0
 40
7.0
 40
7.0
 40
7.0
 40
8.0
 40
8.0
 40
8.0
 40
8.0
 10
134.4926792962773
 20
-206.3345856973286
 30
0.0
 10
134.4926792962773
 20
-206.3345856973286
 30
0.0
 10
131.2009213451486
 20
-207.6099867702728
 30
0.0
 10
131.2009213451486
 20
-207.6099867702728
 30
0.0
 10
130.711193519532
 20
-207.7997332229331
 30
0.0
 10
130.7099005226346
 20
-208.4922046245483
 30
0.0
 10
131.1989163388616
 20
-208.6837786075429
 30
0.0
 10
131.1989163388616
 20
-208.6837786075429
 30
0.0
 10
134.4865109651252
 20
-209.9717074968055
 30
0.0
 10
134.4865109651252
 20
-209.9717074968055
 30
0.0
 10
134.9022013070906
 20
-210.1345559198219
 30
0.0
 10
135.3640320323741
 20
-210.1345552839405
 30
0.0
 10
135.7797219258946
 20
-209.9717057162196
 30
0.0
 10
135.7797219258946
 20
-209.9717057162196
 30
0.0
 10
139.0672868366966
 20
-208.6837780255976
 30
0.0
 10
139.0672868366966
 20
-208.6837780255976
 30
0.0
 10
139.5563006860134
 20
-208.4922032598604
 30
0.0
 10
139.5550076864543
 20
-207.7997345675448
 30
0.0
 10
139.0652818205801
 20
-207.609987335722
 30
0.0
 10
139.0652818205801
 20
-207.609987335722
 30
0.0
 10
135.7735536145165
 20
-206.3345874466477
 30
0.0
 10
135.7735536145165
 20
-206.3345874466477
 30
0.0
 10
135.3615189936102
 20
-206.1749421549039
 30
0.0
 10
134.9047143532444
 20
-206.1749415310352
 30
0.0
 10
134.4926792962773
 20
-206.3345856973286
 30
0.0
  0
SPLINE
  5
114
330
FB
100
AcDbEntity
  8
Слой 1
 62
   250
420
  3947579
370
    25
100
AcDbSpline
210
0.0
220
0.0
230
1.0
 70
     9
 71
     3
 72
    29
 73
    25
 74
     0
 42
0.0000000001
 43
0.0000000001
 40
0.0
 40
0.0
 40
0.0
 40
0.0
 40
1.0
 40
1.0
 40
1.0
 40
2.0
 40
2.0
 40
2.0
 40
3.0
 40
3.0
 40
3.0
 40
4.0
 40
4.0
 40
4.0
 40
5.0
 40
5.0
 40
5.0
 40
6.0
 40
6.0
 40
6.0
 40
7.0
 40
7.0
 40
7.0
 40
8.0
 40
8.0
 40
8.0
 40
8.0
 10
134.4926792962773
 20
-211.2734745849828
 30
0.0
 10
134.4926792962773
 20
-211.2734745849828
 30
0.0
 10
131.2009213451486
 20
-212.548875657927
 30
0.0
 10
131.2009213451486
 20
-212.548875657927
 30
0.0
 10
130.711193519532
 20
-212.7386221105873
 30
0.0
 10
130.7099005226346
 20
-213.4310935122025
 30
0.0
 10
131.1989163388616
 20
-213.6226674951971
 30
0.0
 10
131.1989163388616
 20
-213.6226674951971
 30
0.0
 10
134.4865109651252
 20
-214.9105963844597
 30
0.0
 10
134.4865109651252
 20
-214.9105963844597
 30
0.0
 10
134.9022013070906
 20
-215.0734448074761
 30
0.0
 10
135.3640320323741
 20
-215.0734441715947
 30
0.0
 10
135.7797219258946
 20
-214.9105946038738
 30
0.0
 10
135.7797219258946
 20
-214.9105946038738
 30
0.0
 10
139.0672868366966
 20
-213.6226669132518
 30
0.0
 10
139.0672868366966
 20
-213.6226669132518
 30
0.0
 10
139.5563006860134
 20
-213.4310921475146
 30
0.0
 10
139.5550076864543
 20
-212.738623455199
 30
0.0
 10
139.0652818205801
 20
-212.5488762233761
 30
0.0
 10
139.0652818205801
 20
-212.5488762233761
 30
0.0
 10
135.7735536145165
 20
-211.2734763343018
 30
0.0
 10
135.7735536145165
 20
-211.2734763343018
 30
0.0
 10
135.3615189936102
 20
-211.1138310425581
 30
0.0
 10
134.9047143532444
 20
-211.1138304186893
 30
0.0
 10
134.4926792962773
 20
-211.2734745849828
 30
0.0
  0
SPLINE
  5
115
330
FB
100
AcDbEntity
  8
Слой 1
 62
   250
420
  3947579
370
    25
100
AcDbSpline
210
0.0
220
0.0
230
1.0
 70
     9
 71
     3
 72
    29
 73
    25
 74
     0
 42
0.0000000001
 43
0.0000000001
 40
0.0
 40
0.0
 40
0.0
 40
0.0
 40
1.0
 40
1.0
 40
1.0
 40
2.0
 40
2.0
 40
2.0
 40
3.0
 40
3.0
 40
3.0
 40
4.0
 40
4.0
 40
4.0
 40
5.0
 40
5.0
 40
5.0
 40
6.0
 40
6.0
 40
6.0
 40
7.0
 40
7.0
 40
7.0
 40
8.0
 40
8.0
 40
8.0
 40
8.0
 10
134.4926792962773
 20
-216.2123634726369
 30
0.0
 10
134.4926792962773
 20
-216.2123634726369
 30
0.0
 10
131.2009213451486
 20
-217.4877645455811
 30
0.0
 10
131.2009213451486
 20
-217.4877645455811
 30
0.0
 10
130.711193519532
 20
-217.6775109982414
 30
0.0
 10
130.7099005226346
 20
-218.3699823998566
 30
0.0
 10
131.1989163388616
 20
-218.5615563828513
 30
0.0
 10
131.1989163388616
 20
-218.5615563828513
 30
0.0
 10
134.4865109651252
 20
-219.8494852721138
 30
0.0
 10
134.4865109651252
 20
-219.8494852721138
 30
0.0
 10
134.9022013070906
 20
-220.0123336951302
 30
0.0
 10
135.3640320323741
 20
-220.0123330592488
 30
0.0
 10
135.7797219258946
 20
-219.849483491528
 30
0.0
 10
135.7797219258946
 20
-219.849483491528
 30
0.0
 10
139.0672868366966
 20
-218.561555800906
 30
0.0
 10
139.0672868366966
 20
-218.561555800906
 30
0.0
 10
139.5563006860134
 20
-218.3699810351687
 30
0.0
 10
139.5550076864543
 20
-217.6775123428531
 30
0.0
 10
139.0652818205801
 20
-217.4877651110303
 30
0.0
 10
139.0652818205801
 20
-217.4877651110303
 30
0.0
 10
135.7735536145165
 20
-216.212365221956
 30
0.0
 10
135.7735536145165
 20
-216.212365221956
 30
0.0
 10
135.3615189936102
 20
-216.0527199302123
 30
0.0
 10
134.9047143532444
 20
-216.0527193063435
 30
0.0
 10
134.4926792962773
 20
-216.2123634726369
 30
0.0
  0
SPLINE
  5
116
330
FB
100
AcDbEntity
  8
Слой 1
 62
   250
420
  3947579
370
    25
100
AcDbSpline
210
0.0
220
0.0
230
1.0
 70
     9
 71
     3
 72
    29
 73
    25
 74
     0
 42
0.0000000001
 43
0.0000000001
 40
0.0
 40
0.0
 40
0.0
 40
0.0
 40
1.0
 40
1.0
 40
1.0
 40
2.0
 40
2.0
 40
2.0
 40
3.0
 40
3.0
 40
3.0
 40
4.0
 40
4.0
 40
4.0
 40
5.0
 40
5.0
 40
5.0
 40
6.0
 40
6.0
 40
6.0
 40
7.0
 40
7.0
 40
7.0
 40
8.0
 40
8.0
 40
8.0
 40
8.0
 10
134.4926792962773
 20
-221.1512523602911
 30
0.0
 10
134.4926792962773
 20
-221.1512523602911
 30
0.0
 10
131.2009213451486
 20
-222.4266534332353
 30
0.0
 10
131.2009213451486
 20
-222.4266534332353
 30
0.0
 10
130.711193519532
 20
-222.6163998858956
 30
0.0
 10
130.7099005226346
 20
-223.3088712875108
 30
0.0
 10
131.1989163388616
 20
-223.5004452705055
 30
0.0
 10
131.1989163388616
 20
-223.5004452705055
 30
0.0
 10
134.4865109651252
 20
-224.788374159768
 30
0.0
 10
134.4865109651252
 20
-224.788374159768
 30
0.0
 10
134.9022013070906
 20
-224.9512225827844
 30
0.0
 10
135.3640320323741
 20
-224.951221946903
 30
0.0
 10
135.7797219258946
 20
-224.7883723791821
 30
0.0
 10
135.7797219258946
 20
-224.7883723791821
 30
0.0
 10
139.0672868366966
 20
-223.5004446885601
 30
0.0
 10
139.0672868366966
 20
-223.5004446885601
 30
0.0
 10
139.5563006860134
 20
-223.3088699228229
 30
0.0
 10
139.5550076864543
 20
-222.6164012305073
 30
0.0
 10
139.0652818205801
 20
-222.4266539986845
 30
0.0
 10
139.0652818205801
 20
-222.4266539986845
 30
0.0
 10
135.7735536145165
 20
-221.1512541096102
 30
0.0
 10
135.7735536145165
 20
-221.1512541096102
 30
0.0
 10
135.3615189936102
 20
-220.9916088178665
 30
0.0
 10
134.9047143532444
 20
-220.9916081939977
 30
0.0
 10
134.4926792962773
 20
-221.1512523602911
 30
0.0
  0
SPLINE
  5
117
330
FB
100
AcDbEntity
  8
Слой 1
 62
   250
420
  3947579
370
    25
100
AcDbSpline
210
0.0
220
0.0
230
1.0
 70
     9
 71
     3
 72
    29
 73
    25
 74
     0
 42
0.0000000001
 43
0.0000000001
 40
0.0
 40
0.0
 40
0.0
 40
0.0
 40
1.0
 40
1.0
 40
1.0
 40
2.0
 40
2.0
 40
2.0
 40
3.0
 40
3.0
 40
3.0
 40
4.0
 40
4.0
 40
4.0
 40
5.0
 40
5.0
 40
5.0
 40
6.0
 40
6.0
 40
6.0
 40
7.0
 40
7.0
 40
7.0
 40
8.0
 40
8.0
 40
8.0
 40
8.0
 10
114.5307353865845
 20
-203.8651412535009
 30
0.0
 10
114.5307353865845
 20
-203.8651412535009
 30
0.0
 10
111.2389774354558
 20
-205.1405423264451
 30
0.0
 10
111.2389774354558
 20
-205.1405423264451
 30
0.0
 10
110.7492496098392
 20
-205.3302887791054
 30
0.0
 10
110.7479566129418
 20
-206.0227601807206
 30
0.0
 10
111.2369724291688
 20
-206.2143341637152
 30
0.0
 10
111.2369724291688
 20
-206.2143341637152
 30
0.0
 10
114.5245670554324
 20
-207.5022630529778
 30
0.0
 10
114.5245670554324
 20
-207.5022630529778
 30
0.0
 10
114.9402573973979
 20
-207.6651114759942
 30
0.0
 10
115.4020881226813
 20
-207.6651108401128
 30
0.0
 10
115.8177780162018
 20
-207.5022612723919
 30
0.0
 10
115.8177780162018
 20
-207.5022612723919
 30
0.0
 10
119.1053429270038
 20
-206.2143335817699
 30
0.0
 10
119.1053429270038
 20
-206.2143335817699
 30
0.0
 10
119.5943567763206
 20
-206.0227588160327
 30
0.0
 10
119.5930637767614
 20
-205.3302901237171
 30
0.0
 10
119.1033379108872
 20
-205.1405428918942
 30
0.0
 10
119.1033379108872
 20
-205.1405428918942
 30
0.0
 10
115.8116097048237
 20
-203.8651430028199
 30
0.0
 10
115.8116097048237
 20
-203.8651430028199
 30
0.0
 10
115.3995750839174
 20
-203.7054977110762
 30
0.0
 10
114.9427704435516
 20
-203.7054970872075
 30
0.0
 10
114.5307353865845
 20
-203.8651412535009
 30
0.0
  0
SPLINE
  5
118
330
FB
100
AcDbEntity
  8
Слой 1
 62
   250
420
  3947579
370
    25
100
AcDbSpline
210
0.0
220
0.0
230
1.0
 70
     9
 71
     3
 72
    29
 73
    25
 74
     0
 42
0.0000000001
 43
0.0000000001
 40
0.0
 40
0.0
 40
0.0
 40
0.0
 40
1.0
 40
1.0
 40
1.0
 40
2.0
 40
2.0
 40
2.0
 40
3.0
 40
3.0
 40
3.0
 40
4.0
 40
4.0
 40
4.0
 40
5.0
 40
5.0
 40
5.0
 40
6.0
 40
6.0
 40
6.0
 40
7.0
 40
7.0
 40
7.0
 40
8.0
 40
8.0
 40
8.0
 40
8.0
 10
114.5307353865845
 20
-208.804030141155
 30
0.0
 10
114.5307353865845
 20
-208.804030141155
 30
0.0
 10
111.2389774354558
 20
-210.0794312140993
 30
0.0
 10
111.2389774354558
 20
-210.0794312140993
 30
0.0
 10
110.7492496098392
 20
-210.2691776667596
 30
0.0
 10
110.7479566129418
 20
-210.9616490683747
 30
0.0
 10
111.2369724291688
 20
-211.1532230513694
 30
0.0
 10
111.2369724291688
 20
-211.1532230513694
 30
0.0
 10
114.5245670554324
 20
-212.4411519406319
 30
0.0
 10
114.5245670554324
 20
-212.4411519406319
 30
0.0
 10
114.9402573973979
 20
-212.6040003636483
 30
0.0
 10
115.4020881226813
 20
-212.603999727767
 30
0.0
 10
115.8177780162018
 20
-212.4411501600461
 30
0.0
 10
115.8177780162018
 20
-212.4411501600461
 30
0.0
 10
119.1053429270038
 20
-211.153222469424
 30
0.0
 10
119.1053429270038
 20
-211.153222469424
 30
0.0
 10
119.5943567763206
 20
-210.9616477036869
 30
0.0
 10
119.5930637767614
 20
-210.2691790113712
 30
0.0
 10
119.1033379108872
 20
-210.0794317795484
 30
0.0
 10
119.1033379108872
 20
-210.0794317795484
 30
0.0
 10
115.8116097048237
 20
-208.8040318904741
 30
0.0
 10
115.8116097048237
 20
-208.8040318904741
 30
0.0
 10
115.3995750839174
 20
-208.6443865987304
 30
0.0
 10
114.9427704435516
 20
-208.6443859748616
 30
0.0
 10
114.5307353865845
 20
-208.804030141155
 30
0.0
  0
SPLINE
  5
119
330
FB
100
AcDbEntity
  8
Слой 1
 62
   250
420
  3947579
370
    25
100
AcDbSpline
210
0.0
220
0.0
230
1.0
 70
     9
 71
     3
 72
    29
 73
    25
 74
     0
 42
0.0000000001
 43
0.0000000001
 40
0.0
 40
0.0
 40
0.0
 40
0.0
 40
1.0
 40
1.0
 40
1.0
 40
2.0
 40
2.0
 40
2.0
 40
3.0
 40
3.0
 40
3.0
 40
4.0
 40
4.0
 40
4.0
 40
5.0
 40
5.0
 40
5.0
 40
6.0
 40
6.0
 40
6.0
 40
7.0
 40
7.0
 40
7.0
 40
8.0
 40
8.0
 40
8.0
 40
8.0
 10
114.5307353865845
 20
-213.7429190288092
 30
0.0
 10
114.5307353865845
 20
-213.7429190288092
 30
0.0
 10
111.2389774354558
 20
-215.0183201017534
 30
0.0
 10
111.2389774354558
 20
-215.0183201017534
 30
0.0
 10
110.7492496098392
 20
-215.2080665544137
 30
0.0
 10
110.7479566129418
 20
-215.9005379560289
 30
0.0
 10
111.2369724291688
 20
-216.0921119390236
 30
0.0
 10
111.2369724291688
 20
-216.0921119390236
 30
0.0
 10
114.5245670554324
 20
-217.3800408282861
 30
0.0
 10
114.5245670554324
 20
-217.3800408282861
 30
0.0
 10
114.9402573973979
 20
-217.5428892513025
 30
0.0
 10
115.4020881226813
 20
-217.5428886154211
 30
0.0
 10
115.8177780162018
 20
-217.3800390477003
 30
0.0
 10
115.8177780162018
 20
-217.3800390477003
 30
0.0
 10
119.1053429270038
 20
-216.0921113570783
 30
0.0
 10
119.1053429270038
 20
-216.0921113570783
 30
0.0
 10
119.5943567763206
 20
-215.900536591341
 30
0.0
 10
119.5930637767614
 20
-215.2080678990254
 30
0.0
 10
119.1033379108872
 20
-215.0183206672026
 30
0.0
 10
119.1033379108872
 20
-215.0183206672026
 30
0.0
 10
115.8116097048237
 20
-213.7429207781283
 30
0.0
 10
115.8116097048237
 20
-213.7429207781283
 30
0.0
 10
115.3995750839174
 20
-213.5832754863846
 30
0.0
 10
114.9427704435516
 20
-213.5832748625158
 30
0.0
 10
114.5307353865845
 20
-213.7429190288092
 30
0.0
  0
SPLINE
  5
11A
330
FB
100
AcDbEntity
  8
Слой 1
 62
   250
420
  3947579
370
    25
100
AcDbSpline
210
0.0
220
0.0
230
1.0
 70
     9
 71
     3
 72
    29
 73
    25
 74
     0
 42
0.0000000001
 43
0.0000000001
 40
0.0
 40
0.0
 40
0.0
 40
0.0
 40
1.0
 40
1.0
 40
1.0
 40
2.0
 40
2.0
 40
2.0
 40
3.0
 40
3.0
 40
3.0
 40
4.0
 40
4.0
 40
4.0
 40
5.0
 40
5.0
 40
5.0
 40
6.0
 40
6.0
 40
6.0
 40
7.0
 40
7.0
 40
7.0
 40
8.0
 40
8.0
 40
8.0
 40
8.0
 10
114.5307353865845
 20
-218.6818079164634
 30
0.0
 10
114.5307353865845
 20
-218.6818079164634
 30
0.0
 10
111.2389774354558
 20
-219.9572089894076
 30
0.0
 10
111.2389774354558
 20
-219.9572089894076
 30
0.0
 10
110.7492496098392
 20
-220.1469554420679
 30
0.0
 10
110.7479566129418
 20
-220.8394268436831
 30
0.0
 10
111.2369724291688
 20
-221.0310008266777
 30
0.0
 10
111.2369724291688
 20
-221.0310008266777
 30
0.0
 10
114.5245670554324
 20
-222.3189297159403
 30
0.0
 10
114.5245670554324
 20
-222.3189297159403
 30
0.0
 10
114.9402573973979
 20
-222.4817781389567
 30
0.0
 10
115.4020881226813
 20
-222.4817775030753
 30
0.0
 10
115.8177780162018
 20
-222.3189279353544
 30
0.0
 10
115.8177780162018
 20
-222.3189279353544
 30
0.0
 10
119.1053429270038
 20
-221.0310002447324
 30
0.0
 10
119.1053429270038
 20
-221.0310002447324
 30
0.0
 10
119.5943567763206
 20
-220.8394254789952
 30
0.0
 10
119.5930637767614
 20
-220.1469567866796
 30
0.0
 10
119.1033379108872
 20
-219.9572095548568
 30
0.0
 10
119.1033379108872
 20
-219.9572095548568
 30
0.0
 10
115.8116097048237
 20
-218.6818096657825
 30
0.0
 10
115.8116097048237
 20
-218.6818096657825
 30
0.0
 10
115.3995750839174
 20
-218.5221643740387
 30
0.0
 10
114.9427704435516
 20
-218.5221637501699
 30
0.0
 10
114.5307353865845
 20
-218.6818079164634
 30
0.0
  0
SPLINE
  5
11B
330
FB
100
AcDbEntity
  8
Слой 1
 62
   250
420
  3947579
370
    25
100
AcDbSpline
210
0.0
220
0.0
230
1.0
 70
     9
 71
     3
 72
    29
 73
    25
 74
     0
 42
0.0000000001
 43
0.0000000001
 40
0.0
 40
0.0
 40
0.0
 40
0.0
 40
1.0
 40
1.0
 40
1.0
 40
2.0
 40
2.0
 40
2.0
 40
3.0
 40
3.0
 40
3.0
 40
4.0
 40
4.0
 40
4.0
 40
5.0
 40
5.0
 40
5.0
 40
6.0
 40
6.0
 40
6.0
 40
7.0
 40
7.0
 40
7.0
 40
8.0
 40
8.0
 40
8.0
 40
8.0
 10
114.5307353865845
 20
-223.5357757141189
 30
0.0
 10
114.5307353865845
 20
-223.5357757141189
 30
0.0
 10
111.2389774354558
 20
-224.8111767870632
 30
0.0
 10
111.2389774354558
 20
-224.8111767870632
 30
0.0
 10
110.7492496098392
 20
-225.0009232397235
 30
0.0
 10
110.7479566129418
 20
-225.6933946413386
 30
0.0
 10
111.2369724291688
 20
-225.8849686243333
 30
0.0
 10
111.2369724291688
 20
-225.8849686243333
 30
0.0
 10
114.5245670554324
 20
-227.1728975135959
 30
0.0
 10
114.5245670554324
 20
-227.1728975135959
 30
0.0
 10
114.9402573973979
 20
-227.3357459366123
 30
0.0
 10
115.4020881226813
 20
-227.3357453007308
 30
0.0
 10
115.8177780162018
 20
-227.17289573301
 30
0.0
 10
115.8177780162018
 20
-227.17289573301
 30
0.0
 10
119.1053429270038
 20
-225.884968042388
 30
0.0
 10
119.1053429270038
 20
-225.884968042388
 30
0.0
 10
119.5943567763206
 20
-225.6933932766508
 30
0.0
 10
119.5930637767614
 20
-225.0009245843351
 30
0.0
 10
119.1033379108872
 20
-224.8111773525123
 30
0.0
 10
119.1033379108872
 20
-224.8111773525123
 30
0.0
 10
115.8116097048237
 20
-223.535777463438
 30
0.0
 10
115.8116097048237
 20
-223.535777463438
 30
0.0
 10
115.3995750839174
 20
-223.3761321716943
 30
0.0
 10
114.9427704435516
 20
-223.3761315478255
 30
0.0
 10
114.5307353865845
 20
-223.5357757141189
 30
0.0
  0
SPLINE
  5
11C
330
FB
100
AcDbEntity
  8
Слой 1
 62
   250
420
  3947579
370
    25
100
AcDbSpline
210
0.0
220
0.0
230
1.0
 70
     9
 71
     3
 72
    29
 73
    25
 74
     0
 42
0.0000000001
 43
0.0000000001
 40
0.0
 40
0.0
 40
0.0
 40
0.0
 40
1.0
 40
1.0
 40
1.0
 40
2.0
 40
2.0
 40
2.0
 40
3.0
 40
3.0
 40
3.0
 40
4.0
 40
4.0
 40
4.0
 40
5.0
 40
5.0
 40
5.0
 40
6.0
 40
6.0
 40
6.0
 40
7.0
 40
7.0
 40
7.0
 40
8.0
 40
8.0
 40
8.0
 40
8.0
 10
121.2335131626866
 20
-206.3345856973279
 30
0.0
 10
121.2335131626866
 20
-206.3345856973279
 30
0.0
 10
117.9417552115579
 20
-207.6099867702722
 30
0.0
 10
117.9417552115579
 20
-207.6099867702722
 30
0.0
 10
117.4520273859413
 20
-207.7997332229325
 30
0.0
 10
117.4507343890439
 20
-208.4922046245476
 30
0.0
 10
117.9397502052708
 20
-208.6837786075423
 30
0.0
 10
117.9397502052708
 20
-208.6837786075423
 30
0.0
 10
121.2273448315345
 20
-209.9717074968048
 30
0.0
 10
121.2273448315345
 20
-209.9717074968048
 30
0.0
 10
121.6430351734999
 20
-210.1345559198213
 30
0.0
 10
122.1048658987834
 20
-210.1345552839399
 30
0.0
 10
122.5205557923039
 20
-209.971705716219
 30
0.0
 10
122.5205557923039
 20
-209.971705716219
 30
0.0
 10
125.8081207031059
 20
-208.683778025597
 30
0.0
 10
125.8081207031059
 20
-208.683778025597
 30
0.0
 10
126.2971345524227
 20
-208.4922032598598
 30
0.0
 10
126.2958415528635
 20
-207.7997345675441
 30
0.0
 10
125.8061156869893
 20
-207.6099873357213
 30
0.0
 10
125.8061156869893
 20
-207.6099873357213
 30
0.0
 10
122.5143874809258
 20
-206.334587446647
 30
0.0
 10
122.5143874809258
 20
-206.334587446647
 30
0.0
 10
122.1023528600194
 20
-206.1749421549033
 30
0.0
 10
121.6455482196537
 20
-206.1749415310345
 30
0.0
 10
121.2335131626866
 20
-206.3345856973279
 30
0.0
  0
SPLINE
  5
11D
330
FB
100
AcDbEntity
  8
Слой 1
 62
   250
420
  3947579
370
    25
100
AcDbSpline
210
0.0
220
0.0
230
1.0
 70
     9
 71
     3
 72
    29
 73
    25
 74
     0
 42
0.0000000001
 43
0.0000000001
 40
0.0
 40
0.0
 40
0.0
 40
0.0
 40
1.0
 40
1.0
 40
1.0
 40
2.0
 40
2.0
 40
2.0
 40
3.0
 40
3.0
 40
3.0
 40
4.0
 40
4.0
 40
4.0
 40
5.0
 40
5.0
 40
5.0
 40
6.0
 40
6.0
 40
6.0
 40
7.0
 40
7.0
 40
7.0
 40
8.0
 40
8.0
 40
8.0
 40
8.0
 10
121.2335131626866
 20
-211.2734745849821
 30
0.0
 10
121.2335131626866
 20
-211.2734745849821
 30
0.0
 10
117.9417552115579
 20
-212.5488756579263
 30
0.0
 10
117.9417552115579
 20
-212.5488756579263
 30
0.0
 10
117.4520273859413
 20
-212.7386221105866
 30
0.0
 10
117.4507343890439
 20
-213.4310935122018
 30
0.0
 10
117.9397502052708
 20
-213.6226674951965
 30
0.0
 10
117.9397502052708
 20
-213.6226674951965
 30
0.0
 10
121.2273448315345
 20
-214.910596384459
 30
0.0
 10
121.2273448315345
 20
-214.910596384459
 30
0.0
 10
121.6430351734999
 20
-215.0734448074754
 30
0.0
 10
122.1048658987834
 20
-215.0734441715941
 30
0.0
 10
122.5205557923039
 20
-214.9105946038732
 30
0.0
 10
122.5205557923039
 20
-214.9105946038732
 30
0.0
 10
125.8081207031059
 20
-213.6226669132511
 30
0.0
 10
125.8081207031059
 20
-213.6226669132511
 30
0.0
 10
126.2971345524227
 20
-213.4310921475139
 30
0.0
 10
126.2958415528635
 20
-212.7386234551984
 30
0.0
 10
125.8061156869893
 20
-212.5488762233755
 30
0.0
 10
125.8061156869893
 20
-212.5488762233755
 30
0.0
 10
122.5143874809258
 20
-211.2734763343012
 30
0.0
 10
122.5143874809258
 20
-211.2734763343012
 30
0.0
 10
122.1023528600194
 20
-211.1138310425575
 30
0.0
 10
121.6455482196537
 20
-211.1138304186887
 30
0.0
 10
121.2335131626866
 20
-211.2734745849821
 30
0.0
  0
SPLINE
  5
11E
330
FB
100
AcDbEntity
  8
Слой 1
 62
   250
420
  3947579
370
    25
100
AcDbSpline
210
0.0
220
0.0
230
1.0
 70
     9
 71
     3
 72
    29
 73
    25
 74
     0
 42
0.0000000001
 43
0.0000000001
 40
0.0
 40
0.0
 40
0.0
 40
0.0
 40
1.0
 40
1.0
 40
1.0
 40
2.0
 40
2.0
 40
2.0
 40
3.0
 40
3.0
 40
3.0
 40
4.0
 40
4.0
 40
4.0
 40
5.0
 40
5.0
 40
5.0
 40
6.0
 40
6.0
 40
6.0
 40
7.0
 40
7.0
 40
7.0
 40
8.0
 40
8.0
 40
8.0
 40
8.0
 10
121.2335131626866
 20
-216.2123634726363
 30
0.0
 10
121.2335131626866
 20
-216.2123634726363
 30
0.0
 10
117.9417552115579
 20
-217.4877645455805
 30
0.0
 10
117.9417552115579
 20
-217.4877645455805
 30
0.0
 10
117.4520273859413
 20
-217.6775109982408
 30
0.0
 10
117.4507343890439
 20
-218.369982399856
 30
0.0
 10
117.9397502052708
 20
-218.5615563828506
 30
0.0
 10
117.9397502052708
 20
-218.5615563828506
 30
0.0
 10
121.2273448315345
 20
-219.8494852721132
 30
0.0
 10
121.2273448315345
 20
-219.8494852721132
 30
0.0
 10
121.6430351734999
 20
-220.0123336951296
 30
0.0
 10
122.1048658987834
 20
-220.0123330592482
 30
0.0
 10
122.5205557923039
 20
-219.8494834915273
 30
0.0
 10
122.5205557923039
 20
-219.8494834915273
 30
0.0
 10
125.8081207031059
 20
-218.5615558009053
 30
0.0
 10
125.8081207031059
 20
-218.5615558009053
 30
0.0
 10
126.2971345524227
 20
-218.3699810351681
 30
0.0
 10
126.2958415528635
 20
-217.6775123428525
 30
0.0
 10
125.8061156869893
 20
-217.4877651110297
 30
0.0
 10
125.8061156869893
 20
-217.4877651110297
 30
0.0
 10
122.5143874809258
 20
-216.2123652219554
 30
0.0
 10
122.5143874809258
 20
-216.2123652219554
 30
0.0
 10
122.1023528600194
 20
-216.0527199302117
 30
0.0
 10
121.6455482196537
 20
-216.0527193063428
 30
0.0
 10
121.2335131626866
 20
-216.2123634726363
 30
0.0
  0
SPLINE
  5
11F
330
FB
100
AcDbEntity
  8
Слой 1
 62
   250
420
  3947579
370
    25
100
AcDbSpline
210
0.0
220
0.0
230
1.0
 70
     9
 71
     3
 72
    29
 73
    25
 74
     0
 42
0.0000000001
 43
0.0000000001
 40
0.0
 40
0.0
 40
0.0
 40
0.0
 40
1.0
 40
1.0
 40
1.0
 40
2.0
 40
2.0
 40
2.0
 40
3.0
 40
3.0
 40
3.0
 40
4.0
 40
4.0
 40
4.0
 40
5.0
 40
5.0
 40
5.0
 40
6.0
 40
6.0
 40
6.0
 40
7.0
 40
7.0
 40
7.0
 40
8.0
 40
8.0
 40
8.0
 40
8.0
 10
121.2335131626866
 20
-221.1512523602905
 30
0.0
 10
121.2335131626866
 20
-221.1512523602905
 30
0.0
 10
117.9417552115579
 20
-222.4266534332347
 30
0.0
 10
117.9417552115579
 20
-222.4266534332347
 30
0.0
 10
117.4520273859413
 20
-222.616399885895
 30
0.0
 10
117.4507343890439
 20
-223.3088712875102
 30
0.0
 10
117.9397502052708
 20
-223.5004452705048
 30
0.0
 10
117.9397502052708
 20
-223.5004452705048
 30
0.0
 10
121.2273448315345
 20
-224.7883741597674
 30
0.0
 10
121.2273448315345
 20
-224.7883741597674
 30
0.0
 10
121.6430351734999
 20
-224.9512225827838
 30
0.0
 10
122.1048658987834
 20
-224.9512219469024
 30
0.0
 10
122.5205557923039
 20
-224.7883723791815
 30
0.0
 10
122.5205557923039
 20
-224.7883723791815
 30
0.0
 10
125.8081207031059
 20
-223.5004446885595
 30
0.0
 10
125.8081207031059
 20
-223.5004446885595
 30
0.0
 10
126.2971345524227
 20
-223.3088699228223
 30
0.0
 10
126.2958415528635
 20
-222.6164012305066
 30
0.0
 10
125.8061156869893
 20
-222.4266539986838
 30
0.0
 10
125.8061156869893
 20
-222.4266539986838
 30
0.0
 10
122.5143874809258
 20
-221.1512541096095
 30
0.0
 10
122.5143874809258
 20
-221.1512541096095
 30
0.0
 10
122.1023528600194
 20
-220.9916088178658
 30
0.0
 10
121.6455482196537
 20
-220.991608193997
 30
0.0
 10
121.2335131626866
 20
-221.1512523602905
 30
0.0
  0
SPLINE
  5
120
330
FB
100
AcDbEntity
  8
Слой 1
 62
   250
420
  3947579
370
    25
100
AcDbSpline
210
0.0
220
0.0
230
1.0
 70
     9
 71
     3
 72
    29
 73
    25
 74
     0
 42
0.0000000001
 43
0.0000000001
 40
0.0
 40
0.0
 40
0.0
 40
0.0
 40
1.0
 40
1.0
 40
1.0
 40
2.0
 40
2.0
 40
2.0
 40
3.0
 40
3.0
 40
3.0
 40
4.0
 40
4.0
 40
4.0
 40
5.0
 40
5.0
 40
5.0
 40
6.0
 40
6.0
 40
6.0
 40
7.0
 40
7.0
 40
7.0
 40
8.0
 40
8.0
 40
8.0
 40
8.0
 10
101.3315681934564
 20
-203.8651412535015
 30
0.0
 10
101.3315681934564
 20
-203.8651412535015
 30
0.0
 10
98.03981024232783
 20
-205.1405423264457
 30
0.0
 10
98.03981024232783
 20
-205.1405423264457
 30
0.0
 10
97.55008241671118
 20
-205.3302887791061
 30
0.0
 10
97.54878941981383
 20
-206.0227601807212
 30
0.0
 10
98.03780523604077
 20
-206.2143341637158
 30
0.0
 10
98.03780523604077
 20
-206.2143341637158
 30
0.0
 10
101.3253998623043
 20
-207.5022630529784
 30
0.0
 10
101.3253998623043
 20
-207.5022630529784
 30
0.0
 10
101.7410902042698
 20
-207.6651114759948
 30
0.0
 10
102.2029209295533
 20
-207.6651108401134
 30
0.0
 10
102.6186108230738
 20
-207.5022612723925
 30
0.0
 10
102.6186108230738
 20
-207.5022612723925
 30
0.0
 10
105.9061757338758
 20
-206.2143335817705
 30
0.0
 10
105.9061757338758
 20
-206.2143335817705
 30
0.0
 10
106.3951895831925
 20
-206.0227588160333
 30
0.0
 10
106.3938965836334
 20
-205.3302901237177
 30
0.0
 10
105.9041707177592
 20
-205.1405428918949
 30
0.0
 10
105.9041707177592
 20
-205.1405428918949
 30
0.0
 10
102.6124425116957
 20
-203.8651430028206
 30
0.0
 10
102.6124425116957
 20
-203.8651430028206
 30
0.0
 10
102.2004078907893
 20
-203.7054977110769
 30
0.0
 10
101.7436032504236
 20
-203.7054970872081
 30
0.0
 10
101.3315681934564
 20
-203.8651412535015
 30
0.0
  0
SPLINE
  5
121
330
FB
100
AcDbEntity
  8
Слой 1
 62
   250
420
  3947579
370
    25
100
AcDbSpline
210
0.0
220
0.0
230
1.0
 70
     9
 71
     3
 72
    29
 73
    25
 74
     0
 42
0.0000000001
 43
0.0000000001
 40
0.0
 40
0.0
 40
0.0
 40
0.0
 40
1.0
 40
1.0
 40
1.0
 40
2.0
 40
2.0
 40
2.0
 40
3.0
 40
3.0
 40
3.0
 40
4.0
 40
4.0
 40
4.0
 40
5.0
 40
5.0
 40
5.0
 40
6.0
 40
6.0
 40
6.0
 40
7.0
 40
7.0
 40
7.0
 40
8.0
 40
8.0
 40
8.0
 40
8.0
 10
101.3315681934564
 20
-208.8040301411557
 30
0.0
 10
101.3315681934564
 20
-208.8040301411557
 30
0.0
 10
98.03981024232783
 20
-210.0794312140999
 30
0.0
 10
98.03981024232783
 20
-210.0794312140999
 30
0.0
 10
97.55008241671118
 20
-210.2691776667602
 30
0.0
 10
97.54878941981383
 20
-210.9616490683754
 30
0.0
 10
98.03780523604077
 20
-211.15322305137
 30
0.0
 10
98.03780523604077
 20
-211.15322305137
 30
0.0
 10
101.3253998623043
 20
-212.4411519406326
 30
0.0
 10
101.3253998623043
 20
-212.4411519406326
 30
0.0
 10
101.7410902042698
 20
-212.604000363649
 30
0.0
 10
102.2029209295533
 20
-212.6039997277676
 30
0.0
 10
102.6186108230738
 20
-212.4411501600467
 30
0.0
 10
102.6186108230738
 20
-212.4411501600467
 30
0.0
 10
105.9061757338758
 20
-211.1532224694247
 30
0.0
 10
105.9061757338758
 20
-211.1532224694247
 30
0.0
 10
106.3951895831925
 20
-210.9616477036875
 30
0.0
 10
106.3938965836334
 20
-210.2691790113719
 30
0.0
 10
105.9041707177592
 20
-210.079431779549
 30
0.0
 10
105.9041707177592
 20
-210.079431779549
 30
0.0
 10
102.6124425116957
 20
-208.8040318904748
 30
0.0
 10
102.6124425116957
 20
-208.8040318904748
 30
0.0
 10
102.2004078907893
 20
-208.644386598731
 30
0.0
 10
101.7436032504236
 20
-208.6443859748623
 30
0.0
 10
101.3315681934564
 20
-208.8040301411557
 30
0.0
  0
SPLINE
  5
122
330
FB
100
AcDbEntity
  8
Слой 1
 62
   250
420
  3947579
370
    25
100
AcDbSpline
210
0.0
220
0.0
230
1.0
 70
     9
 71
     3
 72
    29
 73
    25
 74
     0
 42
0.0000000001
 43
0.0000000001
 40
0.0
 40
0.0
 40
0.0
 40
0.0
 40
1.0
 40
1.0
 40
1.0
 40
2.0
 40
2.0
 40
2.0
 40
3.0
 40
3.0
 40
3.0
 40
4.0
 40
4.0
 40
4.0
 40
5.0
 40
5.0
 40
5.0
 40
6.0
 40
6.0
 40
6.0
 40
7.0
 40
7.0
 40
7.0
 40
8.0
 40
8.0
 40
8.0
 40
8.0
 10
101.3315681934564
 20
-213.7429190288099
 30
0.0
 10
101.3315681934564
 20
-213.7429190288099
 30
0.0
 10
98.03981024232783
 20
-215.0183201017541
 30
0.0
 10
98.03981024232783
 20
-215.0183201017541
 30
0.0
 10
97.55008241671118
 20
-215.2080665544144
 30
0.0
 10
97.54878941981383
 20
-215.9005379560295
 30
0.0
 10
98.03780523604077
 20
-216.0921119390242
 30
0.0
 10
98.03780523604077
 20
-216.0921119390242
 30
0.0
 10
101.3253998623043
 20
-217.3800408282867
 30
0.0
 10
101.3253998623043
 20
-217.3800408282867
 30
0.0
 10
101.7410902042698
 20
-217.5428892513032
 30
0.0
 10
102.2029209295533
 20
-217.5428886154218
 30
0.0
 10
102.6186108230738
 20
-217.3800390477009
 30
0.0
 10
102.6186108230738
 20
-217.3800390477009
 30
0.0
 10
105.9061757338758
 20
-216.0921113570789
 30
0.0
 10
105.9061757338758
 20
-216.0921113570789
 30
0.0
 10
106.3951895831925
 20
-215.9005365913417
 30
0.0
 10
106.3938965836334
 20
-215.2080678990261
 30
0.0
 10
105.9041707177592
 20
-215.0183206672032
 30
0.0
 10
105.9041707177592
 20
-215.0183206672032
 30
0.0
 10
102.6124425116957
 20
-213.7429207781289
 30
0.0
 10
102.6124425116957
 20
-213.7429207781289
 30
0.0
 10
102.2004078907893
 20
-213.5832754863852
 30
0.0
 10
101.7436032504236
 20
-213.5832748625164
 30
0.0
 10
101.3315681934564
 20
-213.7429190288099
 30
0.0
  0
SPLINE
  5
123
330
FB
100
AcDbEntity
  8
Слой 1
 62
   250
420
  3947579
370
    25
100
AcDbSpline
210
0.0
220
0.0
230
1.0
 70
     9
 71
     3
 72
    29
 73
    25
 74
     0
 42
0.0000000001
 43
0.0000000001
 40
0.0
 40
0.0
 40
0.0
 40
0.0
 40
1.0
 40
1.0
 40
1.0
 40
2.0
 40
2.0
 40
2.0
 40
3.0
 40
3.0
 40
3.0
 40
4.0
 40
4.0
 40
4.0
 40
5.0
 40
5.0
 40
5.0
 40
6.0
 40
6.0
 40
6.0
 40
7.0
 40
7.0
 40
7.0
 40
8.0
 40
8.0
 40
8.0
 40
8.0
 10
101.3315681934564
 20
-218.681807916464
 30
0.0
 10
101.3315681934564
 20
-218.681807916464
 30
0.0
 10
98.03981024232783
 20
-219.9572089894082
 30
0.0
 10
98.03981024232783
 20
-219.9572089894082
 30
0.0
 10
97.55008241671118
 20
-220.1469554420685
 30
0.0
 10
97.54878941981383
 20
-220.8394268436837
 30
0.0
 10
98.03780523604077
 20
-221.0310008266784
 30
0.0
 10
98.03780523604077
 20
-221.0310008266784
 30
0.0
 10
101.3253998623043
 20
-222.3189297159409
 30
0.0
 10
101.3253998623043
 20
-222.3189297159409
 30
0.0
 10
101.7410902042698
 20
-222.4817781389573
 30
0.0
 10
102.2029209295533
 20
-222.4817775030759
 30
0.0
 10
102.6186108230738
 20
-222.3189279353551
 30
0.0
 10
102.6186108230738
 20
-222.3189279353551
 30
0.0
 10
105.9061757338758
 20
-221.0310002447331
 30
0.0
 10
105.9061757338758
 20
-221.0310002447331
 30
0.0
 10
106.3951895831925
 20
-220.8394254789958
 30
0.0
 10
106.3938965836334
 20
-220.1469567866802
 30
0.0
 10
105.9041707177592
 20
-219.9572095548574
 30
0.0
 10
105.9041707177592
 20
-219.9572095548574
 30
0.0
 10
102.6124425116957
 20
-218.6818096657831
 30
0.0
 10
102.6124425116957
 20
-218.6818096657831
 30
0.0
 10
102.2004078907893
 20
-218.5221643740394
 30
0.0
 10
101.7436032504236
 20
-218.5221637501706
 30
0.0
 10
101.3315681934564
 20
-218.681807916464
 30
0.0
  0
SPLINE
  5
124
330
FB
100
AcDbEntity
  8
Слой 1
 62
   250
420
  3947579
370
    25
100
AcDbSpline
210
0.0
220
0.0
230
1.0
 70
     9
 71
     3
 72
    29
 73
    25
 74
     0
 42
0.0000000001
 43
0.0000000001
 40
0.0
 40
0.0
 40
0.0
 40
0.0
 40
1.0
 40
1.0
 40
1.0
 40
2.0
 40
2.0
 40
2.0
 40
3.0
 40
3.0
 40
3.0
 40
4.0
 40
4.0
 40
4.0
 40
5.0
 40
5.0
 40
5.0
 40
6.0
 40
6.0
 40
6.0
 40
7.0
 40
7.0
 40
7.0
 40
8.0
 40
8.0
 40
8.0
 40
8.0
 10
101.3315681934564
 20
-223.5357757141189
 30
0.0
 10
101.3315681934564
 20
-223.5357757141189
 30
0.0
 10
98.03981024232783
 20
-224.8111767870632
 30
0.0
 10
98.03981024232783
 20
-224.8111767870632
 30
0.0
 10
97.55008241671118
 20
-225.0009232397235
 30
0.0
 10
97.54878941981383
 20
-225.6933946413386
 30
0.0
 10
98.03780523604077
 20
-225.8849686243333
 30
0.0
 10
98.03780523604077
 20
-225.8849686243333
 30
0.0
 10
101.3253998623043
 20
-227.1728975135959
 30
0.0
 10
101.3253998623043
 20
-227.1728975135959
 30
0.0
 10
101.7410902042698
 20
-227.3357459366123
 30
0.0
 10
102.2029209295533
 20
-227.3357453007308
 30
0.0
 10
102.6186108230738
 20
-227.17289573301
 30
0.0
 10
102.6186108230738
 20
-227.17289573301
 30
0.0
 10
105.9061757338758
 20
-225.884968042388
 30
0.0
 10
105.9061757338758
 20
-225.884968042388
 30
0.0
 10
106.3951895831925
 20
-225.6933932766508
 30
0.0
 10
106.3938965836334
 20
-225.0009245843351
 30
0.0
 10
105.9041707177592
 20
-224.8111773525123
 30
0.0
 10
105.9041707177592
 20
-224.8111773525123
 30
0.0
 10
102.6124425116957
 20
-223.535777463438
 30
0.0
 10
102.6124425116957
 20
-223.535777463438
 30
0.0
 10
102.2004078907893
 20
-223.3761321716943
 30
0.0
 10
101.7436032504236
 20
-223.3761315478255
 30
0.0
 10
101.3315681934564
 20
-223.5357757141189
 30
0.0
  0
SPLINE
  5
125
330
FB
100
AcDbEntity
  8
Слой 1
 62
   250
420
  3947579
370
    25
100
AcDbSpline
210
0.0
220
0.0
230
1.0
 70
     9
 71
     3
 72
    23
 73
    19
 74
     0
 42
0.0000000001
 43
0.0000000001
 40
0.0
 40
0.0
 40
0.0
 40
0.0
 40
1.0
 40
1.0
 40
1.0
 40
2.0
 40
2.0
 40
2.0
 40
3.0
 40
3.0
 40
3.0
 40
4.0
 40
4.0
 40
4.0
 40
5.0
 40
5.0
 40
5.0
 40
6.0
 40
6.0
 40
6.0
 40
6.0
 10
88.19444442239584
 20
-204.3846787999215
 30
0.0
 10
88.19444442239584
 20
-204.3846787999215
 30
0.0
 10
88.19444442239584
 20
-206.9888055221682
 30
0.0
 10
88.19444442239584
 20
-206.9888055221682
 30
0.0
 10
88.19444442239584
 20
-207.4455312800508
 30
0.0
 10
88.65601507529998
 20
-207.7576193639339
 30
0.0
 10
89.07986703174355
 20
-207.5874784313741
 30
0.0
 10
89.07986703174355
 20
-207.5874784313741
 30
0.0
 10
92.50062018167168
 20
-206.2143335817705
 30
0.0
 10
92.50062018167168
 20
-206.2143335817705
 30
0.0
 10
92.98963403098838
 20
-206.0227588160333
 30
0.0
 10
92.98834103142958
 20
-205.3302901237177
 30
0.0
 10
92.49861516555506
 20
-205.1405428918949
 30
0.0
 10
92.49861516555506
 20
-205.1405428918949
 30
0.0
 10
89.07717592108353
 20
-203.7849326464411
 30
0.0
 10
89.07717592108353
 20
-203.7849326464411
 30
0.0
 10
88.65371442167562
 20
-203.6171527426826
 30
0.0
 10
88.19444442239584
 20
-203.9291903394903
 30
0.0
 10
88.19444442239584
 20
-204.3846787999215
 30
0.0
  0
SPLINE
  5
126
330
FB
100
AcDbEntity
  8
Слой 1
 62
   250
420
  3947579
370
    25
100
AcDbSpline
210
0.0
220
0.0
230
1.0
 70
     9
 71
     3
 72
    23
 73
    19
 74
     0
 42
0.0000000001
 43
0.0000000001
 40
0.0
 40
0.0
 40
0.0
 40
0.0
 40
1.0
 40
1.0
 40
1.0
 40
2.0
 40
2.0
 40
2.0
 40
3.0
 40
3.0
 40
3.0
 40
4.0
 40
4.0
 40
4.0
 40
5.0
 40
5.0
 40
5.0
 40
6.0
 40
6.0
 40
6.0
 40
6.0
 10
88.19444442239584
 20
-209.3194282744253
 30
0.0
 10
88.19444442239584
 20
-209.3194282744253
 30
0.0
 10
88.19444442239584
 20
-211.923554996672
 30
0.0
 10
88.19444442239584
 20
-211.923554996672
 30
0.0
 10
88.19444442239584
 20
-212.3802807545547
 30
0.0
 10
88.65601507529998
 20
-212.6923688384378
 30
0.0
 10
89.07986703174355
 20
-212.522227905878
 30
0.0
 10
89.07986703174355
 20
-212.522227905878
 30
0.0
 10
92.50062018167168
 20
-211.1490830562744
 30
0.0
 10
92.50062018167168
 20
-211.1490830562744
 30
0.0
 10
92.98963403098838
 20
-210.9575082905372
 30
0.0
 10
92.98834103142958
 20
-210.2650395982216
 30
0.0
 10
92.49861516555506
 20
-210.0752923663987
 30
0.0
 10
92.49861516555506
 20
-210.0752923663987
 30
0.0
 10
89.07717592108353
 20
-208.719682120945
 30
0.0
 10
89.07717592108353
 20
-208.719682120945
 30
0.0
 10
88.65371442167562
 20
-208.5519022171864
 30
0.0
 10
88.19444442239584
 20
-208.8639398139942
 30
0.0
 10
88.19444442239584
 20
-209.3194282744253
 30
0.0
  0
SPLINE
  5
127
330
FB
100
AcDbEntity
  8
Слой 1
 62
   250
420
  3947579
370
    25
100
AcDbSpline
210
0.0
220
0.0
230
1.0
 70
     9
 71
     3
 72
    23
 73
    19
 74
     0
 42
0.0000000001
 43
0.0000000001
 40
0.0
 40
0.0
 40
0.0
 40
0.0
 40
1.0
 40
1.0
 40
1.0
 40
2.0
 40
2.0
 40
2.0
 40
3.0
 40
3.0
 40
3.0
 40
4.0
 40
4.0
 40
4.0
 40
5.0
 40
5.0
 40
5.0
 40
6.0
 40
6.0
 40
6.0
 40
6.0
 10
88.19444442239584
 20
-214.2603868686547
 30
0.0
 10
88.19444442239584
 20
-214.2603868686547
 30
0.0
 10
88.19444442239584
 20
-216.8645135909013
 30
0.0
 10
88.19444442239584
 20
-216.8645135909013
 30
0.0
 10
88.19444442239584
 20
-217.321239348784
 30
0.0
 10
88.65601507529998
 20
-217.6333274326671
 30
0.0
 10
89.07986703174355
 20
-217.4631865001073
 30
0.0
 10
89.07986703174355
 20
-217.4631865001073
 30
0.0
 10
92.50062018167168
 20
-216.0900416505037
 30
0.0
 10
92.50062018167168
 20
-216.0900416505037
 30
0.0
 10
92.98963403098838
 20
-215.8984668847665
 30
0.0
 10
92.98834103142958
 20
-215.2059981924509
 30
0.0
 10
92.49861516555506
 20
-215.0162509606281
 30
0.0
 10
92.49861516555506
 20
-215.0162509606281
 30
0.0
 10
89.07717592108353
 20
-213.6606407151743
 30
0.0
 10
89.07717592108353
 20
-213.6606407151743
 30
0.0
 10
88.65371442167562
 20
-213.4928608114158
 30
0.0
 10
88.19444442239584
 20
-213.8048984082235
 30
0.0
 10
88.19444442239584
 20
-214.2603868686547
 30
0.0
  0
SPLINE
  5
128
330
FB
100
AcDbEntity
  8
Слой 1
 62
   250
420
  3947579
370
    25
100
AcDbSpline
210
0.0
220
0.0
230
1.0
 70
     9
 71
     3
 72
    23
 73
    19
 74
     0
 42
0.0000000001
 43
0.0000000001
 40
0.0
 40
0.0
 40
0.0
 40
0.0
 40
1.0
 40
1.0
 40
1.0
 40
2.0
 40
2.0
 40
2.0
 40
3.0
 40
3.0
 40
3.0
 40
4.0
 40
4.0
 40
4.0
 40
5.0
 40
5.0
 40
5.0
 40
6.0
 40
6.0
 40
6.0
 40
6.0
 10
88.19444442239584
 20
-219.1951363431585
 30
0.0
 10
88.19444442239584
 20
-219.1951363431585
 30
0.0
 10
88.19444442239584
 20
-221.7992630654052
 30
0.0
 10
88.19444442239584
 20
-221.7992630654052
 30
0.0
 10
88.19444442239584
 20
-222.2559888232879
 30
0.0
 10
88.65601507529998
 20
-222.568076907171
 30
0.0
 10
89.07986703174355
 20
-222.3979359746112
 30
0.0
 10
89.07986703174355
 20
-222.3979359746112
 30
0.0
 10
92.50062018167168
 20
-221.0247911250076
 30
0.0
 10
92.50062018167168
 20
-221.0247911250076
 30
0.0
 10
92.98963403098838
 20
-220.8332163592704
 30
0.0
 10
92.98834103142958
 20
-220.1407476669547
 30
0.0
 10
92.49861516555506
 20
-219.9510004351319
 30
0.0
 10
92.49861516555506
 20
-219.9510004351319
 30
0.0
 10
89.07717592108353
 20
-218.5953901896782
 30
0.0
 10
89.07717592108353
 20
-218.5953901896782
 30
0.0
 10
88.65371442167562
 20
-218.4276102859196
 30
0.0
 10
88.19444442239584
 20
-218.739647882728
 30
0.0
 10
88.19444442239584
 20
-219.1951363431585
 30
0.0
  0
SPLINE
  5
129
330
FB
100
AcDbEntity
  8
Слой 1
 62
   250
420
  3947579
370
    25
100
AcDbSpline
210
0.0
220
0.0
230
1.0
 70
     9
 71
     3
 72
    23
 73
    19
 74
     0
 42
0.0000000001
 43
0.0000000001
 40
0.0
 40
0.0
 40
0.0
 40
0.0
 40
1.0
 40
1.0
 40
1.0
 40
2.0
 40
2.0
 40
2.0
 40
3.0
 40
3.0
 40
3.0
 40
4.0
 40
4.0
 40
4.0
 40
5.0
 40
5.0
 40
5.0
 40
6.0
 40
6.0
 40
6.0
 40
6.0
 10
88.19444442239584
 20
-224.0553132605389
 30
0.0
 10
88.19444442239584
 20
-224.0553132605389
 30
0.0
 10
88.19444442239584
 20
-226.6594399827856
 30
0.0
 10
88.19444442239584
 20
-226.6594399827856
 30
0.0
 10
88.19444442239584
 20
-227.1161657406683
 30
0.0
 10
88.65601507529998
 20
-227.4282538245514
 30
0.0
 10
89.07986703174355
 20
-227.2581128919916
 30
0.0
 10
89.07986703174355
 20
-227.2581128919916
 30
0.0
 10
92.50062018167168
 20
-225.884968042388
 30
0.0
 10
92.50062018167168
 20
-225.884968042388
 30
0.0
 10
92.98963403098838
 20
-225.6933932766508
 30
0.0
 10
92.98834103142958
 20
-225.0009245843351
 30
0.0
 10
92.49861516555506
 20
-224.8111773525123
 30
0.0
 10
92.49861516555506
 20
-224.8111773525123
 30
0.0
 10
89.07717592108353
 20
-223.4555671070585
 30
0.0
 10
89.07717592108353
 20
-223.4555671070585
 30
0.0
 10
88.65371442167562
 20
-223.2877872033
 30
0.0
 10
88.19444442239584
 20
-223.5998248001078
 30
0.0
 10
88.19444442239584
 20
-224.0553132605389
 30
0.0
  0
SPLINE
  5
12A
330
FB
100
AcDbEntity
  8
Слой 1
 62
   250
420
  3947579
370
    25
100
AcDbSpline
210
0.0
220
0.0
230
1.0
 70
     9
 71
     3
 72
    23
 73
    19
 74
     0
 42
0.0000000001
 43
0.0000000001
 40
0.0
 40
0.0
 40
0.0
 40
0.0
 40
1.0
 40
1.0
 40
1.0
 40
2.0
 40
2.0
 40
2.0
 40
3.0
 40
3.0
 40
3.0
 40
4.0
 40
4.0
 40
4.0
 40
5.0
 40
5.0
 40
5.0
 40
6.0
 40
6.0
 40
6.0
 40
6.0
 10
142.255534985711
 20
-204.3846788000267
 30
0.0
 10
142.255534985711
 20
-204.3846788000267
 30
0.0
 10
142.2555349855942
 20
-206.9888055222734
 30
0.0
 10
142.2555349855942
 20
-206.9888055222734
 30
0.0
 10
142.2555349855737
 20
-207.4455312801561
 30
0.0
 10
141.7939643326554
 20
-207.757619364018
 30
0.0
 10
141.3701123762195
 20
-207.5874784314396
 30
0.0
 10
141.3701123762195
 20
-207.5874784314396
 30
0.0
 10
137.949359226353
 20
-206.214333581682
 30
0.0
 10
137.949359226353
 20
-206.214333581682
 30
0.0
 10
137.4603453770447
 20
-206.022758815923
 30
0.0
 10
137.4616383766346
 20
-205.3302901236073
 30
0.0
 10
137.9513642425178
 20
-205.140542891807
 30
0.0
 10
137.9513642425178
 20
-205.140542891807
 30
0.0
 10
141.3728034870502
 20
-203.7849326465066
 30
0.0
 10
141.3728034870502
 20
-203.7849326465066
 30
0.0
 10
141.7962649864659
 20
-203.6171527427673
 30
0.0
 10
142.2555349857316
 20
-203.9291903395956
 30
0.0
 10
142.255534985711
 20
-204.3846788000267
 30
0.0
  0
SPLINE
  5
12B
330
FB
100
AcDbEntity
  8
Слой 1
 62
   250
420
  3947579
370
    25
100
AcDbSpline
210
0.0
220
0.0
230
1.0
 70
     9
 71
     3
 72
    23
 73
    19
 74
     0
 42
0.0000000001
 43
0.0000000001
 40
0.0
 40
0.0
 40
0.0
 40
0.0
 40
1.0
 40
1.0
 40
1.0
 40
2.0
 40
2.0
 40
2.0
 40
3.0
 40
3.0
 40
3.0
 40
4.0
 40
4.0
 40
4.0
 40
5.0
 40
5.0
 40
5.0
 40
6.0
 40
6.0
 40
6.0
 40
6.0
 10
142.2555349854896
 20
-209.3194282745306
 30
0.0
 10
142.2555349854896
 20
-209.3194282745306
 30
0.0
 10
142.2555349853722
 20
-211.9235549967773
 30
0.0
 10
142.2555349853722
 20
-211.9235549967773
 30
0.0
 10
142.2555349853517
 20
-212.38028075466
 30
0.0
 10
141.793964332434
 20
-212.6923688385219
 30
0.0
 10
141.3701123759982
 20
-212.5222279059435
 30
0.0
 10
141.3701123759982
 20
-212.5222279059435
 30
0.0
 10
137.9493592261316
 20
-211.1490830561858
 30
0.0
 10
137.9493592261316
 20
-211.1490830561858
 30
0.0
 10
137.4603453768233
 20
-210.9575082904268
 30
0.0
 10
137.4616383764125
 20
-210.2650395981112
 30
0.0
 10
137.9513642422964
 20
-210.0752923663108
 30
0.0
 10
137.9513642422964
 20
-210.0752923663108
 30
0.0
 10
141.3728034868289
 20
-208.7196821210104
 30
0.0
 10
141.3728034868289
 20
-208.7196821210104
 30
0.0
 10
141.7962649862438
 20
-208.5519022172711
 30
0.0
 10
142.2555349855095
 20
-208.8639398140994
 30
0.0
 10
142.2555349854896
 20
-209.3194282745306
 30
0.0
  0
SPLINE
  5
12C
330
FB
100
AcDbEntity
  8
Слой 1
 62
   250
420
  3947579
370
    25
100
AcDbSpline
210
0.0
220
0.0
230
1.0
 70
     9
 71
     3
 72
    23
 73
    19
 74
     0
 42
0.0000000001
 43
0.0000000001
 40
0.0
 40
0.0
 40
0.0
 40
0.0
 40
1.0
 40
1.0
 40
1.0
 40
2.0
 40
2.0
 40
2.0
 40
3.0
 40
3.0
 40
3.0
 40
4.0
 40
4.0
 40
4.0
 40
5.0
 40
5.0
 40
5.0
 40
6.0
 40
6.0
 40
6.0
 40
6.0
 10
142.2555349852676
 20
-214.2603868687599
 30
0.0
 10
142.2555349852676
 20
-214.2603868687599
 30
0.0
 10
142.2555349851508
 20
-216.8645135910066
 30
0.0
 10
142.2555349851508
 20
-216.8645135910066
 30
0.0
 10
142.2555349851303
 20
-217.3212393488893
 30
0.0
 10
141.793964332212
 20
-217.6333274327512
 30
0.0
 10
141.3701123757761
 20
-217.4631865001728
 30
0.0
 10
141.3701123757761
 20
-217.4631865001728
 30
0.0
 10
137.9493592259096
 20
-216.0900416504152
 30
0.0
 10
137.9493592259096
 20
-216.0900416504152
 30
0.0
 10
137.4603453766013
 20
-215.8984668846561
 30
0.0
 10
137.4616383761912
 20
-215.2059981923405
 30
0.0
 10
137.9513642420743
 20
-215.0162509605401
 30
0.0
 10
137.9513642420743
 20
-215.0162509605401
 30
0.0
 10
141.3728034866069
 20
-213.6606407152398
 30
0.0
 10
141.3728034866069
 20
-213.6606407152398
 30
0.0
 10
141.7962649860225
 20
-213.4928608115004
 30
0.0
 10
142.2555349852881
 20
-213.8048984083288
 30
0.0
 10
142.2555349852676
 20
-214.2603868687599
 30
0.0
  0
SPLINE
  5
12D
330
FB
100
AcDbEntity
  8
Слой 1
 62
   250
420
  3947579
370
    25
100
AcDbSpline
210
0.0
220
0.0
230
1.0
 70
     9
 71
     3
 72
    23
 73
    19
 74
     0
 42
0.0000000001
 43
0.0000000001
 40
0.0
 40
0.0
 40
0.0
 40
0.0
 40
1.0
 40
1.0
 40
1.0
 40
2.0
 40
2.0
 40
2.0
 40
3.0
 40
3.0
 40
3.0
 40
4.0
 40
4.0
 40
4.0
 40
5.0
 40
5.0
 40
5.0
 40
6.0
 40
6.0
 40
6.0
 40
6.0
 10
142.2555349850462
 20
-219.1951363432638
 30
0.0
 10
142.2555349850462
 20
-219.1951363432638
 30
0.0
 10
142.2555349849288
 20
-221.7992630655104
 30
0.0
 10
142.2555349849288
 20
-221.7992630655104
 30
0.0
 10
142.2555349849082
 20
-222.2559888233932
 30
0.0
 10
141.7939643319906
 20
-222.568076907255
 30
0.0
 10
141.3701123755548
 20
-222.3979359746766
 30
0.0
 10
141.3701123755548
 20
-222.3979359746766
 30
0.0
 10
137.9493592256882
 20
-221.024791124919
 30
0.0
 10
137.9493592256882
 20
-221.024791124919
 30
0.0
 10
137.4603453763798
 20
-220.83321635916
 30
0.0
 10
137.4616383759691
 20
-220.1407476668444
 30
0.0
 10
137.951364241853
 20
-219.951000435044
 30
0.0
 10
137.951364241853
 20
-219.951000435044
 30
0.0
 10
141.3728034863855
 20
-218.5953901897436
 30
0.0
 10
141.3728034863855
 20
-218.5953901897436
 30
0.0
 10
141.7962649858004
 20
-218.4276102860043
 30
0.0
 10
142.2555349850667
 20
-218.7396478828333
 30
0.0
 10
142.2555349850462
 20
-219.1951363432638
 30
0.0
  0
SPLINE
  5
12E
330
FB
100
AcDbEntity
  8
Слой 1
 62
   250
420
  3947579
370
    25
100
AcDbSpline
210
0.0
220
0.0
230
1.0
 70
     9
 71
     3
 72
    23
 73
    19
 74
     0
 42
0.0000000001
 43
0.0000000001
 40
0.0
 40
0.0
 40
0.0
 40
0.0
 40
1.0
 40
1.0
 40
1.0
 40
2.0
 40
2.0
 40
2.0
 40
3.0
 40
3.0
 40
3.0
 40
4.0
 40
4.0
 40
4.0
 40
5.0
 40
5.0
 40
5.0
 40
6.0
 40
6.0
 40
6.0
 40
6.0
 10
142.255534984828
 20
-224.0553132606442
 30
0.0
 10
142.255534984828
 20
-224.0553132606442
 30
0.0
 10
142.2555349847106
 20
-226.6594399828908
 30
0.0
 10
142.2555349847106
 20
-226.6594399828908
 30
0.0
 10
142.25553498469
 20
-227.1161657407735
 30
0.0
 10
141.7939643317724
 20
-227.4282538246354
 30
0.0
 10
141.3701123753366
 20
-227.258112892057
 30
0.0
 10
141.3701123753366
 20
-227.258112892057
 30
0.0
 10
137.94935922547
 20
-225.8849680422994
 30
0.0
 10
137.94935922547
 20
-225.8849680422994
 30
0.0
 10
137.4603453761617
 20
-225.6933932765404
 30
0.0
 10
137.461638375751
 20
-225.0009245842248
 30
0.0
 10
137.9513642416348
 20
-224.8111773524244
 30
0.0
 10
137.9513642416348
 20
-224.8111773524244
 30
0.0
 10
141.3728034861673
 20
-223.455567107124
 30
0.0
 10
141.3728034861673
 20
-223.455567107124
 30
0.0
 10
141.7962649855823
 20
-223.2877872033847
 30
0.0
 10
142.2555349848479
 20
-223.599824800213
 30
0.0
 10
142.255534984828
 20
-224.0553132606442
 30
0.0
  0
SPLINE
  5
12F
330
FB
100
AcDbEntity
  8
Слой 1
 62
   250
420
  3947579
370
    25
100
AcDbSpline
210
0.0
220
0.0
230
1.0
 70
     9
 71
     3
 72
    29
 73
    25
 74
     0
 42
0.0000000001
 43
0.0000000001
 40
0.0
 40
0.0
 40
0.0
 40
0.0
 40
1.0
 40
1.0
 40
1.0
 40
2.0
 40
2.0
 40
2.0
 40
3.0
 40
3.0
 40
3.0
 40
4.0
 40
4.0
 40
4.0
 40
5.0
 40
5.0
 40
5.0
 40
6.0
 40
6.0
 40
6.0
 40
7.0
 40
7.0
 40
7.0
 40
8.0
 40
8.0
 40
8.0
 40
8.0
 10
108.0343459695585
 20
-206.3345856973286
 30
0.0
 10
108.0343459695585
 20
-206.3345856973286
 30
0.0
 10
104.7425880184299
 20
-207.6099867702728
 30
0.0
 10
104.7425880184299
 20
-207.6099867702728
 30
0.0
 10
104.2528601928132
 20
-207.7997332229331
 30
0.0
 10
104.2515671959159
 20
-208.4922046245483
 30
0.0
 10
104.7405830121428
 20
-208.6837786075429
 30
0.0
 10
104.7405830121428
 20
-208.6837786075429
 30
0.0
 10
108.0281776384064
 20
-209.9717074968055
 30
0.0
 10
108.0281776384064
 20
-209.9717074968055
 30
0.0
 10
108.4438679803719
 20
-210.1345559198219
 30
0.0
 10
108.9056987056554
 20
-210.1345552839405
 30
0.0
 10
109.3213885991759
 20
-209.9717057162196
 30
0.0
 10
109.3213885991759
 20
-209.9717057162196
 30
0.0
 10
112.6089535099779
 20
-208.6837780255976
 30
0.0
 10
112.6089535099779
 20
-208.6837780255976
 30
0.0
 10
113.0979673592946
 20
-208.4922032598604
 30
0.0
 10
113.0966743597355
 20
-207.7997345675448
 30
0.0
 10
112.6069484938613
 20
-207.609987335722
 30
0.0
 10
112.6069484938613
 20
-207.609987335722
 30
0.0
 10
109.3152202877977
 20
-206.3345874466477
 30
0.0
 10
109.3152202877977
 20
-206.3345874466477
 30
0.0
 10
108.9031856668914
 20
-206.1749421549039
 30
0.0
 10
108.4463810265257
 20
-206.1749415310352
 30
0.0
 10
108.0343459695585
 20
-206.3345856973286
 30
0.0
  0
SPLINE
  5
130
330
FB
100
AcDbEntity
  8
Слой 1
 62
   250
420
  3947579
370
    25
100
AcDbSpline
210
0.0
220
0.0
230
1.0
 70
     9
 71
     3
 72
    29
 73
    25
 74
     0
 42
0.0000000001
 43
0.0000000001
 40
0.0
 40
0.0
 40
0.0
 40
0.0
 40
1.0
 40
1.0
 40
1.0
 40
2.0
 40
2.0
 40
2.0
 40
3.0
 40
3.0
 40
3.0
 40
4.0
 40
4.0
 40
4.0
 40
5.0
 40
5.0
 40
5.0
 40
6.0
 40
6.0
 40
6.0
 40
7.0
 40
7.0
 40
7.0
 40
8.0
 40
8.0
 40
8.0
 40
8.0
 10
108.0343459695585
 20
-211.2734745849828
 30
0.0
 10
108.0343459695585
 20
-211.2734745849828
 30
0.0
 10
104.7425880184299
 20
-212.548875657927
 30
0.0
 10
104.7425880184299
 20
-212.548875657927
 30
0.0
 10
104.2528601928132
 20
-212.7386221105873
 30
0.0
 10
104.2515671959159
 20
-213.4310935122025
 30
0.0
 10
104.7405830121428
 20
-213.6226674951971
 30
0.0
 10
104.7405830121428
 20
-213.6226674951971
 30
0.0
 10
108.0281776384064
 20
-214.9105963844597
 30
0.0
 10
108.0281776384064
 20
-214.9105963844597
 30
0.0
 10
108.4438679803719
 20
-215.0734448074761
 30
0.0
 10
108.9056987056554
 20
-215.0734441715947
 30
0.0
 10
109.3213885991759
 20
-214.9105946038738
 30
0.0
 10
109.3213885991759
 20
-214.9105946038738
 30
0.0
 10
112.6089535099779
 20
-213.6226669132518
 30
0.0
 10
112.6089535099779
 20
-213.6226669132518
 30
0.0
 10
113.0979673592946
 20
-213.4310921475146
 30
0.0
 10
113.0966743597355
 20
-212.738623455199
 30
0.0
 10
112.6069484938613
 20
-212.5488762233761
 30
0.0
 10
112.6069484938613
 20
-212.5488762233761
 30
0.0
 10
109.3152202877977
 20
-211.2734763343018
 30
0.0
 10
109.3152202877977
 20
-211.2734763343018
 30
0.0
 10
108.9031856668914
 20
-211.1138310425581
 30
0.0
 10
108.4463810265257
 20
-211.1138304186893
 30
0.0
 10
108.0343459695585
 20
-211.2734745849828
 30
0.0
  0
SPLINE
  5
131
330
FB
100
AcDbEntity
  8
Слой 1
 62
   250
420
  3947579
370
    25
100
AcDbSpline
210
0.0
220
0.0
230
1.0
 70
     9
 71
     3
 72
    29
 73
    25
 74
     0
 42
0.0000000001
 43
0.0000000001
 40
0.0
 40
0.0
 40
0.0
 40
0.0
 40
1.0
 40
1.0
 40
1.0
 40
2.0
 40
2.0
 40
2.0
 40
3.0
 40
3.0
 40
3.0
 40
4.0
 40
4.0
 40
4.0
 40
5.0
 40
5.0
 40
5.0
 40
6.0
 40
6.0
 40
6.0
 40
7.0
 40
7.0
 40
7.0
 40
8.0
 40
8.0
 40
8.0
 40
8.0
 10
108.0343459695585
 20
-216.2123634726369
 30
0.0
 10
108.0343459695585
 20
-216.2123634726369
 30
0.0
 10
104.7425880184299
 20
-217.4877645455811
 30
0.0
 10
104.7425880184299
 20
-217.4877645455811
 30
0.0
 10
104.2528601928132
 20
-217.6775109982414
 30
0.0
 10
104.2515671959159
 20
-218.3699823998566
 30
0.0
 10
104.7405830121428
 20
-218.5615563828513
 30
0.0
 10
104.7405830121428
 20
-218.5615563828513
 30
0.0
 10
108.0281776384064
 20
-219.8494852721138
 30
0.0
 10
108.0281776384064
 20
-219.8494852721138
 30
0.0
 10
108.4438679803719
 20
-220.0123336951302
 30
0.0
 10
108.9056987056554
 20
-220.0123330592488
 30
0.0
 10
109.3213885991759
 20
-219.849483491528
 30
0.0
 10
109.3213885991759
 20
-219.849483491528
 30
0.0
 10
112.6089535099779
 20
-218.561555800906
 30
0.0
 10
112.6089535099779
 20
-218.561555800906
 30
0.0
 10
113.0979673592946
 20
-218.3699810351687
 30
0.0
 10
113.0966743597355
 20
-217.6775123428531
 30
0.0
 10
112.6069484938613
 20
-217.4877651110303
 30
0.0
 10
112.6069484938613
 20
-217.4877651110303
 30
0.0
 10
109.3152202877977
 20
-216.212365221956
 30
0.0
 10
109.3152202877977
 20
-216.212365221956
 30
0.0
 10
108.9031856668914
 20
-216.0527199302123
 30
0.0
 10
108.4463810265257
 20
-216.0527193063435
 30
0.0
 10
108.0343459695585
 20
-216.2123634726369
 30
0.0
  0
SPLINE
  5
132
330
FB
100
AcDbEntity
  8
Слой 1
 62
   250
420
  3947579
370
    25
100
AcDbSpline
210
0.0
220
0.0
230
1.0
 70
     9
 71
     3
 72
    29
 73
    25
 74
     0
 42
0.0000000001
 43
0.0000000001
 40
0.0
 40
0.0
 40
0.0
 40
0.0
 40
1.0
 40
1.0
 40
1.0
 40
2.0
 40
2.0
 40
2.0
 40
3.0
 40
3.0
 40
3.0
 40
4.0
 40
4.0
 40
4.0
 40
5.0
 40
5.0
 40
5.0
 40
6.0
 40
6.0
 40
6.0
 40
7.0
 40
7.0
 40
7.0
 40
8.0
 40
8.0
 40
8.0
 40
8.0
 10
108.0343459695585
 20
-221.1512523602911
 30
0.0
 10
108.0343459695585
 20
-221.1512523602911
 30
0.0
 10
104.7425880184299
 20
-222.4266534332353
 30
0.0
 10
104.7425880184299
 20
-222.4266534332353
 30
0.0
 10
104.2528601928132
 20
-222.6163998858956
 30
0.0
 10
104.2515671959159
 20
-223.3088712875108
 30
0.0
 10
104.7405830121428
 20
-223.5004452705055
 30
0.0
 10
104.7405830121428
 20
-223.5004452705055
 30
0.0
 10
108.0281776384064
 20
-224.788374159768
 30
0.0
 10
108.0281776384064
 20
-224.788374159768
 30
0.0
 10
108.4438679803719
 20
-224.9512225827844
 30
0.0
 10
108.9056987056554
 20
-224.951221946903
 30
0.0
 10
109.3213885991759
 20
-224.7883723791821
 30
0.0
 10
109.3213885991759
 20
-224.7883723791821
 30
0.0
 10
112.6089535099779
 20
-223.5004446885601
 30
0.0
 10
112.6089535099779
 20
-223.5004446885601
 30
0.0
 10
113.0979673592946
 20
-223.3088699228229
 30
0.0
 10
113.0966743597355
 20
-222.6164012305073
 30
0.0
 10
112.6069484938613
 20
-222.4266539986845
 30
0.0
 10
112.6069484938613
 20
-222.4266539986845
 30
0.0
 10
109.3152202877977
 20
-221.1512541096102
 30
0.0
 10
109.3152202877977
 20
-221.1512541096102
 30
0.0
 10
108.9031856668914
 20
-220.9916088178665
 30
0.0
 10
108.4463810265257
 20
-220.9916081939977
 30
0.0
 10
108.0343459695585
 20
-221.1512523602911
 30
0.0
  0
SPLINE
  5
133
330
FB
100
AcDbEntity
  8
Слой 1
 62
   250
420
  3947579
370
    25
100
AcDbSpline
210
0.0
220
0.0
230
1.0
 70
     9
 71
     3
 72
    29
 73
    25
 74
     0
 42
0.0000000001
 43
0.0000000001
 40
0.0
 40
0.0
 40
0.0
 40
0.0
 40
1.0
 40
1.0
 40
1.0
 40
2.0
 40
2.0
 40
2.0
 40
3.0
 40
3.0
 40
3.0
 40
4.0
 40
4.0
 40
4.0
 40
5.0
 40
5.0
 40
5.0
 40
6.0
 40
6.0
 40
6.0
 40
7.0
 40
7.0
 40
7.0
 40
8.0
 40
8.0
 40
8.0
 40
8.0
 10
94.77517983596783
 20
-206.3345856973279
 30
0.0
 10
94.77517983596783
 20
-206.3345856973279
 30
0.0
 10
91.48342188483919
 20
-207.6099867702722
 30
0.0
 10
91.48342188483919
 20
-207.6099867702722
 30
0.0
 10
90.99369405922255
 20
-207.7997332229325
 30
0.0
 10
90.99240106232551
 20
-208.4922046245476
 30
0.0
 10
91.48141687855213
 20
-208.6837786075423
 30
0.0
 10
91.48141687855213
 20
-208.6837786075423
 30
0.0
 10
94.76901150481575
 20
-209.9717074968048
 30
0.0
 10
94.76901150481575
 20
-209.9717074968048
 30
0.0
 10
95.1847018467812
 20
-210.1345559198213
 30
0.0
 10
95.64653257206469
 20
-210.1345552839399
 30
0.0
 10
96.06222246558518
 20
-209.971705716219
 30
0.0
 10
96.06222246558518
 20
-209.971705716219
 30
0.0
 10
99.34978737638722
 20
-208.683778025597
 30
0.0
 10
99.34978737638722
 20
-208.683778025597
 30
0.0
 10
99.83880122570392
 20
-208.4922032598598
 30
0.0
 10
99.83750822614481
 20
-207.7997345675441
 30
0.0
 10
99.3477823602706
 20
-207.6099873357213
 30
0.0
 10
99.3477823602706
 20
-207.6099873357213
 30
0.0
 10
96.05605415420736
 20
-206.334587446647
 30
0.0
 10
96.05605415420736
 20
-206.334587446647
 30
0.0
 10
95.64401953330072
 20
-206.1749421549033
 30
0.0
 10
95.18721489293497
 20
-206.1749415310345
 30
0.0
 10
94.77517983596783
 20
-206.3345856973279
 30
0.0
  0
SPLINE
  5
134
330
FB
100
AcDbEntity
  8
Слой 1
 62
   250
420
  3947579
370
    25
100
AcDbSpline
210
0.0
220
0.0
230
1.0
 70
     9
 71
     3
 72
    23
 73
    19
 74
     0
 42
0.0000000001
 43
0.0000000001
 40
0.0
 40
0.0
 40
0.0
 40
0.0
 40
1.0
 40
1.0
 40
1.0
 40
2.0
 40
2.0
 40
2.0
 40
3.0
 40
3.0
 40
3.0
 40
4.0
 40
4.0
 40
4.0
 40
5.0
 40
5.0
 40
5.0
 40
6.0
 40
6.0
 40
6.0
 40
6.0
 10
133.2344138519291
 20
-204.5423043494662
 30
0.0
 10
133.2344138519291
 20
-204.5423043494662
 30
0.0
 10
134.4865109651252
 20
-205.0328186091513
 30
0.0
 10
134.4865109651252
 20
-205.0328186091513
 30
0.0
 10
134.90220130709
 20
-205.1956670321677
 30
0.0
 10
135.3640320323741
 20
-205.1956663962857
 30
0.0
 10
135.7797219258946
 20
-205.0328168285655
 30
0.0
 10
135.7797219258946
 20
-205.0328168285655
 30
0.0
 10
137.0318061169995
 20
-204.5423036540833
 30
0.0
 10
137.0318061169995
 20
-204.5423036540833
 30
0.0
 10
137.7441175764575
 20
-204.2632504101548
 30
0.0
 10
137.5443042801162
 20
-203.2054206541419
 30
0.0
 10
136.779282497274
 20
-203.2054206541419
 30
0.0
 10
136.779282497274
 20
-203.2054206541419
 30
0.0
 10
133.4869356966123
 20
-203.2054206541419
 30
0.0
 10
133.4869356966123
 20
-203.2054206541419
 30
0.0
 10
132.7219128418068
 20
-203.2054206541419
 30
0.0
 10
132.5221006259263
 20
-204.2632526760499
 30
0.0
 10
133.2344138519291
 20
-204.5423043494662
 30
0.0
  0
SPLINE
  5
135
330
FB
100
AcDbEntity
  8
Слой 1
 62
   250
420
  3947579
370
    25
100
AcDbSpline
210
0.0
220
0.0
230
1.0
 70
     9
 71
     3
 72
    23
 73
    19
 74
     0
 42
0.0000000001
 43
0.0000000001
 40
0.0
 40
0.0
 40
0.0
 40
0.0
 40
1.0
 40
1.0
 40
1.0
 40
2.0
 40
2.0
 40
2.0
 40
3.0
 40
3.0
 40
3.0
 40
4.0
 40
4.0
 40
4.0
 40
5.0
 40
5.0
 40
5.0
 40
6.0
 40
6.0
 40
6.0
 40
6.0
 10
119.9752477183377
 20
-204.5423043494649
 30
0.0
 10
119.9752477183377
 20
-204.5423043494649
 30
0.0
 10
121.2273448315345
 20
-205.0328186091507
 30
0.0
 10
121.2273448315345
 20
-205.0328186091507
 30
0.0
 10
121.6430351734993
 20
-205.1956670321671
 30
0.0
 10
122.1048658987828
 20
-205.1956663962851
 30
0.0
 10
122.5205557923039
 20
-205.0328168285648
 30
0.0
 10
122.5205557923039
 20
-205.0328168285648
 30
0.0
 10
123.7726399834095
 20
-204.542303654082
 30
0.0
 10
123.7726399834095
 20
-204.542303654082
 30
0.0
 10
124.4849514428674
 20
-204.2632504101542
 30
0.0
 10
124.2851381465261
 20
-203.2054206541412
 30
0.0
 10
123.520116363684
 20
-203.2054206541412
 30
0.0
 10
123.520116363684
 20
-203.2054206541412
 30
0.0
 10
120.227769563021
 20
-203.2054206541406
 30
0.0
 10
120.227769563021
 20
-203.2054206541406
 30
0.0
 10
119.4627467082155
 20
-203.2054206541406
 30
0.0
 10
119.2629344923349
 20
-204.2632526760487
 30
0.0
 10
119.9752477183377
 20
-204.5423043494649
 30
0.0
  0
SPLINE
  5
136
330
FB
100
AcDbEntity
  8
Слой 1
 62
   250
420
  3947579
370
    25
100
AcDbSpline
210
0.0
220
0.0
230
1.0
 70
     9
 71
     3
 72
    23
 73
    19
 74
     0
 42
0.0000000001
 43
0.0000000001
 40
0.0
 40
0.0
 40
0.0
 40
0.0
 40
1.0
 40
1.0
 40
1.0
 40
2.0
 40
2.0
 40
2.0
 40
3.0
 40
3.0
 40
3.0
 40
4.0
 40
4.0
 40
4.0
 40
5.0
 40
5.0
 40
5.0
 40
6.0
 40
6.0
 40
6.0
 40
6.0
 10
106.7760805252103
 20
-204.5423043494662
 30
0.0
 10
106.7760805252103
 20
-204.5423043494662
 30
0.0
 10
108.0281776384064
 20
-205.0328186091513
 30
0.0
 10
108.0281776384064
 20
-205.0328186091513
 30
0.0
 10
108.4438679803713
 20
-205.1956670321677
 30
0.0
 10
108.9056987056554
 20
-205.1956663962857
 30
0.0
 10
109.3213885991759
 20
-205.0328168285655
 30
0.0
 10
109.3213885991759
 20
-205.0328168285655
 30
0.0
 10
110.5734727902808
 20
-204.5423036540833
 30
0.0
 10
110.5734727902808
 20
-204.5423036540833
 30
0.0
 10
111.2857842497387
 20
-204.2632504101548
 30
0.0
 10
111.0859709533974
 20
-203.2054206541419
 30
0.0
 10
110.3209491705553
 20
-203.2054206541419
 30
0.0
 10
110.3209491705553
 20
-203.2054206541419
 30
0.0
 10
107.0286023698942
 20
-203.2054206541419
 30
0.0
 10
107.0286023698942
 20
-203.2054206541419
 30
0.0
 10
106.2635795150881
 20
-203.2054206541419
 30
0.0
 10
106.0637672992075
 20
-204.2632526760499
 30
0.0
 10
106.7760805252103
 20
-204.5423043494662
 30
0.0
  0
SPLINE
  5
137
330
FB
100
AcDbEntity
  8
Слой 1
 62
   250
420
  3947579
370
    25
100
AcDbSpline
210
0.0
220
0.0
230
1.0
 70
     9
 71
     3
 72
    23
 73
    19
 74
     0
 42
0.0000000001
 43
0.0000000001
 40
0.0
 40
0.0
 40
0.0
 40
0.0
 40
1.0
 40
1.0
 40
1.0
 40
2.0
 40
2.0
 40
2.0
 40
3.0
 40
3.0
 40
3.0
 40
4.0
 40
4.0
 40
4.0
 40
5.0
 40
5.0
 40
5.0
 40
6.0
 40
6.0
 40
6.0
 40
6.0
 10
93.51691439161966
 20
-204.5423043494656
 30
0.0
 10
93.51691439161966
 20
-204.5423043494656
 30
0.0
 10
94.76901150481575
 20
-205.0328186091507
 30
0.0
 10
94.76901150481575
 20
-205.0328186091507
 30
0.0
 10
95.18470184678088
 20
-205.1956670321671
 30
0.0
 10
95.64653257206405
 20
-205.1956663962851
 30
0.0
 10
96.06222246558454
 20
-205.0328168285648
 30
0.0
 10
96.06222246558454
 20
-205.0328168285648
 30
0.0
 10
97.31430665668975
 20
-204.5423036540826
 30
0.0
 10
97.31430665668975
 20
-204.5423036540826
 30
0.0
 10
98.02661811614804
 20
-204.2632504101542
 30
0.0
 10
97.82680481980642
 20
-203.2054206541412
 30
0.0
 10
97.06178303696461
 20
-203.2054206541412
 30
0.0
 10
97.06178303696461
 20
-203.2054206541412
 30
0.0
 10
93.76943623630291
 20
-203.2054206541412
 30
0.0
 10
93.76943623630291
 20
-203.2054206541412
 30
0.0
 10
93.00441338149708
 20
-203.2054206541412
 30
0.0
 10
92.80460116561652
 20
-204.2632526760493
 30
0.0
 10
93.51691439161966
 20
-204.5423043494656
 30
0.0
  0
SPLINE
  5
138
330
FB
100
AcDbEntity
  8
Слой 1
 62
   250
420
  3947579
370
    25
100
AcDbSpline
210
0.0
220
0.0
230
1.0
 70
     9
 71
     3
 72
    23
 73
    19
 74
     0
 42
0.0000000001
 43
0.0000000001
 40
0.0
 40
0.0
 40
0.0
 40
0.0
 40
1.0
 40
1.0
 40
1.0
 40
2.0
 40
2.0
 40
2.0
 40
3.0
 40
3.0
 40
3.0
 40
4.0
 40
4.0
 40
4.0
 40
5.0
 40
5.0
 40
5.0
 40
6.0
 40
6.0
 40
6.0
 40
6.0
 10
133.2344138519291
 20
-226.3958485421943
 30
0.0
 10
133.2344138519291
 20
-226.3958485421943
 30
0.0
 10
134.4865109651252
 20
-225.9053342825092
 30
0.0
 10
134.4865109651252
 20
-225.9053342825092
 30
0.0
 10
134.90220130709
 20
-225.7424858594928
 30
0.0
 10
135.3640320323741
 20
-225.7424864953748
 30
0.0
 10
135.7797219258946
 20
-225.9053360630951
 30
0.0
 10
135.7797219258946
 20
-225.9053360630951
 30
0.0
 10
137.0318061169995
 20
-226.3958492375772
 30
0.0
 10
137.0318061169995
 20
-226.3958492375772
 30
0.0
 10
137.7441175764575
 20
-226.6749024815057
 30
0.0
 10
137.5443042801162
 20
-227.7327322375186
 30
0.0
 10
136.779282497274
 20
-227.7327322375186
 30
0.0
 10
136.779282497274
 20
-227.7327322375186
 30
0.0
 10
133.4869356966123
 20
-227.7327322375186
 30
0.0
 10
133.4869356966123
 20
-227.7327322375186
 30
0.0
 10
132.7219128418068
 20
-227.7327322375186
 30
0.0
 10
132.5221006259263
 20
-226.6749002156106
 30
0.0
 10
133.2344138519291
 20
-226.3958485421943
 30
0.0
  0
SPLINE
  5
139
330
FB
100
AcDbEntity
  8
Слой 1
 62
   250
420
  3947579
370
    25
100
AcDbSpline
210
0.0
220
0.0
230
1.0
 70
     9
 71
     3
 72
    23
 73
    19
 74
     0
 42
0.0000000001
 43
0.0000000001
 40
0.0
 40
0.0
 40
0.0
 40
0.0
 40
1.0
 40
1.0
 40
1.0
 40
2.0
 40
2.0
 40
2.0
 40
3.0
 40
3.0
 40
3.0
 40
4.0
 40
4.0
 40
4.0
 40
5.0
 40
5.0
 40
5.0
 40
6.0
 40
6.0
 40
6.0
 40
6.0
 10
126.5316278241478
 20
-224.0222293270258
 30
0.0
 10
126.5316278241478
 20
-224.0222293270258
 30
0.0
 10
127.7837249373446
 20
-223.5317150673401
 30
0.0
 10
127.7837249373446
 20
-223.5317150673401
 30
0.0
 10
128.1994152793094
 20
-223.3688666443237
 30
0.0
 10
128.6612460045929
 20
-223.3688672802057
 30
0.0
 10
129.076935898114
 20
-223.531716847926
 30
0.0
 10
129.076935898114
 20
-223.531716847926
 30
0.0
 10
130.3290200892195
 20
-224.0222300224088
 30
0.0
 10
130.3290200892195
 20
-224.0222300224088
 30
0.0
 10
131.0413315486775
 20
-224.3012832663366
 30
0.0
 10
130.8415182523362
 20
-225.3591130223495
 30
0.0
 10
130.0764964694941
 20
-225.3591130223495
 30
0.0
 10
130.0764964694941
 20
-225.3591130223495
 30
0.0
 10
126.7841496688311
 20
-225.3591130223501
 30
0.0
 10
126.7841496688311
 20
-225.3591130223501
 30
0.0
 10
126.0191268140256
 20
-225.3591130223501
 30
0.0
 10
125.819314598145
 20
-224.3012810004421
 30
0.0
 10
126.5316278241478
 20
-224.0222293270258
 30
0.0
  0
SPLINE
  5
13A
330
FB
100
AcDbEntity
  8
Слой 1
 62
   250
420
  3947579
370
    25
100
AcDbSpline
210
0.0
220
0.0
230
1.0
 70
     9
 71
     3
 72
    23
 73
    19
 74
     0
 42
0.0000000001
 43
0.0000000001
 40
0.0
 40
0.0
 40
0.0
 40
0.0
 40
1.0
 40
1.0
 40
1.0
 40
2.0
 40
2.0
 40
2.0
 40
3.0
 40
3.0
 40
3.0
 40
4.0
 40
4.0
 40
4.0
 40
5.0
 40
5.0
 40
5.0
 40
6.0
 40
6.0
 40
6.0
 40
6.0
 10
106.7760805252103
 20
-226.3958485421943
 30
0.0
 10
106.7760805252103
 20
-226.3958485421943
 30
0.0
 10
108.0281776384064
 20
-225.9053342825092
 30
0.0
 10
108.0281776384064
 20
-225.9053342825092
 30
0.0
 10
108.4438679803713
 20
-225.7424858594928
 30
0.0
 10
108.9056987056554
 20
-225.7424864953748
 30
0.0
 10
109.3213885991759
 20
-225.9053360630951
 30
0.0
 10
109.3213885991759
 20
-225.9053360630951
 30
0.0
 10
110.5734727902808
 20
-226.3958492375772
 30
0.0
 10
110.5734727902808
 20
-226.3958492375772
 30
0.0
 10
111.2857842497387
 20
-226.6749024815057
 30
0.0
 10
111.0859709533974
 20
-227.7327322375186
 30
0.0
 10
110.3209491705553
 20
-227.7327322375186
 30
0.0
 10
110.3209491705553
 20
-227.7327322375186
 30
0.0
 10
107.0286023698942
 20
-227.7327322375186
 30
0.0
 10
107.0286023698942
 20
-227.7327322375186
 30
0.0
 10
106.2635795150881
 20
-227.7327322375186
 30
0.0
 10
106.0637672992075
 20
-226.6749002156106
 30
0.0
 10
106.7760805252103
 20
-226.3958485421943
 30
0.0
  0
SPLINE
  5
13B
330
FB
100
AcDbEntity
  8
Слой 1
 62
   250
420
  3947579
370
    25
100
AcDbSpline
210
0.0
220
0.0
230
1.0
 70
     9
 71
     3
 72
    23
 73
    19
 74
     0
 42
0.0000000001
 43
0.0000000001
 40
0.0
 40
0.0
 40
0.0
 40
0.0
 40
1.0
 40
1.0
 40
1.0
 40
2.0
 40
2.0
 40
2.0
 40
3.0
 40
3.0
 40
3.0
 40
4.0
 40
4.0
 40
4.0
 40
5.0
 40
5.0
 40
5.0
 40
6.0
 40
6.0
 40
6.0
 40
6.0
 10
93.51691439161966
 20
-226.3958485421949
 30
0.0
 10
93.51691439161966
 20
-226.3958485421949
 30
0.0
 10
94.76901150481575
 20
-225.9053342825098
 30
0.0
 10
94.76901150481575
 20
-225.9053342825098
 30
0.0
 10
95.18470184678088
 20
-225.7424858594934
 30
0.0
 10
95.64653257206405
 20
-225.7424864953755
 30
0.0
 10
96.06222246558454
 20
-225.9053360630957
 30
0.0
 10
96.06222246558454
 20
-225.9053360630957
 30
0.0
 10
97.31430665668975
 20
-226.3958492375779
 30
0.0
 10
97.31430665668975
 20
-226.3958492375779
 30
0.0
 10
98.02661811614804
 20
-226.6749024815064
 30
0.0
 10
97.82680481980642
 20
-227.7327322375192
 30
0.0
 10
97.06178303696461
 20
-227.7327322375192
 30
0.0
 10
97.06178303696461
 20
-227.7327322375192
 30
0.0
 10
93.76943623630291
 20
-227.7327322375192
 30
0.0
 10
93.76943623630291
 20
-227.7327322375192
 30
0.0
 10
93.00441338149708
 20
-227.7327322375192
 30
0.0
 10
92.80460116561652
 20
-226.6749002156112
 30
0.0
 10
93.51691439161966
 20
-226.3958485421949
 30
0.0
  0
SPLINE
  5
13C
330
FB
100
AcDbEntity
  8
Слой 1
 62
   250
420
  3947579
370
    25
100
AcDbSpline
210
0.0
220
0.0
230
1.0
 70
     9
 71
     3
 72
    29
 73
    25
 74
     0
 42
0.0000000001
 43
0.0000000001
 40
0.0
 40
0.0
 40
0.0
 40
0.0
 40
1.0
 40
1.0
 40
1.0
 40
2.0
 40
2.0
 40
2.0
 40
3.0
 40
3.0
 40
3.0
 40
4.0
 40
4.0
 40
4.0
 40
5.0
 40
5.0
 40
5.0
 40
6.0
 40
6.0
 40
6.0
 40
7.0
 40
7.0
 40
7.0
 40
8.0
 40
8.0
 40
8.0
 40
8.0
 10
94.77517983596783
 20
-211.2734745849821
 30
0.0
 10
94.77517983596783
 20
-211.2734745849821
 30
0.0
 10
91.48342188483919
 20
-212.5488756579263
 30
0.0
 10
91.48342188483919
 20
-212.5488756579263
 30
0.0
 10
90.99369405922255
 20
-212.7386221105866
 30
0.0
 10
90.99240106232551
 20
-213.4310935122018
 30
0.0
 10
91.48141687855213
 20
-213.6226674951965
 30
0.0
 10
91.48141687855213
 20
-213.6226674951965
 30
0.0
 10
94.76901150481575
 20
-214.910596384459
 30
0.0
 10
94.76901150481575
 20
-214.910596384459
 30
0.0
 10
95.1847018467812
 20
-215.0734448074754
 30
0.0
 10
95.64653257206469
 20
-215.0734441715941
 30
0.0
 10
96.06222246558518
 20
-214.9105946038732
 30
0.0
 10
96.06222246558518
 20
-214.9105946038732
 30
0.0
 10
99.34978737638722
 20
-213.6226669132511
 30
0.0
 10
99.34978737638722
 20
-213.6226669132511
 30
0.0
 10
99.83880122570392
 20
-213.4310921475139
 30
0.0
 10
99.83750822614481
 20
-212.7386234551984
 30
0.0
 10
99.3477823602706
 20
-212.5488762233755
 30
0.0
 10
99.3477823602706
 20
-212.5488762233755
 30
0.0
 10
96.05605415420736
 20
-211.2734763343012
 30
0.0
 10
96.05605415420736
 20
-211.2734763343012
 30
0.0
 10
95.64401953330072
 20
-211.1138310425575
 30
0.0
 10
95.18721489293497
 20
-211.1138304186887
 30
0.0
 10
94.77517983596783
 20
-211.2734745849821
 30
0.0
  0
SPLINE
  5
13D
330
FB
100
AcDbEntity
  8
Слой 1
 62
   250
420
  3947579
370
    25
100
AcDbSpline
210
0.0
220
0.0
230
1.0
 70
     9
 71
     3
 72
    29
 73
    25
 74
     0
 42
0.0000000001
 43
0.0000000001
 40
0.0
 40
0.0
 40
0.0
 40
0.0
 40
1.0
 40
1.0
 40
1.0
 40
2.0
 40
2.0
 40
2.0
 40
3.0
 40
3.0
 40
3.0
 40
4.0
 40
4.0
 40
4.0
 40
5.0
 40
5.0
 40
5.0
 40
6.0
 40
6.0
 40
6.0
 40
7.0
 40
7.0
 40
7.0
 40
8.0
 40
8.0
 40
8.0
 40
8.0
 10
94.77517983596783
 20
-216.2123634726363
 30
0.0
 10
94.77517983596783
 20
-216.2123634726363
 30
0.0
 10
91.48342188483919
 20
-217.4877645455805
 30
0.0
 10
91.48342188483919
 20
-217.4877645455805
 30
0.0
 10
90.99369405922255
 20
-217.6775109982408
 30
0.0
 10
90.99240106232551
 20
-218.369982399856
 30
0.0
 10
91.48141687855213
 20
-218.5615563828506
 30
0.0
 10
91.48141687855213
 20
-218.5615563828506
 30
0.0
 10
94.76901150481575
 20
-219.8494852721132
 30
0.0
 10
94.76901150481575
 20
-219.8494852721132
 30
0.0
 10
95.1847018467812
 20
-220.0123336951296
 30
0.0
 10
95.64653257206469
 20
-220.0123330592482
 30
0.0
 10
96.06222246558518
 20
-219.8494834915273
 30
0.0
 10
96.06222246558518
 20
-219.8494834915273
 30
0.0
 10
99.34978737638722
 20
-218.5615558009053
 30
0.0
 10
99.34978737638722
 20
-218.5615558009053
 30
0.0
 10
99.83880122570392
 20
-218.3699810351681
 30
0.0
 10
99.83750822614481
 20
-217.6775123428525
 30
0.0
 10
99.3477823602706
 20
-217.4877651110297
 30
0.0
 10
99.3477823602706
 20
-217.4877651110297
 30
0.0
 10
96.05605415420736
 20
-216.2123652219554
 30
0.0
 10
96.05605415420736
 20
-216.2123652219554
 30
0.0
 10
95.64401953330072
 20
-216.0527199302117
 30
0.0
 10
95.18721489293497
 20
-216.0527193063428
 30
0.0
 10
94.77517983596783
 20
-216.2123634726363
 30
0.0
  0
SPLINE
  5
13E
330
FB
100
AcDbEntity
  8
Слой 1
 62
   250
420
  3947579
370
    25
100
AcDbSpline
210
0.0
220
0.0
230
1.0
 70
     9
 71
     3
 72
    29
 73
    25
 74
     0
 42
0.0000000001
 43
0.0000000001
 40
0.0
 40
0.0
 40
0.0
 40
0.0
 40
1.0
 40
1.0
 40
1.0
 40
2.0
 40
2.0
 40
2.0
 40
3.0
 40
3.0
 40
3.0
 40
4.0
 40
4.0
 40
4.0
 40
5.0
 40
5.0
 40
5.0
 40
6.0
 40
6.0
 40
6.0
 40
7.0
 40
7.0
 40
7.0
 40
8.0
 40
8.0
 40
8.0
 40
8.0
 10
94.77517983596783
 20
-221.1512523602905
 30
0.0
 10
94.77517983596783
 20
-221.1512523602905
 30
0.0
 10
91.48342188483919
 20
-222.4266534332347
 30
0.0
 10
91.48342188483919
 20
-222.4266534332347
 30
0.0
 10
90.99369405922255
 20
-222.616399885895
 30
0.0
 10
90.99240106232551
 20
-223.3088712875102
 30
0.0
 10
91.48141687855213
 20
-223.5004452705048
 30
0.0
 10
91.48141687855213
 20
-223.5004452705048
 30
0.0
 10
94.76901150481575
 20
-224.7883741597674
 30
0.0
 10
94.76901150481575
 20
-224.7883741597674
 30
0.0
 10
95.1847018467812
 20
-224.9512225827838
 30
0.0
 10
95.64653257206469
 20
-224.9512219469024
 30
0.0
 10
96.06222246558518
 20
-224.7883723791815
 30
0.0
 10
96.06222246558518
 20
-224.7883723791815
 30
0.0
 10
99.34978737638722
 20
-223.5004446885595
 30
0.0
 10
99.34978737638722
 20
-223.5004446885595
 30
0.0
 10
99.83880122570392
 20
-223.3088699228223
 30
0.0
 10
99.83750822614481
 20
-222.6164012305066
 30
0.0
 10
99.3477823602706
 20
-222.4266539986838
 30
0.0
 10
99.3477823602706
 20
-222.4266539986838
 30
0.0
 10
96.05605415420736
 20
-221.1512541096095
 30
0.0
 10
96.05605415420736
 20
-221.1512541096095
 30
0.0
 10
95.64401953330072
 20
-220.9916088178658
 30
0.0
 10
95.18721489293497
 20
-220.991608193997
 30
0.0
 10
94.77517983596783
 20
-221.1512523602905
 30
0.0
  0
LWPOLYLINE
  5
13F
330
FB
100
AcDbEntity
  8
Слой 1
 62
   250
420
  3947579
370
    25
100
AcDbPolyline
 90
        8
 70
     0
 43
0.0
 10
123.7074073764803
 20
-229.5407406833553
 10
123.7074073764803
 20
-229.0409721649613
 10
124.2132108450508
 20
-229.0409721649613
 10
124.2132108450508
 20
-227.7327322375186
 10
130.8328889344666
 20
-227.7327322375186
 10
130.8328889344666
 20
-229.1585647575248
 10
131.262731448666
 20
-229.1585647575248
 10
131.262731448666
 20
-229.5407406833553
  0
LWPOLYLINE
  5
140
330
FB
100
AcDbEntity
  8
Слой 1
 62
   250
420
  3947579
370
    25
100
AcDbPolyline
 90
        4
 70
     0
 43
0.0
 10
124.7510416354789
 20
-227.8209490171186
 10
124.7510416354789
 20
-228.320717535512
 10
130.3366897822308
 20
-228.320717535512
 10
130.3366897822308
 20
-227.7327322375186
  0
ENDBLK
  5
FE
330
FB
100
AcDbEntity
  8
0
100
AcDbBlockEnd
  0
BLOCK
  5
144
330
142
100
AcDbEntity
  8
0
100
AcDbBlockBegin
  2
Block_8
 70
     0
 10
0.0
 20
0.0
 30
0.0
  3
Block_8
  1

  0
INSERT
  5
147
330
142
100
AcDbEntity
  8
Слой 2
100
AcDbBlockReference
  2
Block_9
 10
0.0
 20
0.0
 30
0.0
  0
ENDBLK
  5
145
330
142
100
AcDbEntity
  8
0
100
AcDbBlockEnd
  0
BLOCK
  5
148
330
146
100
AcDbEntity
  8
0
100
AcDbBlockBegin
  2
Block_9
 70
     0
 10
0.0
 20
0.0
 30
0.0
  3
Block_9
  1

  0
INSERT
  5
14B
330
146
100
AcDbEntity
  8
Слой 2
100
AcDbBlockReference
  2
Block_10
 10
0.0
 20
0.0
 30
0.0
  0
ENDBLK
  5
149
330
146
100
AcDbEntity
  8
0
100
AcDbBlockEnd
  0
BLOCK
  5
14C
330
14A
100
AcDbEntity
  8
0
100
AcDbBlockBegin
  2
Block_10
 70
     0
 10
0.0
 20
0.0
 30
0.0
  3
Block_10
  1

  0
SPLINE
  5
14E
330
14A
100
AcDbEntity
  8
Слой 2
100
AcDbSpline
210
0.0
220
0.0
230
1.0
 70
     9
 71
     3
 72
    26
 73
    22
 74
     0
 42
0.0000000001
 43
0.0000000001
 40
0.0
 40
0.0
 40
0.0
 40
0.0
 40
1.0
 40
1.0
 40
1.0
 40
2.0
 40
2.0
 40
2.0
 40
3.0
 40
3.0
 40
3.0
 40
4.0
 40
4.0
 40
4.0
 40
5.0
 40
5.0
 40
5.0
 40
6.0
 40
6.0
 40
6.0
 40
7.0
 40
7.0
 40
7.0
 40
7.0
 10
180.2682137402014
 20
-71.66176649527891
 30
0.0
 10
180.091531519365
 20
-71.46628581436755
 30
0.0
 10
179.7654326127627
 20
-71.35376693246856
 30
0.0
 10
179.3750926876373
 20
-71.35376693246856
 30
0.0
 10
179.1923902988023
 20
-71.35376693246856
 30
0.0
 10
179.0029297858902
 20
-71.38021683187223
 30
0.0
 10
178.8270243609253
 20
-71.43004828699033
 30
0.0
 10
178.5718857571296
 20
-71.50174654587428
 30
0.0
 10
177.9664510553526
 20
-71.73579514177564
 30
0.0
 10
177.8509026695561
 20
-72.35179426739698
 30
0.0
 10
177.7852634184661
 20
-72.70282832145531
 30
0.0
 10
177.9943768669108
 20
-72.97459035688844
 30
0.0
 10
178.4254208956721
 20
-73.09841161870956
 30
0.0
 10
178.5681182971566
 20
-73.13915456213847
 30
0.0
 10
178.7349352104307
 20
-73.1618370015682
 30
0.0
 10
178.910840635395
 20
-73.1618370015682
 30
0.0
 10
179.4747555978735
 20
-73.1618370015682
 30
0.0
 10
180.1285070028196
 20
-72.93233266151192
 30
0.0
 10
180.3527679707487
 20
-72.36313548711216
 30
0.0
 10
180.4901054807223
 20
-72.01283938913127
 30
0.0
 10
180.382946490332
 20
-71.78861726099684
 30
0.0
 10
180.2682137402014
 20
-71.66176649527891
 30
0.0
  0
HATCH
  5
14F
330
14A
100
AcDbEntity
  8
Слой 2
 62
   254
420
 13421772
440
 33554687
100
AcDbHatch
 10
0.0
 20
0.0
 30
0.0
210
0.0
220
0.0
230
1.0
  2
SOLID
 70
     1
 71
     1
 91
        1
 92
        1
 93
        2
 72
     4
 94
        3
 73
     0
 74
     0
 95
       26
 96
       22
 40
0.0
 40
0.0
 40
0.0
 40
0.0
 40
1.0
 40
1.0
 40
1.0
 40
2.0
 40
2.0
 40
2.0
 40
3.0
 40
3.0
 40
3.0
 40
4.0
 40
4.0
 40
4.0
 40
5.0
 40
5.0
 40
5.0
 40
6.0
 40
6.0
 40
6.0
 40
7.0
 40
7.0
 40
7.0
 40
7.0
 10
180.2682137402014
 20
-71.66176649527891
 10
180.091531519365
 20
-71.46628581436755
 10
179.7654326127627
 20
-71.35376693246856
 10
179.3750926876373
 20
-71.35376693246856
 10
179.1923902988023
 20
-71.35376693246856
 10
179.0029297858902
 20
-71.38021683187223
 10
178.8270243609253
 20
-71.43004828699033
 10
178.5718857571296
 20
-71.50174654587428
 10
177.9664510553526
 20
-71.73579514177564
 10
177.8509026695561
 20
-72.35179426739698
 10
177.7852634184661
 20
-72.70282832145531
 10
177.9943768669108
 20
-72.97459035688844
 10
178.4254208956721
 20
-73.09841161870956
 10
178.5681182971566
 20
-73.13915456213847
 10
178.7349352104307
 20
-73.1618370015682
 10
178.910840635395
 20
-73.1618370015682
 10
179.4747555978735
 20
-73.1618370015682
 10
180.1285070028196
 20
-72.93233266151192
 10
180.3527679707487
 20
-72.36313548711216
 10
180.4901054807223
 20
-72.01283938913127
 10
180.382946490332
 20
-71.78861726099684
 10
180.2682137402014
 20
-71.66176649527891
 97
        0
 72
     1
 10
180.2682137402014
 20
-71.66176649527891
 11
180.2682137402014
 21
-71.66176649527891
 97
        0
 75
     2
 76
     1
 98
        1
 10
0.0
 20
0.0
450
        0
451
        0
460
0.0
461
0.0
452
        0
462
0.0
453
        0
470

  0
SPLINE
  5
150
330
14A
100
AcDbEntity
  8
Слой 2
100
AcDbSpline
210
0.0
220
0.0
230
1.0
 70
     9
 71
     3
 72
    98
 73
    94
 74
     0
 42
0.0000000001
 43
0.0000000001
 40
0.0
 40
0.0
 40
0.0
 40
0.0
 40
1.0
 40
1.0
 40
1.0
 40
2.0
 40
2.0
 40
2.0
 40
3.0
 40
3.0
 40
3.0
 40
4.0
 40
4.0
 40
4.0
 40
5.0
 40
5.0
 40
5.0
 40
6.0
 40
6.0
 40
6.0
 40
7.0
 40
7.0
 40
7.0
 40
8.0
 40
8.0
 40
8.0
 40
9.0
 40
9.0
 40
9.0
 40
10.0
 40
10.0
 40
10.0
 40
11.0
 40
11.0
 40
11.0
 40
12.0
 40
12.0
 40
12.0
 40
13.0
 40
13.0
 40
13.0
 40
14.0
 40
14.0
 40
14.0
 40
15.0
 40
15.0
 40
15.0
 40
16.0
 40
16.0
 40
16.0
 40
17.0
 40
17.0
 40
17.0
 40
18.0
 40
18.0
 40
18.0
 40
19.0
 40
19.0
 40
19.0
 40
20.0
 40
20.0
 40
20.0
 40
21.0
 40
21.0
 40
21.0
 40
22.0
 40
22.0
 40
22.0
 40
23.0
 40
23.0
 40
23.0
 40
24.0
 40
24.0
 40
24.0
 40
25.0
 40
25.0
 40
25.0
 40
26.0
 40
26.0
 40
26.0
 40
27.0
 40
27.0
 40
27.0
 40
28.0
 40
28.0
 40
28.0
 40
29.0
 40
29.0
 40
29.0
 40
30.0
 40
30.0
 40
30.0
 40
31.0
 40
31.0
 40
31.0
 40
31.0
 10
173.0090563266681
 20
-73.19706469431401
 30
0.0
 10
172.9071407084062
 20
-73.13290135537761
 30
0.0
 10
172.7274678234677
 20
-73.07402022836339
 30
0.0
 10
172.4904285634629
 20
-73.02648032106532
 30
0.0
 10
172.4904285634629
 20
-73.02648032106532
 30
0.0
 10
172.4783493876699
 20
-73.02418877324561
 30
0.0
 10
172.4783493876699
 20
-73.02418877324561
 30
0.0
 10
172.4383055605257
 20
-73.01587705742694
 30
0.0
 10
172.3952710692781
 20
-73.00834213747906
 30
0.0
 10
172.3499838700047
 20
-73.00080721753214
 30
0.0
 10
172.3499838700047
 20
-73.00080721753214
 30
0.0
 10
172.3145231384986
 20
-72.99548616581595
 30
0.0
 10
172.3145231384986
 20
-72.99548616581595
 30
0.0
 10
172.279800363069
 20
-72.99020395389375
 30
0.0
 10
172.2443396315629
 20
-72.98418378589413
 30
0.0
 10
172.2065485124444
 20
-72.97890157397226
 30
0.0
 10
172.2065485124444
 20
-72.97890157397226
 30
0.0
 10
171.3897476541958
 20
-72.9124855270105
 30
0.0
 10
171.3897476541958
 20
-72.9124855270105
 30
0.0
 10
171.341430951026
 20
-72.91019397919176
 30
0.0
 10
171.2900847439596
 20
-72.90945602311431
 30
0.0
 10
171.2387385368926
 20
-72.90794127116575
 30
0.0
 10
171.2387385368926
 20
-72.90794127116575
 30
0.0
 10
171.1624960221652
 20
-72.90642651921782
 30
0.0
 10
171.1624960221652
 20
-72.90642651921782
 30
0.0
 10
171.004728780785
 20
-72.90339701532101
 30
0.0
 10
170.8325908157943
 20
-72.90339701532101
 30
0.0
 10
170.6642591505716
 20
-72.90642651921782
 30
0.0
 10
170.6642591505716
 20
-72.90642651921782
 30
0.0
 10
170.5962895118679
 20
-72.90794127116575
 30
0.0
 10
170.5962895118679
 20
-72.90794127116575
 30
0.0
 10
170.5261448447266
 20
-72.90945602311431
 30
0.0
 10
170.4559224979965
 20
-72.91170873114001
 30
0.0
 10
170.3728830193977
 20
-72.9147382350365
 30
0.0
 10
170.3728830193977
 20
-72.9147382350365
 30
0.0
 10
170.3434424558909
 20
-72.9154761911133
 30
0.0
 10
170.3434424558909
 20
-72.9154761911133
 30
0.0
 10
170.2596261814213
 20
-72.91928249088126
 30
0.0
 10
170.1765867028225
 20
-72.92378790693295
 30
0.0
 10
170.0942851803008
 20
-72.92833216277802
 30
0.0
 10
170.0942851803008
 20
-72.92833216277802
 30
0.0
 10
170.0512506890525
 20
-72.93132282688017
 30
0.0
 10
170.0512506890525
 20
-72.93132282688017
 30
0.0
 10
169.9795524301695
 20
-72.93586708272461
 30
0.0
 10
169.9093300834401
 20
-72.94037249877533
 30
0.0
 10
169.826329444635
 20
-72.94716946264641
 30
0.0
 10
169.826329444635
 20
-72.94716946264641
 30
0.0
 10
169.7968888811282
 20
-72.9494610104658
 30
0.0
 10
169.7968888811282
 20
-72.9494610104658
 30
0.0
 10
169.6315090402133
 20
-72.96305493820603
 30
0.0
 10
169.4722270468858
 20
-72.97963953004938
 30
0.0
 10
169.3212567693776
 20
-72.99855450950613
 30
0.0
 10
169.3212567693776
 20
-72.99855450950613
 30
0.0
 10
169.2948068699729
 20
-73.00154517360862
 30
0.0
 10
169.2948068699729
 20
-73.00154517360862
 30
0.0
 10
169.1385543805426
 20
-73.02193606522057
 30
0.0
 10
168.991351563008
 20
-73.04384170877948
 30
0.0
 10
168.8524216214977
 20
-73.06873801644184
 30
0.0
 10
168.6101001495708
 20
-73.11251046376662
 30
0.0
 10
168.4070457089185
 20
-73.16234191888407
 30
0.0
 10
168.2485016716694
 20
-73.21594083397674
 30
0.0
 10
168.0884817222641
 20
-73.27031654493928
 30
0.0
 10
167.9616309565461
 20
-73.39184625894164
 30
0.0
 10
167.9020118734542
 20
-73.55039029619108
 30
0.0
 10
167.9020118734542
 20
-73.55039029619108
 30
0.0
 10
166.5590094922607
 20
-77.1060568758421
 30
0.0
 10
166.5590094922607
 20
-77.1060568758421
 30
0.0
 10
166.5590094922607
 20
-77.1060568758421
 30
0.0
 10
168.84566349742
 20
-77.1060568758421
 30
0.0
 10
168.84566349742
 20
-77.1060568758421
 30
0.0
 10
168.84566349742
 20
-77.1060568758421
 30
0.0
 10
169.5462168535895
 20
-75.23992131539213
 30
0.0
 10
169.5462168535895
 20
-75.23992131539213
 30
0.0
 10
169.6715528673588
 20
-74.90923931315172
 30
0.0
 10
169.9621910424544
 20
-74.31359223934797
 30
0.0
 10
170.5027244492185
 20
-74.03957749588883
 30
0.0
 10
170.9903968969676
 20
-73.83046404744323
 30
0.0
 10
171.3255454754657
 20
-73.74893932079266
 30
0.0
 10
171.6992619689544
 20
-73.74893932079266
 30
0.0
 10
171.894004693788
 20
-73.74893932079266
 30
0.0
 10
172.1023801861568
 20
-73.77158292042932
 30
0.0
 10
172.3560428777984
 20
-73.81989962359885
 30
0.0
 10
172.400592120994
 20
-73.82821133941753
 30
0.0
 10
172.5402600185813
 20
-73.87198378674263
 30
0.0
 10
172.6701014484021
 20
-73.94896425754845
 30
0.0
 10
172.6701014484021
 20
-73.94896425754845
 30
0.0
 10
172.7984281262742
 20
-74.01615710038135
 30
0.0
 10
172.7984281262742
 20
-74.01615710038135
 30
0.0
 10
172.7984281262742
 20
-74.01615710038135
 30
0.0
 10
173.0950864693703
 20
-73.25066360940539
 30
0.0
 10
173.0950864693703
 20
-73.25066360940539
 30
0.0
 10
173.0950864693703
 20
-73.25066360940539
 30
0.0
 10
173.0090563266681
 20
-73.19706469431401
 30
0.0
 10
173.0090563266681
 20
-73.19706469431401
 30
0.0
  0
HATCH
  5
151
330
14A
100
AcDbEntity
  8
Слой 2
 62
   254
420
 13421772
440
 33554687
100
AcDbHatch
 10
0.0
 20
0.0
 30
0.0
210
0.0
220
0.0
230
1.0
  2
SOLID
 70
     1
 71
     1
 91
        1
 92
        1
 93
        1
 72
     4
 94
        3
 73
     0
 74
     0
 95
       98
 96
       94
 40
0.0
 40
0.0
 40
0.0
 40
0.0
 40
1.0
 40
1.0
 40
1.0
 40
2.0
 40
2.0
 40
2.0
 40
3.0
 40
3.0
 40
3.0
 40
4.0
 40
4.0
 40
4.0
 40
5.0
 40
5.0
 40
5.0
 40
6.0
 40
6.0
 40
6.0
 40
7.0
 40
7.0
 40
7.0
 40
8.0
 40
8.0
 40
8.0
 40
9.0
 40
9.0
 40
9.0
 40
10.0
 40
10.0
 40
10.0
 40
11.0
 40
11.0
 40
11.0
 40
12.0
 40
12.0
 40
12.0
 40
13.0
 40
13.0
 40
13.0
 40
14.0
 40
14.0
 40
14.0
 40
15.0
 40
15.0
 40
15.0
 40
16.0
 40
16.0
 40
16.0
 40
17.0
 40
17.0
 40
17.0
 40
18.0
 40
18.0
 40
18.0
 40
19.0
 40
19.0
 40
19.0
 40
20.0
 40
20.0
 40
20.0
 40
21.0
 40
21.0
 40
21.0
 40
22.0
 40
22.0
 40
22.0
 40
23.0
 40
23.0
 40
23.0
 40
24.0
 40
24.0
 40
24.0
 40
25.0
 40
25.0
 40
25.0
 40
26.0
 40
26.0
 40
26.0
 40
27.0
 40
27.0
 40
27.0
 40
28.0
 40
28.0
 40
28.0
 40
29.0
 40
29.0
 40
29.0
 40
30.0
 40
30.0
 40
30.0
 40
31.0
 40
31.0
 40
31.0
 40
31.0
 10
173.0090563266681
 20
-73.19706469431401
 10
172.9071407084062
 20
-73.13290135537761
 10
172.7274678234677
 20
-73.07402022836339
 10
172.4904285634629
 20
-73.02648032106532
 10
172.4904285634629
 20
-73.02648032106532
 10
172.4783493876699
 20
-73.02418877324561
 10
172.4783493876699
 20
-73.02418877324561
 10
172.4383055605257
 20
-73.01587705742694
 10
172.3952710692781
 20
-73.00834213747906
 10
172.3499838700047
 20
-73.00080721753214
 10
172.3499838700047
 20
-73.00080721753214
 10
172.3145231384986
 20
-72.99548616581595
 10
172.3145231384986
 20
-72.99548616581595
 10
172.279800363069
 20
-72.99020395389375
 10
172.2443396315629
 20
-72.98418378589413
 10
172.2065485124444
 20
-72.97890157397226
 10
172.2065485124444
 20
-72.97890157397226
 10
171.3897476541958
 20
-72.9124855270105
 10
171.3897476541958
 20
-72.9124855270105
 10
171.341430951026
 20
-72.91019397919176
 10
171.2900847439596
 20
-72.90945602311431
 10
171.2387385368926
 20
-72.90794127116575
 10
171.2387385368926
 20
-72.90794127116575
 10
171.1624960221652
 20
-72.90642651921782
 10
171.1624960221652
 20
-72.90642651921782
 10
171.004728780785
 20
-72.90339701532101
 10
170.8325908157943
 20
-72.90339701532101
 10
170.6642591505716
 20
-72.90642651921782
 10
170.6642591505716
 20
-72.90642651921782
 10
170.5962895118679
 20
-72.90794127116575
 10
170.5962895118679
 20
-72.90794127116575
 10
170.5261448447266
 20
-72.90945602311431
 10
170.4559224979965
 20
-72.91170873114001
 10
170.3728830193977
 20
-72.9147382350365
 10
170.3728830193977
 20
-72.9147382350365
 10
170.3434424558909
 20
-72.9154761911133
 10
170.3434424558909
 20
-72.9154761911133
 10
170.2596261814213
 20
-72.91928249088126
 10
170.1765867028225
 20
-72.92378790693295
 10
170.0942851803008
 20
-72.92833216277802
 10
170.0942851803008
 20
-72.92833216277802
 10
170.0512506890525
 20
-72.93132282688017
 10
170.0512506890525
 20
-72.93132282688017
 10
169.9795524301695
 20
-72.93586708272461
 10
169.9093300834401
 20
-72.94037249877533
 10
169.826329444635
 20
-72.94716946264641
 10
169.826329444635
 20
-72.94716946264641
 10
169.7968888811282
 20
-72.9494610104658
 10
169.7968888811282
 20
-72.9494610104658
 10
169.6315090402133
 20
-72.96305493820603
 10
169.4722270468858
 20
-72.97963953004938
 10
169.3212567693776
 20
-72.99855450950613
 10
169.3212567693776
 20
-72.99855450950613
 10
169.2948068699729
 20
-73.00154517360862
 10
169.2948068699729
 20
-73.00154517360862
 10
169.1385543805426
 20
-73.02193606522057
 10
168.991351563008
 20
-73.04384170877948
 10
168.8524216214977
 20
-73.06873801644184
 10
168.6101001495708
 20
-73.11251046376662
 10
168.4070457089185
 20
-73.16234191888407
 10
168.2485016716694
 20
-73.21594083397674
 10
168.0884817222641
 20
-73.27031654493928
 10
167.9616309565461
 20
-73.39184625894164
 10
167.9020118734542
 20
-73.55039029619108
 10
167.9020118734542
 20
-73.55039029619108
 10
166.5590094922607
 20
-77.1060568758421
 10
166.5590094922607
 20
-77.1060568758421
 10
166.5590094922607
 20
-77.1060568758421
 10
168.84566349742
 20
-77.1060568758421
 10
168.84566349742
 20
-77.1060568758421
 10
168.84566349742
 20
-77.1060568758421
 10
169.5462168535895
 20
-75.23992131539213
 10
169.5462168535895
 20
-75.23992131539213
 10
169.6715528673588
 20
-74.90923931315172
 10
169.9621910424544
 20
-74.31359223934797
 10
170.5027244492185
 20
-74.03957749588883
 10
170.9903968969676
 20
-73.83046404744323
 10
171.3255454754657
 20
-73.74893932079266
 10
171.6992619689544
 20
-73.74893932079266
 10
171.894004693788
 20
-73.74893932079266
 10
172.1023801861568
 20
-73.77158292042932
 10
172.3560428777984
 20
-73.81989962359885
 10
172.400592120994
 20
-73.82821133941753
 10
172.5402600185813
 20
-73.87198378674263
 10
172.6701014484021
 20
-73.94896425754845
 10
172.6701014484021
 20
-73.94896425754845
 10
172.7984281262742
 20
-74.01615710038135
 10
172.7984281262742
 20
-74.01615710038135
 10
172.7984281262742
 20
-74.01615710038135
 10
173.0950864693703
 20
-73.25066360940539
 10
173.0950864693703
 20
-73.25066360940539
 10
173.0950864693703
 20
-73.25066360940539
 10
173.0090563266681
 20
-73.19706469431401
 10
173.0090563266681
 20
-73.19706469431401
 97
        0
 97
        1
330
150
 75
     2
 76
     1
 98
        1
 10
0.0
 20
0.0
450
        0
451
        0
460
0.0
461
0.0
452
        0
462
0.0
453
        0
470

  0
SPLINE
  5
152
330
14A
100
AcDbEntity
  8
Слой 2
100
AcDbSpline
210
0.0
220
0.0
230
1.0
 70
    11
 71
     3
 72
    26
 73
    22
 74
     0
 42
0.0000000001
 43
0.0000000001
 40
0.0
 40
0.0
 40
0.0
 40
0.0
 40
1.0
 40
1.0
 40
1.0
 40
2.0
 40
2.0
 40
2.0
 40
3.0
 40
3.0
 40
3.0
 40
4.0
 40
4.0
 40
4.0
 40
5.0
 40
5.0
 40
5.0
 40
6.0
 40
6.0
 40
6.0
 40
7.0
 40
7.0
 40
7.0
 40
7.0
 10
179.6659639014944
 20
-73.66535608508394
 30
0.0
 10
179.6047912266614
 20
-73.57474284674355
 30
0.0
 10
179.5029144481933
 20
-73.52118277144587
 30
0.0
 10
179.3941630262669
 20
-73.52118277144587
 30
0.0
 10
179.3941630262669
 20
-73.52118277144587
 30
0.0
 10
177.6955823351707
 20
-73.52118277144587
 30
0.0
 10
177.6955823351707
 20
-73.52118277144587
 30
0.0
 10
177.5612354892986
 20
-73.52118277144587
 30
0.0
 10
177.4374142274766
 20
-73.60569816219923
 30
0.0
 10
177.389097524308
 20
-73.7317721320457
 30
0.0
 10
177.389097524308
 20
-73.7317721320457
 30
0.0
 10
176.0913823423866
 20
-77.10628991460335
 30
0.0
 10
176.0913823423866
 20
-77.10628991460335
 30
0.0
 10
176.0913823423866
 20
-77.10628991460335
 30
0.0
 10
178.4792140097314
 20
-77.10628991460335
 30
0.0
 10
178.4792140097314
 20
-77.10628991460335
 30
0.0
 10
178.4792140097314
 20
-77.10628991460335
 30
0.0
 10
179.6991719249748
 20
-73.97184089594637
 30
0.0
 10
179.6991719249748
 20
-73.97184089594637
 30
0.0
 10
179.7399537081974
 20
-73.86996411747851
 30
0.0
 10
179.7271365763274
 20
-73.75596932342434
 30
0.0
 10
179.6659639014944
 20
-73.66535608508394
 30
0.0
  0
HATCH
  5
153
330
14A
100
AcDbEntity
  8
Слой 2
 62
   254
420
 13421772
440
 33554687
100
AcDbHatch
 10
0.0
 20
0.0
 30
0.0
210
0.0
220
0.0
230
1.0
  2
SOLID
 70
     1
 71
     1
 91
        1
 92
        1
 93
        2
 72
     4
 94
        3
 73
     0
 74
     0
 95
       26
 96
       22
 40
0.0
 40
0.0
 40
0.0
 40
0.0
 40
1.0
 40
1.0
 40
1.0
 40
2.0
 40
2.0
 40
2.0
 40
3.0
 40
3.0
 40
3.0
 40
4.0
 40
4.0
 40
4.0
 40
5.0
 40
5.0
 40
5.0
 40
6.0
 40
6.0
 40
6.0
 40
7.0
 40
7.0
 40
7.0
 40
7.0
 10
179.6659639014944
 20
-73.66535608508394
 10
179.6047912266614
 20
-73.57474284674355
 10
179.5029144481933
 20
-73.52118277144587
 10
179.3941630262669
 20
-73.52118277144587
 10
179.3941630262669
 20
-73.52118277144587
 10
177.6955823351707
 20
-73.52118277144587
 10
177.6955823351707
 20
-73.52118277144587
 10
177.5612354892986
 20
-73.52118277144587
 10
177.4374142274766
 20
-73.60569816219923
 10
177.389097524308
 20
-73.7317721320457
 10
177.389097524308
 20
-73.7317721320457
 10
176.0913823423866
 20
-77.10628991460335
 10
176.0913823423866
 20
-77.10628991460335
 10
176.0913823423866
 20
-77.10628991460335
 10
178.4792140097314
 20
-77.10628991460335
 10
178.4792140097314
 20
-77.10628991460335
 10
178.4792140097314
 20
-77.10628991460335
 10
179.6991719249748
 20
-73.97184089594637
 10
179.6991719249748
 20
-73.97184089594637
 10
179.7399537081974
 20
-73.86996411747851
 10
179.7271365763274
 20
-73.75596932342434
 10
179.6659639014944
 20
-73.66535608508394
 97
        0
 72
     1
 10
179.6659639014944
 20
-73.66535608508394
 11
179.6659639014944
 21
-73.66535608508394
 97
        0
 75
     2
 76
     1
 98
        1
 10
0.0
 20
0.0
450
        0
451
        0
460
0.0
461
0.0
452
        0
462
0.0
453
        0
470

  0
SPLINE
  5
154
330
14A
100
AcDbEntity
  8
Слой 2
100
AcDbSpline
210
0.0
220
0.0
230
1.0
 70
     9
 71
     3
 72
    56
 73
    52
 74
     0
 42
0.0000000001
 43
0.0000000001
 40
0.0
 40
0.0
 40
0.0
 40
0.0
 40
1.0
 40
1.0
 40
1.0
 40
2.0
 40
2.0
 40
2.0
 40
3.0
 40
3.0
 40
3.0
 40
4.0
 40
4.0
 40
4.0
 40
5.0
 40
5.0
 40
5.0
 40
6.0
 40
6.0
 40
6.0
 40
7.0
 40
7.0
 40
7.0
 40
8.0
 40
8.0
 40
8.0
 40
9.0
 40
9.0
 40
9.0
 40
10.0
 40
10.0
 40
10.0
 40
11.0
 40
11.0
 40
11.0
 40
12.0
 40
12.0
 40
12.0
 40
13.0
 40
13.0
 40
13.0
 40
14.0
 40
14.0
 40
14.0
 40
15.0
 40
15.0
 40
15.0
 40
16.0
 40
16.0
 40
16.0
 40
17.0
 40
17.0
 40
17.0
 40
17.0
 10
192.8735910555966
 20
-73.03242280947722
 30
0.0
 10
192.0869298771395
 20
-73.03242280947722
 30
0.0
 10
191.373520549307
 20
-73.17512021096106
 30
0.0
 10
190.7484717517899
 20
-73.45822346610939
 30
0.0
 10
190.7484717517899
 20
-73.45822346610939
 30
0.0
 10
191.3923966889701
 20
-71.83060307781875
 30
0.0
 10
191.3923966889701
 20
-71.83060307781875
 30
0.0
 10
191.4233520044254
 20
-71.75284581114211
 30
0.0
 10
191.4135643764519
 20
-71.66530091649192
 30
0.0
 10
191.3659856293591
 20
-71.59659332171109
 30
0.0
 10
191.3191836781372
 20
-71.52788572693026
 30
0.0
 10
191.2414264114606
 20
-71.48636598763085
 30
0.0
 10
191.157648976784
 20
-71.48636598763085
 30
0.0
 10
191.157648976784
 20
-71.48636598763085
 30
0.0
 10
189.2967567884638
 20
-71.48407443981177
 30
0.0
 10
189.2967567884638
 20
-71.48407443981177
 30
0.0
 10
189.1918116663048
 20
-71.48407443981177
 30
0.0
 10
189.0997225158115
 20
-71.54676186659331
 30
0.0
 10
189.0619702364847
 20
-71.6441332290098
 30
0.0
 10
189.0619702364847
 20
-71.6441332290098
 30
0.0
 10
186.9285780566536
 20
-77.10601803604872
 30
0.0
 10
186.9285780566536
 20
-77.10601803604872
 30
0.0
 10
186.9285780566536
 20
-77.10601803604872
 30
0.0
 10
189.3337322719185
 20
-77.10601803604872
 30
0.0
 10
189.3337322719185
 20
-77.10601803604872
 30
0.0
 10
189.3337322719185
 20
-77.10601803604872
 30
0.0
 10
190.0886613390501
 20
-75.19754710063513
 30
0.0
 10
190.0886613390501
 20
-75.19754710063513
 30
0.0
 10
190.3279921468736
 20
-74.56189503947959
 30
0.0
 10
191.0149515753008
 20
-74.11803387884889
 30
0.0
 10
191.7585394227172
 20
-74.11803387884889
 30
0.0
 10
192.1601817277648
 20
-74.11803387884889
 30
0.0
 10
192.3639741244948
 20
-74.21315253324097
 30
0.0
 10
192.3639741244948
 20
-74.40113713399816
 30
0.0
 10
192.3639741244948
 20
-74.53396922792137
 30
0.0
 10
192.3367862690137
 20
-74.66684016163798
 30
0.0
 10
192.2832261937141
 20
-74.79066142345941
 30
0.0
 10
192.2832261937141
 20
-74.79066142345941
 30
0.0
 10
191.3750353012549
 20
-77.10601803604872
 30
0.0
 10
191.3750353012549
 20
-77.10601803604872
 30
0.0
 10
191.3750353012549
 20
-77.10601803604872
 30
0.0
 10
193.7809663123919
 20
-77.10601803604872
 30
0.0
 10
193.7809663123919
 20
-77.10601803604872
 30
0.0
 10
193.7809663123919
 20
-77.10601803604872
 30
0.0
 10
194.6838749929289
 20
-74.79066142345941
 30
0.0
 10
194.6838749929289
 20
-74.79066142345941
 30
0.0
 10
194.7676912673979
 20
-74.56418658729994
 30
0.0
 10
194.825834438335
 20
-74.28411283604749
 30
0.0
 10
194.825834438335
 20
-74.11123691497909
 30
0.0
 10
194.825834438335
 20
-73.43557986647271
 30
0.0
 10
194.0957628390727
 20
-73.03242280947722
 30
0.0
 10
192.8735910555966
 20
-73.03242280947722
 30
0.0
  0
HATCH
  5
155
330
14A
100
AcDbEntity
  8
Слой 2
 62
   254
420
 13421772
440
 33554687
100
AcDbHatch
 10
0.0
 20
0.0
 30
0.0
210
0.0
220
0.0
230
1.0
  2
SOLID
 70
     1
 71
     1
 91
        1
 92
        1
 93
        2
 72
     4
 94
        3
 73
     0
 74
     0
 95
       56
 96
       52
 40
0.0
 40
0.0
 40
0.0
 40
0.0
 40
1.0
 40
1.0
 40
1.0
 40
2.0
 40
2.0
 40
2.0
 40
3.0
 40
3.0
 40
3.0
 40
4.0
 40
4.0
 40
4.0
 40
5.0
 40
5.0
 40
5.0
 40
6.0
 40
6.0
 40
6.0
 40
7.0
 40
7.0
 40
7.0
 40
8.0
 40
8.0
 40
8.0
 40
9.0
 40
9.0
 40
9.0
 40
10.0
 40
10.0
 40
10.0
 40
11.0
 40
11.0
 40
11.0
 40
12.0
 40
12.0
 40
12.0
 40
13.0
 40
13.0
 40
13.0
 40
14.0
 40
14.0
 40
14.0
 40
15.0
 40
15.0
 40
15.0
 40
16.0
 40
16.0
 40
16.0
 40
17.0
 40
17.0
 40
17.0
 40
17.0
 10
192.8735910555966
 20
-73.03242280947722
 10
192.0869298771395
 20
-73.03242280947722
 10
191.373520549307
 20
-73.17512021096106
 10
190.7484717517899
 20
-73.45822346610939
 10
190.7484717517899
 20
-73.45822346610939
 10
191.3923966889701
 20
-71.83060307781875
 10
191.3923966889701
 20
-71.83060307781875
 10
191.4233520044254
 20
-71.75284581114211
 10
191.4135643764519
 20
-71.66530091649192
 10
191.3659856293591
 20
-71.59659332171109
 10
191.3191836781372
 20
-71.52788572693026
 10
191.2414264114606
 20
-71.48636598763085
 10
191.157648976784
 20
-71.48636598763085
 10
191.157648976784
 20
-71.48636598763085
 10
189.2967567884638
 20
-71.48407443981177
 10
189.2967567884638
 20
-71.48407443981177
 10
189.1918116663048
 20
-71.48407443981177
 10
189.0997225158115
 20
-71.54676186659331
 10
189.0619702364847
 20
-71.6441332290098
 10
189.0619702364847
 20
-71.6441332290098
 10
186.9285780566536
 20
-77.10601803604872
 10
186.9285780566536
 20
-77.10601803604872
 10
186.9285780566536
 20
-77.10601803604872
 10
189.3337322719185
 20
-77.10601803604872
 10
189.3337322719185
 20
-77.10601803604872
 10
189.3337322719185
 20
-77.10601803604872
 10
190.0886613390501
 20
-75.19754710063513
 10
190.0886613390501
 20
-75.19754710063513
 10
190.3279921468736
 20
-74.56189503947959
 10
191.0149515753008
 20
-74.11803387884889
 10
191.7585394227172
 20
-74.11803387884889
 10
192.1601817277648
 20
-74.11803387884889
 10
192.3639741244948
 20
-74.21315253324097
 10
192.3639741244948
 20
-74.40113713399816
 10
192.3639741244948
 20
-74.53396922792137
 10
192.3367862690137
 20
-74.66684016163798
 10
192.2832261937141
 20
-74.79066142345941
 10
192.2832261937141
 20
-74.79066142345941
 10
191.3750353012549
 20
-77.10601803604872
 10
191.3750353012549
 20
-77.10601803604872
 10
191.3750353012549
 20
-77.10601803604872
 10
193.7809663123919
 20
-77.10601803604872
 10
193.7809663123919
 20
-77.10601803604872
 10
193.7809663123919
 20
-77.10601803604872
 10
194.6838749929289
 20
-74.79066142345941
 10
194.6838749929289
 20
-74.79066142345941
 10
194.7676912673979
 20
-74.56418658729994
 10
194.825834438335
 20
-74.28411283604749
 10
194.825834438335
 20
-74.11123691497909
 10
194.825834438335
 20
-73.43557986647271
 10
194.0957628390727
 20
-73.03242280947722
 10
192.8735910555966
 20
-73.03242280947722
 97
        0
 72
     1
 10
192.8735910555966
 20
-73.03242280947722
 11
192.8735910555966
 21
-73.03242280947722
 97
        0
 75
     2
 76
     1
 98
        1
 10
0.0
 20
0.0
450
        0
451
        0
460
0.0
461
0.0
452
        0
462
0.0
453
        0
470

  0
SPLINE
  5
156
330
14A
100
AcDbEntity
  8
Слой 2
100
AcDbSpline
210
0.0
220
0.0
230
1.0
 70
     9
 71
     3
 72
    26
 73
    22
 74
     0
 42
0.0000000001
 43
0.0000000001
 40
0.0
 40
0.0
 40
0.0
 40
0.0
 40
1.0
 40
1.0
 40
1.0
 40
2.0
 40
2.0
 40
2.0
 40
3.0
 40
3.0
 40
3.0
 40
4.0
 40
4.0
 40
4.0
 40
5.0
 40
5.0
 40
5.0
 40
6.0
 40
6.0
 40
6.0
 40
7.0
 40
7.0
 40
7.0
 40
7.0
 10
176.920456575396
 20
-71.62168382834067
 30
0.0
 10
176.8736934639678
 20
-71.55301507335386
 30
0.0
 10
176.7958973574975
 20
-71.51149533405413
 30
0.0
 10
176.7121199228209
 20
-71.51149533405413
 30
0.0
 10
176.7121199228209
 20
-71.51149533405413
 30
0.0
 10
174.7991047315622
 20
-71.51149533405413
 30
0.0
 10
174.7991047315622
 20
-71.51149533405413
 30
0.0
 10
174.694936405276
 20
-71.51149533405413
 30
0.0
 10
174.6020704589099
 20
-71.57492071691279
 30
0.0
 10
174.5643570193775
 20
-71.6722920793299
 30
0.0
 10
174.5643570193775
 20
-71.6722920793299
 30
0.0
 10
172.4399756716478
 20
-77.10621223501691
 30
0.0
 10
172.4399756716478
 20
-77.10621223501691
 30
0.0
 10
172.4399756716478
 20
-77.10621223501691
 30
0.0
 10
174.9010203498248
 20
-77.10621223501691
 30
0.0
 10
174.9010203498248
 20
-77.10621223501691
 30
0.0
 10
174.9010203498248
 20
-77.10621223501691
 30
0.0
 10
176.9469064748006
 20
-71.85647038031946
 30
0.0
 10
176.9469064748006
 20
-71.85647038031946
 30
0.0
 10
176.9778617902547
 20
-71.77871311364251
 30
0.0
 10
176.9680353224881
 20
-71.69039142312183
 30
0.0
 10
176.920456575396
 20
-71.62168382834067
 30
0.0
  0
HATCH
  5
157
330
14A
100
AcDbEntity
  8
Слой 2
 62
   254
420
 13421772
440
 33554687
100
AcDbHatch
 10
0.0
 20
0.0
 30
0.0
210
0.0
220
0.0
230
1.0
  2
SOLID
 70
     1
 71
     1
 91
        1
 92
        1
 93
        2
 72
     4
 94
        3
 73
     0
 74
     0
 95
       26
 96
       22
 40
0.0
 40
0.0
 40
0.0
 40
0.0
 40
1.0
 40
1.0
 40
1.0
 40
2.0
 40
2.0
 40
2.0
 40
3.0
 40
3.0
 40
3.0
 40
4.0
 40
4.0
 40
4.0
 40
5.0
 40
5.0
 40
5.0
 40
6.0
 40
6.0
 40
6.0
 40
7.0
 40
7.0
 40
7.0
 40
7.0
 10
176.920456575396
 20
-71.62168382834067
 10
176.8736934639678
 20
-71.55301507335386
 10
176.7958973574975
 20
-71.51149533405413
 10
176.7121199228209
 20
-71.51149533405413
 10
176.7121199228209
 20
-71.51149533405413
 10
174.7991047315622
 20
-71.51149533405413
 10
174.7991047315622
 20
-71.51149533405413
 10
174.694936405276
 20
-71.51149533405413
 10
174.6020704589099
 20
-71.57492071691279
 10
174.5643570193775
 20
-71.6722920793299
 10
174.5643570193775
 20
-71.6722920793299
 10
172.4399756716478
 20
-77.10621223501691
 10
172.4399756716478
 20
-77.10621223501691
 10
172.4399756716478
 20
-77.10621223501691
 10
174.9010203498248
 20
-77.10621223501691
 10
174.9010203498248
 20
-77.10621223501691
 10
174.9010203498248
 20
-77.10621223501691
 10
176.9469064748006
 20
-71.85647038031946
 10
176.9469064748006
 20
-71.85647038031946
 10
176.9778617902547
 20
-71.77871311364251
 10
176.9680353224881
 20
-71.69039142312183
 10
176.920456575396
 20
-71.62168382834067
 97
        0
 72
     1
 10
176.920456575396
 20
-71.62168382834067
 11
176.920456575396
 21
-71.62168382834067
 97
        0
 75
     2
 76
     1
 98
        1
 10
0.0
 20
0.0
450
        0
451
        0
460
0.0
461
0.0
452
        0
462
0.0
453
        0
470

  0
SPLINE
  5
158
330
14A
100
AcDbEntity
  8
Слой 2
100
AcDbSpline
210
0.0
220
0.0
230
1.0
 70
     9
 71
     3
 72
     8
 73
     4
 74
     0
 42
0.0000000001
 43
0.0000000001
 40
0.0
 40
0.0
 40
0.0
 40
0.0
 40
1.0
 40
1.0
 40
1.0
 40
1.0
 10
184.9632845032836
 20
-73.73985080910315
 30
0.0
 10
181.9405775706551
 20
-79.31347770217057
 30
0.0
 10
179.287780831748
 20
-73.70512803367418
 30
0.0
 10
184.9632845032836
 20
-73.73985080910315
 30
0.0
  0
SPLINE
  5
159
330
14A
100
AcDbEntity
  8
Слой 2
100
AcDbSpline
210
0.0
220
0.0
230
1.0
 70
     9
 71
     3
 72
    62
 73
    58
 74
     0
 42
0.0000000001
 43
0.0000000001
 40
0.0
 40
0.0
 40
0.0
 40
0.0
 40
1.0
 40
1.0
 40
1.0
 40
2.0
 40
2.0
 40
2.0
 40
3.0
 40
3.0
 40
3.0
 40
4.0
 40
4.0
 40
4.0
 40
5.0
 40
5.0
 40
5.0
 40
6.0
 40
6.0
 40
6.0
 40
7.0
 40
7.0
 40
7.0
 40
8.0
 40
8.0
 40
8.0
 40
9.0
 40
9.0
 40
9.0
 40
10.0
 40
10.0
 40
10.0
 40
11.0
 40
11.0
 40
11.0
 40
12.0
 40
12.0
 40
12.0
 40
13.0
 40
13.0
 40
13.0
 40
14.0
 40
14.0
 40
14.0
 40
15.0
 40
15.0
 40
15.0
 40
16.0
 40
16.0
 40
16.0
 40
17.0
 40
17.0
 40
17.0
 40
18.0
 40
18.0
 40
18.0
 40
19.0
 40
19.0
 40
19.0
 40
19.0
 10
187.4461959852258
 20
-73.13212455950679
 30
0.0
 10
187.3994328737975
 20
-73.06345580451933
 30
0.0
 10
187.3208988112501
 20
-73.02267402129736
 30
0.0
 10
187.2378204928576
 20
-73.02267402129736
 30
0.0
 10
187.2378204928576
 20
-73.02267402129736
 30
0.0
 10
183.8187923068968
 20
-73.02267402129736
 30
0.0
 10
183.8187923068968
 20
-73.02267402129736
 30
0.0
 10
183.2631890602389
 20
-73.03475319708967
 30
0.0
 10
182.8442242072699
 20
-73.06951481231234
 30
0.0
 10
182.5309035927446
 20
-73.12913389540367
 30
0.0
 10
181.5434795214526
 20
-73.35106447571902
 30
0.0
 10
180.9251888480125
 20
-73.73153909328383
 30
0.0
 10
180.4594220438223
 20
-74.41022564568735
 30
0.0
 10
179.9988986117605
 20
-75.20213019627295
 30
0.0
 10
179.9143443812131
 20
-75.93367770769074
 30
0.0
 10
180.2223439440244
 20
-76.46966685861009
 30
0.0
 10
180.4820656434583
 20
-76.92261653092966
 30
0.0
 10
181.0014313627406
 20
-77.18156143449305
 30
0.0
 10
181.6476478477402
 20
-77.18156143449305
 30
0.0
 10
182.1609933990219
 20
-77.18156143449305
 30
0.0
 10
182.7226556534747
 20
-77.01847314139853
 30
0.0
 10
183.2730155280048
 20
-76.70748291448474
 30
0.0
 10
183.4300448133073
 20
-76.61686967614468
 30
0.0
 10
183.6255643340117
 20
-76.46512260276502
 30
0.0
 10
183.8542918781972
 20
-76.25678595019053
 30
0.0
 10
183.8542918781972
 20
-76.25678595019053
 30
0.0
 10
184.2853747467522
 20
-75.86497011290958
 30
0.0
 10
184.2853747467522
 20
-75.86497011290958
 30
0.0
 10
183.6678608691829
 20
-77.35894277161282
 30
0.0
 10
182.855526587192
 20
-77.64659028260621
 30
0.0
 10
181.9903701859805
 20
-77.63602585876151
 30
0.0
 10
181.2233619430566
 20
-77.62697618686572
 30
0.0
 10
180.7024814718264
 20
-77.44881805387513
 30
0.0
 10
180.3831795290942
 20
-77.34084342782058
 30
0.0
 10
180.3831795290942
 20
-77.34084342782058
 30
0.0
 10
180.27971031909
 20
-77.30538269631449
 30
0.0
 10
180.27971031909
 20
-77.30538269631449
 30
0.0
 10
180.27971031909
 20
-77.30538269631449
 30
0.0
 10
179.8645129260959
 20
-78.34640568269718
 30
0.0
 10
179.8645129260959
 20
-78.34640568269718
 30
0.0
 10
179.8645129260959
 20
-78.34640568269718
 30
0.0
 10
179.9996754076319
 20
-78.38866337807371
 30
0.0
 10
179.9996754076319
 20
-78.38866337807371
 30
0.0
 10
180.472239175693
 20
-78.538157743428
 30
0.0
 10
181.3034107575526
 20
-78.63024689392261
 30
0.0
 10
182.1670524068149
 20
-78.63024689392261
 30
0.0
 10
183.2624122643674
 20
-78.63024689392261
 30
0.0
 10
184.1351035855268
 20
-78.47849982054296
 30
0.0
 10
184.7617059747856
 20
-78.17807401747355
 30
0.0
 10
185.5233931659935
 20
-77.8171746558549
 30
0.0
 10
185.8200903488834
 20
-77.60883800328073
 30
0.0
 10
186.0307185492759
 20
-77.04566099687963
 30
0.0
 10
186.0307185492759
 20
-77.04566099687963
 30
0.0
 10
187.4726458846291
 20
-73.36691111148526
 30
0.0
 10
187.4726458846291
 20
-73.36691111148526
 30
0.0
 10
187.5028244042136
 20
-73.28915384480831
 30
0.0
 10
187.4929979364477
 20
-73.20160895015844
 30
0.0
 10
187.4461959852258
 20
-73.13212455950679
 30
0.0
  0
HATCH
  5
15A
330
14A
100
AcDbEntity
  8
Слой 2
 62
   254
420
 13421772
440
 33554687
100
AcDbHatch
 10
0.0
 20
0.0
 30
0.0
210
0.0
220
0.0
230
1.0
  2
SOLID
 70
     1
 71
     1
 91
        2
 92
        1
 93
        2
 72
     4
 94
        3
 73
     0
 74
     0
 95
        8
 96
        4
 40
0.0
 40
0.0
 40
0.0
 40
0.0
 40
1.0
 40
1.0
 40
1.0
 40
1.0
 10
184.9632845032836
 20
-73.73985080910315
 10
181.9405775706551
 20
-79.31347770217057
 10
179.287780831748
 20
-73.70512803367418
 10
184.9632845032836
 20
-73.73985080910315
 97
        0
 72
     1
 10
184.9632845032836
 20
-73.73985080910316
 11
184.9632845032836
 21
-73.73985080910315
 97
        0
 92
        1
 93
        2
 72
     4
 94
        3
 73
     0
 74
     0
 95
       62
 96
       58
 40
0.0
 40
0.0
 40
0.0
 40
0.0
 40
1.0
 40
1.0
 40
1.0
 40
2.0
 40
2.0
 40
2.0
 40
3.0
 40
3.0
 40
3.0
 40
4.0
 40
4.0
 40
4.0
 40
5.0
 40
5.0
 40
5.0
 40
6.0
 40
6.0
 40
6.0
 40
7.0
 40
7.0
 40
7.0
 40
8.0
 40
8.0
 40
8.0
 40
9.0
 40
9.0
 40
9.0
 40
10.0
 40
10.0
 40
10.0
 40
11.0
 40
11.0
 40
11.0
 40
12.0
 40
12.0
 40
12.0
 40
13.0
 40
13.0
 40
13.0
 40
14.0
 40
14.0
 40
14.0
 40
15.0
 40
15.0
 40
15.0
 40
16.0
 40
16.0
 40
16.0
 40
17.0
 40
17.0
 40
17.0
 40
18.0
 40
18.0
 40
18.0
 40
19.0
 40
19.0
 40
19.0
 40
19.0
 10
187.4461959852258
 20
-73.13212455950679
 10
187.3994328737975
 20
-73.06345580451933
 10
187.3208988112501
 20
-73.02267402129736
 10
187.2378204928576
 20
-73.02267402129736
 10
187.2378204928576
 20
-73.02267402129736
 10
183.8187923068968
 20
-73.02267402129736
 10
183.8187923068968
 20
-73.02267402129736
 10
183.2631890602389
 20
-73.03475319708967
 10
182.8442242072699
 20
-73.06951481231234
 10
182.5309035927446
 20
-73.12913389540367
 10
181.5434795214526
 20
-73.35106447571902
 10
180.9251888480125
 20
-73.73153909328383
 10
180.4594220438223
 20
-74.41022564568735
 10
179.9988986117605
 20
-75.20213019627295
 10
179.9143443812131
 20
-75.93367770769074
 10
180.2223439440244
 20
-76.46966685861009
 10
180.4820656434583
 20
-76.92261653092966
 10
181.0014313627406
 20
-77.18156143449305
 10
181.6476478477402
 20
-77.18156143449305
 10
182.1609933990219
 20
-77.18156143449305
 10
182.7226556534747
 20
-77.01847314139853
 10
183.2730155280048
 20
-76.70748291448474
 10
183.4300448133073
 20
-76.61686967614468
 10
183.6255643340117
 20
-76.46512260276502
 10
183.8542918781972
 20
-76.25678595019053
 10
183.8542918781972
 20
-76.25678595019053
 10
184.2853747467522
 20
-75.86497011290958
 10
184.2853747467522
 20
-75.86497011290958
 10
183.6678608691829
 20
-77.35894277161282
 10
182.855526587192
 20
-77.64659028260621
 10
181.9903701859805
 20
-77.63602585876151
 10
181.2233619430566
 20
-77.62697618686572
 10
180.7024814718264
 20
-77.44881805387513
 10
180.3831795290942
 20
-77.34084342782058
 10
180.3831795290942
 20
-77.34084342782058
 10
180.27971031909
 20
-77.30538269631449
 10
180.27971031909
 20
-77.30538269631449
 10
180.27971031909
 20
-77.30538269631449
 10
179.8645129260959
 20
-78.34640568269718
 10
179.8645129260959
 20
-78.34640568269718
 10
179.8645129260959
 20
-78.34640568269718
 10
179.9996754076319
 20
-78.38866337807371
 10
179.9996754076319
 20
-78.38866337807371
 10
180.472239175693
 20
-78.538157743428
 10
181.3034107575526
 20
-78.63024689392261
 10
182.1670524068149
 20
-78.63024689392261
 10
183.2624122643674
 20
-78.63024689392261
 10
184.1351035855268
 20
-78.47849982054296
 10
184.7617059747856
 20
-78.17807401747355
 10
185.5233931659935
 20
-77.8171746558549
 10
185.8200903488834
 20
-77.60883800328073
 10
186.0307185492759
 20
-77.04566099687963
 10
186.0307185492759
 20
-77.04566099687963
 10
187.4726458846291
 20
-73.36691111148526
 10
187.4726458846291
 20
-73.36691111148526
 10
187.5028244042136
 20
-73.28915384480831
 10
187.4929979364477
 20
-73.20160895015844
 10
187.4461959852258
 20
-73.13212455950679
 97
        0
 72
     1
 10
187.4461959852258
 20
-73.13212455950679
 11
187.4461959852258
 21
-73.13212455950679
 97
        0
 75
     2
 76
     1
 98
        1
 10
0.0
 20
0.0
450
        0
451
        0
460
0.0
461
0.0
452
        0
462
0.0
453
        0
470

  0
SPLINE
  5
15B
330
14A
100
AcDbEntity
  8
Слой 2
100
AcDbSpline
210
0.0
220
0.0
230
1.0
 70
     9
 71
     3
 72
     8
 73
     4
 74
     0
 42
0.0000000001
 43
0.0000000001
 40
0.0
 40
0.0
 40
0.0
 40
0.0
 40
1.0
 40
1.0
 40
1.0
 40
1.0
 10
164.4394831187245
 20
-73.73985080910315
 30
0.0
 10
161.4167373463029
 20
-79.31347770217057
 30
0.0
 10
158.7639406073952
 20
-73.70512803367418
 30
0.0
 10
164.4394831187245
 20
-73.73985080910315
 30
0.0
  0
SPLINE
  5
15C
330
14A
100
AcDbEntity
  8
Слой 2
100
AcDbSpline
210
0.0
220
0.0
230
1.0
 70
     9
 71
     3
 72
    44
 73
    40
 74
     0
 42
0.0000000001
 43
0.0000000001
 40
0.0
 40
0.0
 40
0.0
 40
0.0
 40
1.0
 40
1.0
 40
1.0
 40
2.0
 40
2.0
 40
2.0
 40
3.0
 40
3.0
 40
3.0
 40
4.0
 40
4.0
 40
4.0
 40
5.0
 40
5.0
 40
5.0
 40
6.0
 40
6.0
 40
6.0
 40
7.0
 40
7.0
 40
7.0
 40
8.0
 40
8.0
 40
8.0
 40
9.0
 40
9.0
 40
9.0
 40
10.0
 40
10.0
 40
10.0
 40
11.0
 40
11.0
 40
11.0
 40
12.0
 40
12.0
 40
12.0
 40
13.0
 40
13.0
 40
13.0
 40
13.0
 10
166.9850431876551
 20
-73.13212455950679
 30
0.0
 10
166.9382800762269
 20
-73.06345580451933
 30
0.0
 10
166.8604839697566
 20
-73.02267402129736
 30
0.0
 10
166.7766676952863
 20
-73.02267402129736
 30
0.0
 10
166.7766676952863
 20
-73.02267402129736
 30
0.0
 10
163.3598922173518
 20
-73.02267402129736
 30
0.0
 10
163.3598922173518
 20
-73.02267402129736
 30
0.0
 10
162.8050269267697
 20
-73.03475319708967
 30
0.0
 10
162.3845473218534
 20
-73.06951481231234
 30
0.0
 10
162.0720035031983
 20
-73.12913389540367
 30
0.0
 10
161.084579431907
 20
-73.35032651964191
 30
0.0
 10
160.4662887584669
 20
-73.73080113720767
 30
0.0
 10
160.0005219542766
 20
-74.41022564568735
 30
0.0
 10
159.5399596824218
 20
-75.20213019627295
 30
0.0
 10
159.4554442916681
 20
-75.93367770769074
 30
0.0
 10
159.7627058984017
 20
-76.46966685861009
 30
0.0
 10
160.0231267141203
 20
-76.9218785748519
 30
0.0
 10
160.542531273195
 20
-77.18156143449305
 30
0.0
 10
161.1887477581952
 20
-77.18156143449305
 30
0.0
 10
161.7020933094763
 20
-77.18156143449305
 30
0.0
 10
162.2629787680577
 20
-77.01773518532046
 30
0.0
 10
162.8141154384598
 20
-76.70748291448474
 30
0.0
 10
162.9703679278902
 20
-76.61686967614468
 30
0.0
 10
163.1666254046724
 20
-76.46512260276502
 30
0.0
 10
163.3953529488579
 20
-76.25678595019053
 30
0.0
 10
163.3953529488579
 20
-76.25678595019053
 30
0.0
 10
163.7162473231267
 20
-75.96537097922321
 30
0.0
 10
163.7162473231267
 20
-75.96537097922321
 30
0.0
 10
163.7162473231267
 20
-75.96537097922321
 30
0.0
 10
163.143243848958
 20
-77.12415621963434
 30
0.0
 10
163.143243848958
 20
-77.12415621963434
 30
0.0
 10
163.143243848958
 20
-77.12415621963434
 30
0.0
 10
165.5582633717845
 20
-77.12415621963434
 30
0.0
 10
165.5582633717845
 20
-77.12415621963434
 30
0.0
 10
165.5582633717845
 20
-77.12415621963434
 30
0.0
 10
167.0122310431356
 20
-73.36691111148526
 30
0.0
 10
167.0122310431356
 20
-73.36691111148526
 30
0.0
 10
167.0424484025138
 20
-73.28915384480831
 30
0.0
 10
167.0326219347465
 20
-73.20160895015844
 30
0.0
 10
166.9850431876551
 20
-73.13212455950679
 30
0.0
  0
HATCH
  5
15D
330
14A
100
AcDbEntity
  8
Слой 2
 62
   254
420
 13421772
440
 33554687
100
AcDbHatch
 10
0.0
 20
0.0
 30
0.0
210
0.0
220
0.0
230
1.0
  2
SOLID
 70
     1
 71
     1
 91
        2
 92
        1
 93
        2
 72
     4
 94
        3
 73
     0
 74
     0
 95
        8
 96
        4
 40
0.0
 40
0.0
 40
0.0
 40
0.0
 40
1.0
 40
1.0
 40
1.0
 40
1.0
 10
164.4394831187245
 20
-73.73985080910315
 10
161.4167373463029
 20
-79.31347770217057
 10
158.7639406073952
 20
-73.70512803367418
 10
164.4394831187245
 20
-73.73985080910315
 97
        0
 72
     1
 10
164.4394831187245
 20
-73.73985080910316
 11
164.4394831187245
 21
-73.73985080910315
 97
        0
 92
        1
 93
        2
 72
     4
 94
        3
 73
     0
 74
     0
 95
       44
 96
       40
 40
0.0
 40
0.0
 40
0.0
 40
0.0
 40
1.0
 40
1.0
 40
1.0
 40
2.0
 40
2.0
 40
2.0
 40
3.0
 40
3.0
 40
3.0
 40
4.0
 40
4.0
 40
4.0
 40
5.0
 40
5.0
 40
5.0
 40
6.0
 40
6.0
 40
6.0
 40
7.0
 40
7.0
 40
7.0
 40
8.0
 40
8.0
 40
8.0
 40
9.0
 40
9.0
 40
9.0
 40
10.0
 40
10.0
 40
10.0
 40
11.0
 40
11.0
 40
11.0
 40
12.0
 40
12.0
 40
12.0
 40
13.0
 40
13.0
 40
13.0
 40
13.0
 10
166.9850431876551
 20
-73.13212455950679
 10
166.9382800762269
 20
-73.06345580451933
 10
166.8604839697566
 20
-73.02267402129736
 10
166.7766676952863
 20
-73.02267402129736
 10
166.7766676952863
 20
-73.02267402129736
 10
163.3598922173518
 20
-73.02267402129736
 10
163.3598922173518
 20
-73.02267402129736
 10
162.8050269267697
 20
-73.03475319708967
 10
162.3845473218534
 20
-73.06951481231234
 10
162.0720035031983
 20
-73.12913389540367
 10
161.084579431907
 20
-73.35032651964191
 10
160.4662887584669
 20
-73.73080113720767
 10
160.0005219542766
 20
-74.41022564568735
 10
159.5399596824218
 20
-75.20213019627295
 10
159.4554442916681
 20
-75.93367770769074
 10
159.7627058984017
 20
-76.46966685861009
 10
160.0231267141203
 20
-76.9218785748519
 10
160.542531273195
 20
-77.18156143449305
 10
161.1887477581952
 20
-77.18156143449305
 10
161.7020933094763
 20
-77.18156143449305
 10
162.2629787680577
 20
-77.01773518532046
 10
162.8141154384598
 20
-76.70748291448474
 10
162.9703679278902
 20
-76.61686967614468
 10
163.1666254046724
 20
-76.46512260276502
 10
163.3953529488579
 20
-76.25678595019053
 10
163.3953529488579
 20
-76.25678595019053
 10
163.7162473231267
 20
-75.96537097922321
 10
163.7162473231267
 20
-75.96537097922321
 10
163.7162473231267
 20
-75.96537097922321
 10
163.143243848958
 20
-77.12415621963434
 10
163.143243848958
 20
-77.12415621963434
 10
163.143243848958
 20
-77.12415621963434
 10
165.5582633717845
 20
-77.12415621963434
 10
165.5582633717845
 20
-77.12415621963434
 10
165.5582633717845
 20
-77.12415621963434
 10
167.0122310431356
 20
-73.36691111148526
 10
167.0122310431356
 20
-73.36691111148526
 10
167.0424484025138
 20
-73.28915384480831
 10
167.0326219347465
 20
-73.20160895015844
 10
166.9850431876551
 20
-73.13212455950679
 97
        0
 72
     1
 10
166.9850431876551
 20
-73.13212455950679
 11
166.9850431876551
 21
-73.13212455950679
 97
        0
 75
     2
 76
     1
 98
        1
 10
0.0
 20
0.0
450
        0
451
        0
460
0.0
461
0.0
452
        0
462
0.0
453
        0
470

  0
SPLINE
  5
15E
330
14A
100
AcDbEntity
  8
Слой 2
100
AcDbSpline
210
0.0
220
0.0
230
1.0
 70
    11
 71
     3
 72
    62
 73
    58
 74
     0
 42
0.0000000001
 43
0.0000000001
 40
0.0
 40
0.0
 40
0.0
 40
0.0
 40
1.0
 40
1.0
 40
1.0
 40
2.0
 40
2.0
 40
2.0
 40
3.0
 40
3.0
 40
3.0
 40
4.0
 40
4.0
 40
4.0
 40
5.0
 40
5.0
 40
5.0
 40
6.0
 40
6.0
 40
6.0
 40
7.0
 40
7.0
 40
7.0
 40
8.0
 40
8.0
 40
8.0
 40
9.0
 40
9.0
 40
9.0
 40
10.0
 40
10.0
 40
10.0
 40
11.0
 40
11.0
 40
11.0
 40
12.0
 40
12.0
 40
12.0
 40
13.0
 40
13.0
 40
13.0
 40
14.0
 40
14.0
 40
14.0
 40
15.0
 40
15.0
 40
15.0
 40
16.0
 40
16.0
 40
16.0
 40
17.0
 40
17.0
 40
17.0
 40
18.0
 40
18.0
 40
18.0
 40
19.0
 40
19.0
 40
19.0
 40
19.0
 10
199.834148136357
 20
-71.54951949193455
 30
0.0
 10
199.834148136357
 20
-71.54951949193455
 30
0.0
 10
198.9780414070407
 20
-71.54951949193455
 30
0.0
 10
198.9780414070407
 20
-71.54951949193455
 30
0.0
 10
198.7712195064142
 20
-71.54951949193455
 30
0.0
 10
198.2065277480661
 20
-71.74356310048508
 30
0.0
 10
197.2817134239696
 20
-72.13157263799773
 30
0.0
 10
196.3576758957439
 20
-72.52109692745929
 30
0.0
 10
195.808869612956
 20
-72.81779411034817
 30
0.0
 10
195.6382463999127
 20
-73.02314009881985
 30
0.0
 10
195.6382463999127
 20
-73.02314009881985
 30
0.0
 10
195.0720398896148
 20
-73.74183163857421
 30
0.0
 10
195.0720398896148
 20
-73.74183163857421
 30
0.0
 10
195.0720398896148
 20
-73.74183163857421
 30
0.0
 10
196.3403145080294
 20
-73.74183163857421
 30
0.0
 10
196.3403145080294
 20
-73.74183163857421
 30
0.0
 10
196.3403145080294
 20
-73.74183163857421
 30
0.0
 10
195.6035624642768
 20
-75.55817458369915
 30
0.0
 10
195.6035624642768
 20
-75.55817458369915
 30
0.0
 10
195.5469340452889
 20
-75.7295357528193
 30
0.0
 10
195.5174934817815
 20
-75.87825332230181
 30
0.0
 10
195.5174934817815
 20
-76.00358933607182
 30
0.0
 10
195.5174934817815
 20
-76.30028651896068
 30
0.0
 10
195.6428294955508
 20
-76.54031644306797
 30
0.0
 10
195.8941617995792
 20
-76.72228087582553
 30
0.0
 10
196.2482641973278
 20
-76.97438997572511
 30
0.0
 10
196.8129171158828
 20
-77.09972598949383
 30
0.0
 10
197.5904897826517
 20
-77.09972598949383
 30
0.0
 10
198.4118348967441
 20
-77.09972598949383
 30
0.0
 10
199.0225906502369
 20
-76.96231079993281
 30
0.0
 10
199.423456159413
 20
-76.68903401255112
 30
0.0
 10
199.5487533333894
 20
-76.59768281813424
 30
0.0
 10
199.6680303393651
 20
-76.45424746057232
 30
0.0
 10
199.7827630894964
 20
-76.25950473573839
 30
0.0
 10
199.7827630894964
 20
-76.25950473573839
 30
0.0
 10
199.7827630894964
 20
-76.05415874726702
 30
0.0
 10
199.7827630894964
 20
-76.05415874726702
 30
0.0
 10
199.7827630894964
 20
-76.05415874726702
 30
0.0
 10
198.49790387924
 20
-76.05415874726702
 30
0.0
 10
198.49790387924
 20
-76.05415874726702
 30
0.0
 10
198.0743947704266
 20
-76.05415874726702
 30
0.0
 10
198.2404737276236
 20
-75.56042729172452
 30
0.0
 10
198.3272806661967
 20
-75.23203683730255
 30
0.0
 10
198.3272806661967
 20
-75.23203683730255
 30
0.0
 10
198.9432797918193
 20
-73.74183163857421
 30
0.0
 10
198.9432797918193
 20
-73.74183163857421
 30
0.0
 10
198.9432797918193
 20
-73.74183163857421
 30
0.0
 10
200.2968854366509
 20
-73.74183163857421
 30
0.0
 10
200.2968854366509
 20
-73.74183163857421
 30
0.0
 10
200.2968854366509
 20
-73.74183163857421
 30
0.0
 10
200.5883004076166
 20
-73.02314009881985
 30
0.0
 10
200.5883004076166
 20
-73.02314009881985
 30
0.0
 10
200.5883004076166
 20
-73.02314009881985
 30
0.0
 10
199.2165954189941
 20
-73.02314009881985
 30
0.0
 10
199.2165954189941
 20
-73.02314009881985
 30
0.0
 10
199.2165954189941
 20
-73.02314009881985
 30
0.0
 10
199.834148136357
 20
-71.54951949193455
 30
0.0
 10
199.834148136357
 20
-71.54951949193455
 30
0.0
  0
HATCH
  5
15F
330
14A
100
AcDbEntity
  8
Слой 2
 62
   254
420
 13421772
440
 33554687
100
AcDbHatch
 10
0.0
 20
0.0
 30
0.0
210
0.0
220
0.0
230
1.0
  2
SOLID
 70
     1
 71
     1
 91
        1
 92
        1
 93
        1
 72
     4
 94
        3
 73
     0
 74
     0
 95
       62
 96
       58
 40
0.0
 40
0.0
 40
0.0
 40
0.0
 40
1.0
 40
1.0
 40
1.0
 40
2.0
 40
2.0
 40
2.0
 40
3.0
 40
3.0
 40
3.0
 40
4.0
 40
4.0
 40
4.0
 40
5.0
 40
5.0
 40
5.0
 40
6.0
 40
6.0
 40
6.0
 40
7.0
 40
7.0
 40
7.0
 40
8.0
 40
8.0
 40
8.0
 40
9.0
 40
9.0
 40
9.0
 40
10.0
 40
10.0
 40
10.0
 40
11.0
 40
11.0
 40
11.0
 40
12.0
 40
12.0
 40
12.0
 40
13.0
 40
13.0
 40
13.0
 40
14.0
 40
14.0
 40
14.0
 40
15.0
 40
15.0
 40
15.0
 40
16.0
 40
16.0
 40
16.0
 40
17.0
 40
17.0
 40
17.0
 40
18.0
 40
18.0
 40
18.0
 40
19.0
 40
19.0
 40
19.0
 40
19.0
 10
199.834148136357
 20
-71.54951949193455
 10
199.834148136357
 20
-71.54951949193455
 10
198.9780414070407
 20
-71.54951949193455
 10
198.9780414070407
 20
-71.54951949193455
 10
198.7712195064142
 20
-71.54951949193455
 10
198.2065277480661
 20
-71.74356310048508
 10
197.2817134239696
 20
-72.13157263799773
 10
196.3576758957439
 20
-72.52109692745929
 10
195.808869612956
 20
-72.81779411034817
 10
195.6382463999127
 20
-73.02314009881985
 10
195.6382463999127
 20
-73.02314009881985
 10
195.0720398896148
 20
-73.74183163857421
 10
195.0720398896148
 20
-73.74183163857421
 10
195.0720398896148
 20
-73.74183163857421
 10
196.3403145080294
 20
-73.74183163857421
 10
196.3403145080294
 20
-73.74183163857421
 10
196.3403145080294
 20
-73.74183163857421
 10
195.6035624642768
 20
-75.55817458369915
 10
195.6035624642768
 20
-75.55817458369915
 10
195.5469340452889
 20
-75.7295357528193
 10
195.5174934817815
 20
-75.87825332230181
 10
195.5174934817815
 20
-76.00358933607182
 10
195.5174934817815
 20
-76.30028651896068
 10
195.6428294955508
 20
-76.54031644306797
 10
195.8941617995792
 20
-76.72228087582553
 10
196.2482641973278
 20
-76.97438997572511
 10
196.8129171158828
 20
-77.09972598949383
 10
197.5904897826517
 20
-77.09972598949383
 10
198.4118348967441
 20
-77.09972598949383
 10
199.0225906502369
 20
-76.96231079993281
 10
199.423456159413
 20
-76.68903401255112
 10
199.5487533333894
 20
-76.59768281813424
 10
199.6680303393651
 20
-76.45424746057232
 10
199.7827630894964
 20
-76.25950473573839
 10
199.7827630894964
 20
-76.25950473573839
 10
199.7827630894964
 20
-76.05415874726702
 10
199.7827630894964
 20
-76.05415874726702
 10
199.7827630894964
 20
-76.05415874726702
 10
198.49790387924
 20
-76.05415874726702
 10
198.49790387924
 20
-76.05415874726702
 10
198.0743947704266
 20
-76.05415874726702
 10
198.2404737276236
 20
-75.56042729172452
 10
198.3272806661967
 20
-75.23203683730255
 10
198.3272806661967
 20
-75.23203683730255
 10
198.9432797918193
 20
-73.74183163857421
 10
198.9432797918193
 20
-73.74183163857421
 10
198.9432797918193
 20
-73.74183163857421
 10
200.2968854366509
 20
-73.74183163857421
 10
200.2968854366509
 20
-73.74183163857421
 10
200.2968854366509
 20
-73.74183163857421
 10
200.5883004076166
 20
-73.02314009881985
 10
200.5883004076166
 20
-73.02314009881985
 10
200.5883004076166
 20
-73.02314009881985
 10
199.2165954189941
 20
-73.02314009881985
 10
199.2165954189941
 20
-73.02314009881985
 10
199.2165954189941
 20
-73.02314009881985
 10
199.834148136357
 20
-71.54951949193455
 10
199.834148136357
 20
-71.54951949193455
 97
        0
 97
        1
330
15E
 75
     2
 76
     1
 98
        1
 10
0.0
 20
0.0
450
        0
451
        0
460
0.0
461
0.0
452
        0
462
0.0
453
        0
470

  0
SPLINE
  5
160
330
14A
100
AcDbEntity
  8
Слой 2
100
AcDbSpline
210
0.0
220
0.0
230
1.0
 70
     9
 71
     3
 72
    29
 73
    25
 74
     0
 42
0.0000000001
 43
0.0000000001
 40
0.0
 40
0.0
 40
0.0
 40
0.0
 40
1.0
 40
1.0
 40
1.0
 40
2.0
 40
2.0
 40
2.0
 40
3.0
 40
3.0
 40
3.0
 40
4.0
 40
4.0
 40
4.0
 40
5.0
 40
5.0
 40
5.0
 40
6.0
 40
6.0
 40
6.0
 40
7.0
 40
7.0
 40
7.0
 40
8.0
 40
8.0
 40
8.0
 40
8.0
 10
177.0364321989206
 20
-55.42921854031685
 30
0.0
 10
181.261696819285
 20
-52.78244196940968
 30
0.0
 10
186.8322553686629
 20
-54.06279576361528
 30
0.0
 10
189.4790707793637
 20
-58.28809922377274
 30
0.0
 10
189.8051308461723
 20
-58.80975649087378
 30
0.0
 10
190.0716495094776
 20
-59.35102785371563
 30
0.0
 10
190.2800250018458
 20
-59.90437839234883
 30
0.0
 10
190.0482679537632
 20
-59.01055822350103
 30
0.0
 10
189.6776198039647
 20
-58.13639099018711
 30
0.0
 10
189.1612059089927
 20
-57.31197753240356
 30
0.0
 10
186.4419931231236
 20
-52.96964977429574
 30
0.0
 10
180.7173959525473
 20
-51.65457320466021
 30
0.0
 10
176.3750681944392
 20
-54.37382483032245
 30
0.0
 10
172.0335172322019
 20
-57.09307645598471
 30
0.0
 10
170.7176638666958
 20
-62.81763478676758
 30
0.0
 10
173.4369543321518
 20
-67.15996254487571
 30
0.0
 10
173.9532905475369
 20
-67.98433716286524
 30
0.0
 10
174.5783781848478
 20
-68.69926124264599
 30
0.0
 10
175.281961044913
 20
-69.2978989805522
 30
0.0
 10
174.8742985718655
 20
-68.86833086394642
 30
0.0
 10
174.5036115822733
 20
-68.39277643178355
 30
0.0
 10
174.1767358798002
 20
-67.87185712075899
 30
0.0
 10
171.5307361047632
 20
-63.64655366060153
 30
0.0
 10
172.8110898989695
 20
-58.07595627143158
 30
0.0
 10
177.0364321989206
 20
-55.42921854031685
 30
0.0
  0
HATCH
  5
161
330
14A
100
AcDbEntity
  8
Слой 2
 62
   254
420
 13421772
440
 33554687
100
AcDbHatch
 10
0.0
 20
0.0
 30
0.0
210
0.0
220
0.0
230
1.0
  2
SOLID
 70
     1
 71
     1
 91
        1
 92
        1
 93
        2
 72
     4
 94
        3
 73
     0
 74
     0
 95
       29
 96
       25
 40
0.0
 40
0.0
 40
0.0
 40
0.0
 40
1.0
 40
1.0
 40
1.0
 40
2.0
 40
2.0
 40
2.0
 40
3.0
 40
3.0
 40
3.0
 40
4.0
 40
4.0
 40
4.0
 40
5.0
 40
5.0
 40
5.0
 40
6.0
 40
6.0
 40
6.0
 40
7.0
 40
7.0
 40
7.0
 40
8.0
 40
8.0
 40
8.0
 40
8.0
 10
177.0364321989206
 20
-55.42921854031685
 10
181.261696819285
 20
-52.78244196940968
 10
186.8322553686629
 20
-54.06279576361528
 10
189.4790707793637
 20
-58.28809922377274
 10
189.8051308461723
 20
-58.80975649087378
 10
190.0716495094776
 20
-59.35102785371563
 10
190.2800250018458
 20
-59.90437839234883
 10
190.0482679537632
 20
-59.01055822350103
 10
189.6776198039647
 20
-58.13639099018711
 10
189.1612059089927
 20
-57.31197753240356
 10
186.4419931231236
 20
-52.96964977429574
 10
180.7173959525473
 20
-51.65457320466021
 10
176.3750681944392
 20
-54.37382483032245
 10
172.0335172322019
 20
-57.09307645598471
 10
170.7176638666958
 20
-62.81763478676758
 10
173.4369543321518
 20
-67.15996254487571
 10
173.9532905475369
 20
-67.98433716286524
 10
174.5783781848478
 20
-68.69926124264599
 10
175.281961044913
 20
-69.2978989805522
 10
174.8742985718655
 20
-68.86833086394642
 10
174.5036115822733
 20
-68.39277643178355
 10
174.1767358798002
 20
-67.87185712075899
 10
171.5307361047632
 20
-63.64655366060153
 10
172.8110898989695
 20
-58.07595627143158
 10
177.0364321989206
 20
-55.42921854031685
 97
        0
 72
     1
 10
177.0364321989206
 20
-55.42921854031685
 11
177.0364321989206
 21
-55.42921854031685
 97
        0
 75
     2
 76
     1
 98
        1
 10
0.0
 20
0.0
450
        0
451
        0
460
0.0
461
0.0
452
        0
462
0.0
453
        0
470

  0
SPLINE
  5
162
330
14A
100
AcDbEntity
  8
Слой 2
100
AcDbSpline
210
0.0
220
0.0
230
1.0
 70
     9
 71
     3
 72
    17
 73
    13
 74
     0
 42
0.0000000001
 43
0.0000000001
 40
0.0
 40
0.0
 40
0.0
 40
0.0
 40
1.0
 40
1.0
 40
1.0
 40
2.0
 40
2.0
 40
2.0
 40
3.0
 40
3.0
 40
3.0
 40
4.0
 40
4.0
 40
4.0
 40
4.0
 10
175.5254865504389
 20
-60.85020504475269
 30
0.0
 10
177.3591520434844
 20
-60.13683455671454
 30
0.0
 10
179.7885034501288
 20
-59.6815933365759
 30
0.0
 10
182.9176702568636
 20
-59.70124627210881
 30
0.0
 10
180.7094726346644
 20
-63.77328790693901
 30
0.0
 10
178.5549127673495
 20
-66.19809505773776
 30
0.0
 10
176.6918067107973
 20
-67.47541934804717
 30
0.0
 10
179.2140240638066
 20
-67.4142855130076
 30
0.0
 10
183.0195470353312
 20
-64.91622651158358
 30
0.0
 10
186.9836917236936
 20
-57.60556753180948
 30
0.0
 10
181.1299910793743
 20
-57.57010680030275
 30
0.0
 10
177.4920229772023
 20
-59.03689160352424
 30
0.0
 10
175.5254865504389
 20
-60.85020504475269
 30
0.0
  0
HATCH
  5
163
330
14A
100
AcDbEntity
  8
Слой 2
 62
   254
420
 13421772
440
 33554687
100
AcDbHatch
 10
0.0
 20
0.0
 30
0.0
210
0.0
220
0.0
230
1.0
  2
SOLID
 70
     1
 71
     1
 91
        1
 92
        1
 93
        2
 72
     4
 94
        3
 73
     0
 74
     0
 95
       17
 96
       13
 40
0.0
 40
0.0
 40
0.0
 40
0.0
 40
1.0
 40
1.0
 40
1.0
 40
2.0
 40
2.0
 40
2.0
 40
3.0
 40
3.0
 40
3.0
 40
4.0
 40
4.0
 40
4.0
 40
4.0
 10
175.5254865504389
 20
-60.85020504475269
 10
177.3591520434844
 20
-60.13683455671454
 10
179.7885034501288
 20
-59.6815933365759
 10
182.9176702568636
 20
-59.70124627210881
 10
180.7094726346644
 20
-63.77328790693901
 10
178.5549127673495
 20
-66.19809505773776
 10
176.6918067107973
 20
-67.47541934804717
 10
179.2140240638066
 20
-67.4142855130076
 10
183.0195470353312
 20
-64.91622651158358
 10
186.9836917236936
 20
-57.60556753180948
 10
181.1299910793743
 20
-57.57010680030275
 10
177.4920229772023
 20
-59.03689160352424
 10
175.5254865504389
 20
-60.85020504475269
 97
        0
 72
     1
 10
175.525486550439
 20
-60.85020504475269
 11
175.5254865504389
 21
-60.85020504475269
 97
        0
 75
     2
 76
     1
 98
        1
 10
0.0
 20
0.0
450
        0
451
        0
460
0.0
461
0.0
452
        0
462
0.0
453
        0
470

  0
SPLINE
  5
164
330
14A
100
AcDbEntity
  8
Слой 2
100
AcDbSpline
210
0.0
220
0.0
230
1.0
 70
     9
 71
     3
 72
    14
 73
    10
 74
     0
 42
0.0000000001
 43
0.0000000001
 40
0.0
 40
0.0
 40
0.0
 40
0.0
 40
1.0
 40
1.0
 40
1.0
 40
2.0
 40
2.0
 40
2.0
 40
3.0
 40
3.0
 40
3.0
 40
3.0
 10
176.6831454368366
 20
-67.47557470722101
 30
0.0
 10
176.6831454368366
 20
-67.47557470722101
 30
0.0
 10
176.6816306848887
 20
-67.47635150309183
 30
0.0
 10
176.6808538890172
 20
-67.47708945916959
 30
0.0
 10
176.6876508528886
 20
-67.47635150309183
 30
0.0
 10
176.693709860681
 20
-67.47557470722101
 30
0.0
 10
176.6997300286796
 20
-67.47557470722101
 30
0.0
 10
176.6944478167581
 20
-67.47557470722101
 30
0.0
 10
176.6892044446302
 20
-67.47557470722101
 30
0.0
 10
176.6831454368366
 20
-67.47557470722101
 30
0.0
  0
HATCH
  5
165
330
14A
100
AcDbEntity
  8
Слой 2
 62
   254
420
 13421772
440
 33554687
100
AcDbHatch
 10
0.0
 20
0.0
 30
0.0
210
0.0
220
0.0
230
1.0
  2
SOLID
 70
     1
 71
     1
 91
        1
 92
        1
 93
        2
 72
     4
 94
        3
 73
     0
 74
     0
 95
       14
 96
       10
 40
0.0
 40
0.0
 40
0.0
 40
0.0
 40
1.0
 40
1.0
 40
1.0
 40
2.0
 40
2.0
 40
2.0
 40
3.0
 40
3.0
 40
3.0
 40
3.0
 10
176.6831454368366
 20
-67.47557470722101
 10
176.6831454368366
 20
-67.47557470722101
 10
176.6816306848887
 20
-67.47635150309183
 10
176.6808538890172
 20
-67.47708945916959
 10
176.6876508528886
 20
-67.47635150309183
 10
176.693709860681
 20
-67.47557470722101
 10
176.6997300286796
 20
-67.47557470722101
 10
176.6944478167581
 20
-67.47557470722101
 10
176.6892044446302
 20
-67.47557470722101
 10
176.6831454368366
 20
-67.47557470722101
 97
        0
 72
     1
 10
176.6831454368366
 20
-67.47557470722101
 11
176.6831454368366
 21
-67.47557470722101
 97
        0
 75
     2
 76
     1
 98
        1
 10
0.0
 20
0.0
450
        0
451
        0
460
0.0
461
0.0
452
        0
462
0.0
453
        0
470

  0
ENDBLK
  5
14D
330
14A
100
AcDbEntity
  8
0
100
AcDbBlockEnd
  0
BLOCK
  5
16B
330
169
100
AcDbEntity
  8
0
100
AcDbBlockBegin
  2
Block_11
 70
     0
 10
0.0
 20
0.0
 30
0.0
  3
Block_11
  1

  0
MTEXT
  5
16D
330
169
100
AcDbEntity
  8
Слой 2
100
AcDbMText
 10
30.10843352518774
 20
-238.7610937581266
 30
0.0
 40
0.2
 41
0.0
 46
0.0
 71
     7
 72
     1
  1
\C250;\c3882044;\FDINPro-Light|b0|i0|c1;\H5.951021;\W1.000000;IP
 73
     1
 44
1.0
  0
MTEXT
  5
16E
330
169
100
AcDbEntity
  8
Слой 2
100
AcDbMText
 10
37.78892940000373
 20
-238.7610937581266
 30
0.0
 40
0.2
 41
0.0
 46
0.0
 71
     7
 72
     1
  1
\C250;\c3882044;\FDINPro-Medium|b0|i0|c1;\H5.951021;\W1.000000;20
 73
     1
 44
1.0
  0
INSERT
  5
170
330
169
100
AcDbEntity
  8
Слой 2
100
AcDbBlockReference
  2
Block_12
 10
0.0
 20
0.0
 30
0.0
  0
ENDBLK
  5
16C
330
169
100
AcDbEntity
  8
0
100
AcDbBlockEnd
  0
BLOCK
  5
171
330
16F
100
AcDbEntity
  8
0
100
AcDbBlockBegin
  2
Block_12
 70
     0
 10
0.0
 20
0.0
 30
0.0
  3
Block_12
  1

  0
SPLINE
  5
173
330
16F
100
AcDbEntity
  8
Слой 2
100
AcDbSpline
210
0.0
220
0.0
230
1.0
 70
     9
 71
     3
 72
    17
 73
    13
 74
     0
 42
0.0000000001
 43
0.0000000001
 40
0.0
 40
0.0
 40
0.0
 40
0.0
 40
1.0
 40
1.0
 40
1.0
 40
2.0
 40
2.0
 40
2.0
 40
3.0
 40
3.0
 40
3.0
 40
4.0
 40
4.0
 40
4.0
 40
4.0
 10
17.72721924311443
 20
-228.8049851918421
 30
0.0
 10
13.86155100840251
 20
-228.8049851918421
 30
0.0
 10
10.71681942196463
 20
-231.9496815799442
 30
0.0
 10
10.71681942196463
 20
-235.8153499123111
 30
0.0
 10
10.71681942196463
 20
-239.6812651891227
 30
0.0
 10
13.86155100840251
 20
-242.826032132781
 30
0.0
 10
17.72721924311443
 20
-242.826032132781
 30
0.0
 10
21.59278164449572
 20
-242.826032132781
 30
0.0
 10
24.73754850871048
 20
-239.6812651891227
 30
0.0
 10
24.73754850871048
 20
-235.8153499123111
 30
0.0
 10
24.73754850871048
 20
-231.9496815799442
 30
0.0
 10
21.59278164449572
 20
-228.8049851918421
 30
0.0
 10
17.72721924311443
 20
-228.8049851918421
 30
0.0
  0
SPLINE
  5
174
330
16F
100
AcDbEntity
  8
Слой 2
100
AcDbSpline
210
0.0
220
0.0
230
1.0
 70
     9
 71
     3
 72
    17
 73
    13
 74
     0
 42
0.0000000001
 43
0.0000000001
 40
0.0
 40
0.0
 40
0.0
 40
0.0
 40
1.0
 40
1.0
 40
1.0
 40
2.0
 40
2.0
 40
2.0
 40
3.0
 40
3.0
 40
3.0
 40
4.0
 40
4.0
 40
4.0
 40
4.0
 10
17.72721924311443
 20
-242.9647796327463
 30
0.0
 10
13.78510406590839
 20
-242.9647796327463
 30
0.0
 10
10.57804322957871
 20
-239.7576768557701
 30
0.0
 10
10.57804322957871
 20
-235.8153499123111
 30
0.0
 10
10.57804322957871
 20
-231.8733051910749
 30
0.0
 10
13.78510406590839
 20
-228.6661671363206
 30
0.0
 10
17.72721924311443
 20
-228.6661671363206
 30
0.0
 10
21.66922858698984
 20
-228.6661671363206
 30
0.0
 10
24.87633128294761
 20
-231.8733051910749
 30
0.0
 10
24.87633128294761
 20
-235.8153499123111
 30
0.0
 10
24.87633128294761
 20
-239.7576768557701
 30
0.0
 10
21.66922858698984
 20
-242.9647796327463
 30
0.0
 10
17.72721924311443
 20
-242.9647796327463
 30
0.0
  0
HATCH
  5
175
330
16F
100
AcDbEntity
  8
Слой 2
 62
   250
420
  3947579
440
 33554687
100
AcDbHatch
 10
0.0
 20
0.0
 30
0.0
210
0.0
220
0.0
230
1.0
  2
SOLID
 70
     1
 71
     1
 91
        2
 92
        1
 93
        1
 72
     4
 94
        3
 73
     0
 74
     0
 95
       17
 96
       13
 40
0.0
 40
0.0
 40
0.0
 40
0.0
 40
1.0
 40
1.0
 40
1.0
 40
2.0
 40
2.0
 40
2.0
 40
3.0
 40
3.0
 40
3.0
 40
4.0
 40
4.0
 40
4.0
 40
4.0
 10
17.72721924311443
 20
-228.8049851918421
 10
13.86155100840251
 20
-228.8049851918421
 10
10.71681942196463
 20
-231.9496815799442
 10
10.71681942196463
 20
-235.8153499123111
 10
10.71681942196463
 20
-239.6812651891227
 10
13.86155100840251
 20
-242.826032132781
 10
17.72721924311443
 20
-242.826032132781
 10
21.59278164449572
 20
-242.826032132781
 10
24.73754850871048
 20
-239.6812651891227
 10
24.73754850871048
 20
-235.8153499123111
 10
24.73754850871048
 20
-231.9496815799442
 10
21.59278164449572
 20
-228.8049851918421
 10
17.72721924311443
 20
-228.8049851918421
 97
        0
 97
        1
330
173
 92
        1
 93
        1
 72
     4
 94
        3
 73
     0
 74
     0
 95
       17
 96
       13
 40
0.0
 40
0.0
 40
0.0
 40
0.0
 40
1.0
 40
1.0
 40
1.0
 40
2.0
 40
2.0
 40
2.0
 40
3.0
 40
3.0
 40
3.0
 40
4.0
 40
4.0
 40
4.0
 40
4.0
 10
17.72721924311443
 20
-242.9647796327463
 10
13.78510406590839
 20
-242.9647796327463
 10
10.57804322957871
 20
-239.7576768557701
 10
10.57804322957871
 20
-235.8153499123111
 10
10.57804322957871
 20
-231.8733051910749
 10
13.78510406590839
 20
-228.6661671363206
 10
17.72721924311443
 20
-228.6661671363206
 10
21.66922858698984
 20
-228.6661671363206
 10
24.87633128294761
 20
-231.8733051910749
 10
24.87633128294761
 20
-235.8153499123111
 10
24.87633128294761
 20
-239.7576768557701
 10
21.66922858698984
 20
-242.9647796327463
 10
17.72721924311443
 20
-242.9647796327463
 97
        0
 97
        1
330
174
 75
     2
 76
     1
 98
        1
 10
0.0
 20
0.0
450
        0
451
        0
460
0.0
461
0.0
452
        0
462
0.0
453
        0
470

  0
INSERT
  5
177
330
16F
100
AcDbEntity
  8
Слой 2
100
AcDbBlockReference
  2
Block_13
 10
0.0
 20
0.0
 30
0.0
  0
ENDBLK
  5
172
330
16F
100
AcDbEntity
  8
0
100
AcDbBlockEnd
  0
BLOCK
  5
178
330
176
100
AcDbEntity
  8
0
100
AcDbBlockBegin
  2
Block_13
 70
     0
 10
0.0
 20
0.0
 30
0.0
  3
Block_13
  1

  0
SPLINE
  5
17A
330
176
100
AcDbEntity
  8
Слой 2
100
AcDbSpline
210
0.0
220
0.0
230
1.0
 70
    11
 71
     3
 72
    17
 73
    13
 74
     0
 42
0.0000000001
 43
0.0000000001
 40
0.0
 40
0.0
 40
0.0
 40
0.0
 40
1.0
 40
1.0
 40
1.0
 40
2.0
 40
2.0
 40
2.0
 40
3.0
 40
3.0
 40
3.0
 40
4.0
 40
4.0
 40
4.0
 40
4.0
 10
16.77923482285508
 20
-237.4107521341351
 30
0.0
 10
16.77923482285508
 20
-237.4107521341351
 30
0.0
 10
18.68003671880603
 20
-237.4107521341351
 30
0.0
 10
18.68003671880603
 20
-237.4107521341351
 30
0.0
 10
18.68003671880603
 20
-237.4107521341351
 30
0.0
 10
18.68003671880603
 20
-235.5096679679431
 30
0.0
 10
18.68003671880603
 20
-235.5096679679431
 30
0.0
 10
18.68003671880603
 20
-235.5096679679431
 30
0.0
 10
16.77923482285508
 20
-235.5096679679431
 30
0.0
 10
16.77923482285508
 20
-235.5096679679431
 30
0.0
 10
16.77923482285508
 20
-235.5096679679431
 30
0.0
 10
16.77923482285508
 20
-237.4107521341351
 30
0.0
 10
16.77923482285508
 20
-237.4107521341351
 30
0.0
  0
SPLINE
  5
17B
330
176
100
AcDbEntity
  8
Слой 2
100
AcDbSpline
210
0.0
220
0.0
230
1.0
 70
     9
 71
     3
 72
    29
 73
    25
 74
     0
 42
0.0000000001
 43
0.0000000001
 40
0.0
 40
0.0
 40
0.0
 40
0.0
 40
1.0
 40
1.0
 40
1.0
 40
2.0
 40
2.0
 40
2.0
 40
3.0
 40
3.0
 40
3.0
 40
4.0
 40
4.0
 40
4.0
 40
5.0
 40
5.0
 40
5.0
 40
6.0
 40
6.0
 40
6.0
 40
7.0
 40
7.0
 40
7.0
 40
8.0
 40
8.0
 40
8.0
 40
8.0
 10
18.90221615758221
 20
-237.8551815784684
 30
0.0
 10
18.90221615758221
 20
-237.8551815784684
 30
0.0
 10
16.55698482852515
 20
-237.8551815784684
 30
0.0
 10
16.55698482852515
 20
-237.8551815784684
 30
0.0
 10
16.43453566498243
 20
-237.8551815784684
 30
0.0
 10
16.3347701119721
 20
-237.7555218562707
 30
0.0
 10
16.3347701119721
 20
-237.6330021340799
 30
0.0
 10
16.3347701119721
 20
-237.6330021340799
 30
0.0
 10
16.3347701119721
 20
-235.287700190221
 30
0.0
 10
16.3347701119721
 20
-235.287700190221
 30
0.0
 10
16.3347701119721
 20
-235.165180468029
 30
0.0
 10
16.43453566498243
 20
-235.0657324124989
 30
0.0
 10
16.55698482852515
 20
-235.0657324124989
 30
0.0
 10
16.55698482852515
 20
-235.0657324124989
 30
0.0
 10
18.90221615758221
 20
-235.0657324124989
 30
0.0
 10
18.90221615758221
 20
-235.0657324124989
 30
0.0
 10
19.02470059890181
 20
-235.0657324124989
 30
0.0
 10
19.12453670746589
 20
-235.165180468029
 30
0.0
 10
19.12453670746589
 20
-235.287700190221
 30
0.0
 10
19.12453670746589
 20
-235.287700190221
 30
0.0
 10
19.12453670746589
 20
-237.6330021340799
 30
0.0
 10
19.12453670746589
 20
-237.6330021340799
 30
0.0
 10
19.12453670746589
 20
-237.7555218562707
 30
0.0
 10
19.02470059890181
 20
-237.8551815784684
 30
0.0
 10
18.90221615758221
 20
-237.8551815784684
 30
0.0
  0
HATCH
  5
17C
330
176
100
AcDbEntity
  8
Слой 2
 62
   250
420
  3947579
440
 33554687
100
AcDbHatch
 10
0.0
 20
0.0
 30
0.0
210
0.0
220
0.0
230
1.0
  2
SOLID
 70
     1
 71
     1
 91
        2
 92
        1
 93
        1
 72
     4
 94
        3
 73
     0
 74
     0
 95
       17
 96
       13
 40
0.0
 40
0.0
 40
0.0
 40
0.0
 40
1.0
 40
1.0
 40
1.0
 40
2.0
 40
2.0
 40
2.0
 40
3.0
 40
3.0
 40
3.0
 40
4.0
 40
4.0
 40
4.0
 40
4.0
 10
16.77923482285508
 20
-237.4107521341351
 10
16.77923482285508
 20
-237.4107521341351
 10
18.68003671880603
 20
-237.4107521341351
 10
18.68003671880603
 20
-237.4107521341351
 10
18.68003671880603
 20
-237.4107521341351
 10
18.68003671880603
 20
-235.5096679679431
 10
18.68003671880603
 20
-235.5096679679431
 10
18.68003671880603
 20
-235.5096679679431
 10
16.77923482285508
 20
-235.5096679679431
 10
16.77923482285508
 20
-235.5096679679431
 10
16.77923482285508
 20
-235.5096679679431
 10
16.77923482285508
 20
-237.4107521341351
 10
16.77923482285508
 20
-237.4107521341351
 97
        0
 97
        1
330
17A
 92
        1
 93
        1
 72
     4
 94
        3
 73
     0
 74
     0
 95
       29
 96
       25
 40
0.0
 40
0.0
 40
0.0
 40
0.0
 40
1.0
 40
1.0
 40
1.0
 40
2.0
 40
2.0
 40
2.0
 40
3.0
 40
3.0
 40
3.0
 40
4.0
 40
4.0
 40
4.0
 40
5.0
 40
5.0
 40
5.0
 40
6.0
 40
6.0
 40
6.0
 40
7.0
 40
7.0
 40
7.0
 40
8.0
 40
8.0
 40
8.0
 40
8.0
 10
18.90221615758221
 20
-237.8551815784684
 10
18.90221615758221
 20
-237.8551815784684
 10
16.55698482852515
 20
-237.8551815784684
 10
16.55698482852515
 20
-237.8551815784684
 10
16.43453566498243
 20
-237.8551815784684
 10
16.3347701119721
 20
-237.7555218562707
 10
16.3347701119721
 20
-237.6330021340799
 10
16.3347701119721
 20
-237.6330021340799
 10
16.3347701119721
 20
-235.287700190221
 10
16.3347701119721
 20
-235.287700190221
 10
16.3347701119721
 20
-235.165180468029
 10
16.43453566498243
 20
-235.0657324124989
 10
16.55698482852515
 20
-235.0657324124989
 10
16.55698482852515
 20
-235.0657324124989
 10
18.90221615758221
 20
-235.0657324124989
 10
18.90221615758221
 20
-235.0657324124989
 10
19.02470059890181
 20
-235.0657324124989
 10
19.12453670746589
 20
-235.165180468029
 10
19.12453670746589
 20
-235.287700190221
 10
19.12453670746589
 20
-235.287700190221
 10
19.12453670746589
 20
-237.6330021340799
 10
19.12453670746589
 20
-237.6330021340799
 10
19.12453670746589
 20
-237.7555218562707
 10
19.02470059890181
 20
-237.8551815784684
 10
18.90221615758221
 20
-237.8551815784684
 97
        0
 97
        1
330
17B
 75
     2
 76
     1
 98
        1
 10
0.0
 20
0.0
450
        0
451
        0
460
0.0
461
0.0
452
        0
462
0.0
453
        0
470

  0
INSERT
  5
17E
330
176
100
AcDbEntity
  8
Слой 2
100
AcDbBlockReference
  2
Block_14
 10
0.0
 20
0.0
 30
0.0
  0
ENDBLK
  5
179
330
176
100
AcDbEntity
  8
0
100
AcDbBlockEnd
  0
BLOCK
  5
17F
330
17D
100
AcDbEntity
  8
0
100
AcDbBlockBegin
  2
Block_14
 70
     0
 10
0.0
 20
0.0
 30
0.0
  3
Block_14
  1

  0
SPLINE
  5
181
330
17D
100
AcDbEntity
  8
Слой 2
100
AcDbSpline
210
0.0
220
0.0
230
1.0
 70
     9
 71
     3
 72
    35
 73
    31
 74
     0
 42
0.0000000001
 43
0.0000000001
 40
0.0
 40
0.0
 40
0.0
 40
0.0
 40
1.0
 40
1.0
 40
1.0
 40
2.0
 40
2.0
 40
2.0
 40
3.0
 40
3.0
 40
3.0
 40
4.0
 40
4.0
 40
4.0
 40
5.0
 40
5.0
 40
5.0
 40
6.0
 40
6.0
 40
6.0
 40
7.0
 40
7.0
 40
7.0
 40
8.0
 40
8.0
 40
8.0
 40
9.0
 40
9.0
 40
9.0
 40
10.0
 40
10.0
 40
10.0
 40
10.0
 10
13.45744407426769
 20
-235.2492474124527
 30
0.0
 10
13.3953904647397
 20
-235.2492474124527
 30
0.0
 10
13.33390129964175
 20
-235.2234946346813
 30
0.0
 10
13.28998046742893
 20
-235.1730826902498
 30
0.0
 10
13.20951185837075
 20
-235.0803021347178
 30
0.0
 10
13.21921324701213
 20
-234.9402140791966
 30
0.0
 10
13.31164102243188
 20
-234.8598160236618
 30
0.0
 10
13.31164102243188
 20
-234.8598160236618
 30
0.0
 10
17.58402674676758
 20
-231.1437254690349
 30
0.0
 10
17.58402674676758
 20
-231.1437254690349
 30
0.0
 10
17.66752924463725
 20
-231.0710885246083
 30
0.0
 10
17.79223618590015
 20
-231.0710885246083
 30
0.0
 10
17.87570340599295
 20
-231.1437254690349
 30
0.0
 10
17.87570340599295
 20
-231.1437254690349
 30
0.0
 10
22.14777163033675
 20
-234.8598160236618
 30
0.0
 10
22.14777163033675
 20
-234.8598160236618
 30
0.0
 10
22.24005829464898
 20
-234.9402140791966
 30
0.0
 10
22.25032412772042
 20
-235.0803021347178
 30
0.0
 10
22.16957329644721
 20
-235.1730826902498
 30
0.0
 10
22.08924579849653
 20
-235.2652282457826
 30
0.0
 10
21.94940469095306
 20
-235.2752471346688
 30
0.0
 10
21.85627135999576
 20
-235.1947079680226
 30
0.0
 10
21.85627135999576
 20
-235.1947079680226
 30
0.0
 10
17.72982979860338
 20
-231.605511580031
 30
0.0
 10
17.72982979860338
 20
-231.605511580031
 30
0.0
 10
17.72982979860338
 20
-231.605511580031
 30
0.0
 10
13.60300018166536
 20
-235.1947079680226
 30
0.0
 10
13.60300018166536
 20
-235.1947079680226
 30
0.0
 10
13.56126657161896
 20
-235.2313615791239
 30
0.0
 10
13.50919657294738
 20
-235.2492474124527
 30
0.0
 10
13.45744407426769
 20
-235.2492474124527
 30
0.0
  0
HATCH
  5
182
330
17D
100
AcDbEntity
  8
Слой 2
 62
   250
420
  3947579
440
 33554687
100
AcDbHatch
 10
0.0
 20
0.0
 30
0.0
210
0.0
220
0.0
230
1.0
  2
SOLID
 70
     1
 71
     1
 91
        1
 92
        1
 93
        1
 72
     4
 94
        3
 73
     0
 74
     0
 95
       35
 96
       31
 40
0.0
 40
0.0
 40
0.0
 40
0.0
 40
1.0
 40
1.0
 40
1.0
 40
2.0
 40
2.0
 40
2.0
 40
3.0
 40
3.0
 40
3.0
 40
4.0
 40
4.0
 40
4.0
 40
5.0
 40
5.0
 40
5.0
 40
6.0
 40
6.0
 40
6.0
 40
7.0
 40
7.0
 40
7.0
 40
8.0
 40
8.0
 40
8.0
 40
9.0
 40
9.0
 40
9.0
 40
10.0
 40
10.0
 40
10.0
 40
10.0
 10
13.45744407426769
 20
-235.2492474124527
 10
13.3953904647397
 20
-235.2492474124527
 10
13.33390129964175
 20
-235.2234946346813
 10
13.28998046742893
 20
-235.1730826902498
 10
13.20951185837075
 20
-235.0803021347178
 10
13.21921324701213
 20
-234.9402140791966
 10
13.31164102243188
 20
-234.8598160236618
 10
13.31164102243188
 20
-234.8598160236618
 10
17.58402674676758
 20
-231.1437254690349
 10
17.58402674676758
 20
-231.1437254690349
 10
17.66752924463725
 20
-231.0710885246083
 10
17.79223618590015
 20
-231.0710885246083
 10
17.87570340599295
 20
-231.1437254690349
 10
17.87570340599295
 20
-231.1437254690349
 10
22.14777163033675
 20
-234.8598160236618
 10
22.14777163033675
 20
-234.8598160236618
 10
22.24005829464898
 20
-234.9402140791966
 10
22.25032412772042
 20
-235.0803021347178
 10
22.16957329644721
 20
-235.1730826902498
 10
22.08924579849653
 20
-235.2652282457826
 10
21.94940469095306
 20
-235.2752471346688
 10
21.85627135999576
 20
-235.1947079680226
 10
21.85627135999576
 20
-235.1947079680226
 10
17.72982979860338
 20
-231.605511580031
 10
17.72982979860338
 20
-231.605511580031
 10
17.72982979860338
 20
-231.605511580031
 10
13.60300018166536
 20
-235.1947079680226
 10
13.60300018166536
 20
-235.1947079680226
 10
13.56126657161896
 20
-235.2313615791239
 10
13.50919657294738
 20
-235.2492474124527
 10
13.45744407426769
 20
-235.2492474124527
 97
        0
 97
        1
330
181
 75
     2
 76
     1
 98
        1
 10
0.0
 20
0.0
450
        0
451
        0
460
0.0
461
0.0
452
        0
462
0.0
453
        0
470

  0
SPLINE
  5
183
330
17D
100
AcDbEntity
  8
Слой 2
100
AcDbSpline
210
0.0
220
0.0
230
1.0
 70
     9
 71
     3
 72
    41
 73
    37
 74
     0
 42
0.0000000001
 43
0.0000000001
 40
0.0
 40
0.0
 40
0.0
 40
0.0
 40
1.0
 40
1.0
 40
1.0
 40
2.0
 40
2.0
 40
2.0
 40
3.0
 40
3.0
 40
3.0
 40
4.0
 40
4.0
 40
4.0
 40
5.0
 40
5.0
 40
5.0
 40
6.0
 40
6.0
 40
6.0
 40
7.0
 40
7.0
 40
7.0
 40
8.0
 40
8.0
 40
8.0
 40
9.0
 40
9.0
 40
9.0
 40
10.0
 40
10.0
 40
10.0
 40
11.0
 40
11.0
 40
11.0
 40
12.0
 40
12.0
 40
12.0
 40
12.0
 10
20.81716444206114
 20
-239.6644376891272
 30
0.0
 10
20.81716444206114
 20
-239.6644376891272
 30
0.0
 10
14.6528668215477
 20
-239.6644376891272
 30
0.0
 10
14.6528668215477
 20
-239.6644376891272
 30
0.0
 10
14.53031182467433
 20
-239.6644376891272
 30
0.0
 10
14.43065210499464
 20
-239.5647779669295
 30
0.0
 10
14.43065210499464
 20
-239.4422229669606
 30
0.0
 10
14.43065210499464
 20
-239.4422229669606
 30
0.0
 10
14.43065210499464
 20
-235.1545265791437
 30
0.0
 10
14.43065210499464
 20
-235.1545265791437
 30
0.0
 10
14.43065210499464
 20
-235.0321126902848
 30
0.0
 10
14.53031182467433
 20
-234.9326999125317
 30
0.0
 10
14.6528668215477
 20
-234.9326999125317
 30
0.0
 10
14.7753512628673
 20
-234.9326999125317
 30
0.0
 10
14.87508153810075
 20
-235.0321126902848
 30
0.0
 10
14.87508153810075
 20
-235.1545265791437
 30
0.0
 10
14.87508153810075
 20
-235.1545265791437
 30
0.0
 10
14.87508153810075
 20
-239.2200082447939
 30
0.0
 10
14.87508153810075
 20
-239.2200082447939
 30
0.0
 10
14.87508153810075
 20
-239.2200082447939
 30
0.0
 10
20.59494972550809
 20
-239.2200082447939
 30
0.0
 10
20.59494972550809
 20
-239.2200082447939
 30
0.0
 10
20.59494972550809
 20
-239.2200082447939
 30
0.0
 10
20.59494972550809
 20
-235.1545265791437
 30
0.0
 10
20.59494972550809
 20
-235.1545265791437
 30
0.0
 10
20.59494972550809
 20
-235.0321126902848
 30
0.0
 10
20.69471527851841
 20
-234.9326999125317
 30
0.0
 10
20.81716444206114
 20
-234.9326999125317
 30
0.0
 10
20.93968416115763
 20
-234.9326999125317
 30
0.0
 10
21.03937915861419
 20
-235.0321126902848
 30
0.0
 10
21.03937915861419
 20
-235.1545265791437
 30
0.0
 10
21.03937915861419
 20
-235.1545265791437
 30
0.0
 10
21.03937915861419
 20
-239.4422229669606
 30
0.0
 10
21.03937915861419
 20
-239.4422229669606
 30
0.0
 10
21.03937915861419
 20
-239.5647779669295
 30
0.0
 10
20.93968416115763
 20
-239.6644376891272
 30
0.0
 10
20.81716444206114
 20
-239.6644376891272
 30
0.0
  0
HATCH
  5
184
330
17D
100
AcDbEntity
  8
Слой 2
 62
   250
420
  3947579
440
 33554687
100
AcDbHatch
 10
0.0
 20
0.0
 30
0.0
210
0.0
220
0.0
230
1.0
  2
SOLID
 70
     1
 71
     1
 91
        1
 92
        1
 93
        1
 72
     4
 94
        3
 73
     0
 74
     0
 95
       41
 96
       37
 40
0.0
 40
0.0
 40
0.0
 40
0.0
 40
1.0
 40
1.0
 40
1.0
 40
2.0
 40
2.0
 40
2.0
 40
3.0
 40
3.0
 40
3.0
 40
4.0
 40
4.0
 40
4.0
 40
5.0
 40
5.0
 40
5.0
 40
6.0
 40
6.0
 40
6.0
 40
7.0
 40
7.0
 40
7.0
 40
8.0
 40
8.0
 40
8.0
 40
9.0
 40
9.0
 40
9.0
 40
10.0
 40
10.0
 40
10.0
 40
11.0
 40
11.0
 40
11.0
 40
12.0
 40
12.0
 40
12.0
 40
12.0
 10
20.81716444206114
 20
-239.6644376891272
 10
20.81716444206114
 20
-239.6644376891272
 10
14.6528668215477
 20
-239.6644376891272
 10
14.6528668215477
 20
-239.6644376891272
 10
14.53031182467433
 20
-239.6644376891272
 10
14.43065210499464
 20
-239.5647779669295
 10
14.43065210499464
 20
-239.4422229669606
 10
14.43065210499464
 20
-239.4422229669606
 10
14.43065210499464
 20
-235.1545265791437
 10
14.43065210499464
 20
-235.1545265791437
 10
14.43065210499464
 20
-235.0321126902848
 10
14.53031182467433
 20
-234.9326999125317
 10
14.6528668215477
 20
-234.9326999125317
 10
14.7753512628673
 20
-234.9326999125317
 10
14.87508153810075
 20
-235.0321126902848
 10
14.87508153810075
 20
-235.1545265791437
 10
14.87508153810075
 20
-235.1545265791437
 10
14.87508153810075
 20
-239.2200082447939
 10
14.87508153810075
 20
-239.2200082447939
 10
14.87508153810075
 20
-239.2200082447939
 10
20.59494972550809
 20
-239.2200082447939
 10
20.59494972550809
 20
-239.2200082447939
 10
20.59494972550809
 20
-239.2200082447939
 10
20.59494972550809
 20
-235.1545265791437
 10
20.59494972550809
 20
-235.1545265791437
 10
20.59494972550809
 20
-235.0321126902848
 10
20.69471527851841
 20
-234.9326999125317
 10
20.81716444206114
 20
-234.9326999125317
 10
20.93968416115763
 20
-234.9326999125317
 10
21.03937915861419
 20
-235.0321126902848
 10
21.03937915861419
 20
-235.1545265791437
 10
21.03937915861419
 20
-235.1545265791437
 10
21.03937915861419
 20
-239.4422229669606
 10
21.03937915861419
 20
-239.4422229669606
 10
21.03937915861419
 20
-239.5647779669295
 10
20.93968416115763
 20
-239.6644376891272
 10
20.81716444206114
 20
-239.6644376891272
 97
        0
 97
        1
330
183
 75
     2
 76
     1
 98
        1
 10
0.0
 20
0.0
450
        0
451
        0
460
0.0
461
0.0
452
        0
462
0.0
453
        0
470

  0
ENDBLK
  5
180
330
17D
100
AcDbEntity
  8
0
100
AcDbBlockEnd
  0
ENDSEC
  0
SECTION
  2
ENTITIES
  0
LWPOLYLINE
  5
79
330
70
100
AcDbEntity
  8
Слой 3
100
AcDbPolyline
 90
        4
 70
     1
 43
0.0
 10
210.7588863604421
 20
-252.9647796302453
 10
0.785886412935537
 20
-252.9647796302453
 10
0.785886412935537
 20
-42.99177968273838
 10
210.7588863604421
 20
-42.99177968273838
  0
LINE
  5
7B
330
70
100
AcDbEntity
  8
Слой 1
 62
     8
420
  7368559
370
    18
100
AcDbLine
 10
157.7215802031325
 20
-185.5905074366209
 30
0.0
 11
173.4799784606921
 21
-185.5905074366209
 31
0.0
  0
LINE
  5
7C
330
70
100
AcDbEntity
  8
Слой 1
 62
     8
420
  7368559
370
    18
100
AcDbLine
 10
84.78426201020839
 20
-94.11327456193212
 30
0.0
 11
159.181172799711
 21
-94.11324478082795
 31
0.0
  0
LINE
  5
7D
330
70
100
AcDbEntity
  8
Слой 1
 62
     8
420
  7368559
370
    18
100
AcDbLine
 10
84.78425923806309
 20
-92.31018516210776
 30
0.0
 11
84.7842623361806
 21
-102.9135907765251
 31
0.0
  0
LINE
  5
7E
330
70
100
AcDbEntity
  8
Слой 1
 62
     8
420
  7368559
370
    18
100
AcDbLine
 10
159.013491179701
 20
-92.39948918903271
 30
0.0
 11
159.013493951828
 21
-104.5224577278373
 31
0.0
  0
MTEXT
  5
7F
330
70
100
AcDbEntity
  8
Слой 1
100
AcDbMText
 10
120.3283410937108
 20
-93.37220761825852
 30
0.0
 40
0.2
 41
0.0
 46
0.0
 71
     7
 72
     1
  1
\C8;\c7303024;\FDINPro-Regular|b0|i0|c1;\H2.997200;\W1.000000;113
 73
     1
 44
1.0
  0
LINE
  5
80
330
70
100
AcDbEntity
  8
Слой 1
 62
     8
420
  7368559
370
    18
100
AcDbLine
 10
172.3480733449585
 20
-185.5905074366209
 30
0.0
 11
172.3480733449585
 21
-103.0111091104397
 31
0.0
  0
LINE
  5
81
330
70
100
AcDbEntity
  8
Слой 1
 62
     8
420
  7368559
370
    18
100
AcDbLine
 10
157.7215815537255
 20
-103.0111110853583
 30
0.0
 11
173.2632985641364
 21
-103.0111110853583
 31
0.0
  0
MTEXT
  5
82
330
70
100
AcDbEntity
  8
Слой 1
100
AcDbMText
 10
171.3610626640011
 20
-147.7653779375688
 30
0.0
 40
0.2
 41
0.0
 46
0.0
 71
     7
 72
     1
  1
\C8;\c7303024;\FDINPro-Regular|b0|i0|c1;\H2.997200;\W1.027570;125
 11
0.0000000000000001
 21
1.0
 31
0.0
 73
     1
 44
1.0
  0
LINE
  5
83
330
70
100
AcDbEntity
  8
Слой 1
 62
     8
420
  7368559
370
    18
100
AcDbLine
 10
160.5138595280265
 20
-229.5407406833553
 30
0.0
 11
173.4799412379614
 21
-229.5407406833553
 31
0.0
  0
LINE
  5
84
330
70
100
AcDbEntity
  8
Слой 1
 62
     8
420
  7368559
370
    18
100
AcDbLine
 10
172.5486034528308
 20
-229.5591973493898
 30
0.0
 11
172.5486034528308
 21
-201.5536697665721
 31
0.0
  0
LINE
  5
85
330
70
100
AcDbEntity
  8
Слой 1
 62
     8
420
  7368559
370
    18
100
AcDbLine
 10
160.5138595280265
 20
-201.5536704363352
 30
0.0
 11
173.3016549229676
 21
-201.5536704363352
 31
0.0
  0
MTEXT
  5
86
330
70
100
AcDbEntity
  8
Слой 1
100
AcDbMText
 10
171.3863302862007
 20
-219.0358658137035
 30
0.0
 40
0.2
 41
0.0
 46
0.0
 71
     7
 72
     1
  1
\C8;\c7303024;\FDINPro-Regular|b0|i0|c1;\H2.997200;\W1.027570;42
 11
0.0000000000000001
 21
1.0
 31
0.0
 73
     1
 44
1.0
  0
INSERT
  5
88
330
70
100
AcDbEntity
  8
Слой 1
100
AcDbBlockReference
  2
Block_0
 10
0.0
 20
0.0
 30
0.0
  0
INSERT
  5
D7
330
70
100
AcDbEntity
  8
Слой 1
100
AcDbBlockReference
  2
Block_6
 10
0.0
 20
0.0
 30
0.0
  0
INSERT
  5
FC
330
70
100
AcDbEntity
  8
Слой 1
100
AcDbBlockReference
  2
Block_7
 10
0.0
 20
0.0
 30
0.0
  0
INSERT
  5
143
330
70
100
AcDbEntity
  8
Слой 2
100
AcDbBlockReference
  2
Block_8
 10
0.0
 20
0.0
 30
0.0
  0
MTEXT
  5
166
330
70
100
AcDbEntity
  8
Слой 2
100
AcDbMText
 10
9.781358165414903
 20
-58.55216461413258
 30
0.0
 40
0.2
 41
0.0
 46
0.0
 71
     7
 72
     1
  1
\C250;\c3882044;\FDINPro-Light|b0|i0|c1;\H5.494867;\W1.000000;ИСТОЧНИКИ НАПРЯЖЕНИЯ 
 73
     1
 44
1.0
  0
MTEXT
  5
167
330
70
100
AcDbEntity
  8
Слой 2
100
AcDbMText
 10
9.781358165414903
 20
-67.86563574895699
 30
0.0
 40
0.2
 41
0.0
 46
0.0
 71
     7
 72
     1
  1
\C250;\c3882044;\FDINPro-Light|b0|i0|c1;\H5.494867;\W1.000000;СЕРИИ ARV-DRP
 73
     1
 44
1.0
  0
MTEXT
  5
168
330
70
100
AcDbEntity
  8
Слой 2
100
AcDbMText
 10
9.781358165414903
 20
-77.17876237423287
 30
0.0
 40
0.2
 41
0.0
 46
0.0
 71
     7
 72
     1
  1
\C250;\c3882044;\FDINPro-Light|b0|i0|c1;\H5.494867;\W1.000000;ARV-DRP75/120-24/48-B
 73
     1
 44
1.0
  0
INSERT
  5
16A
330
70
100
AcDbEntity
  8
Слой 2
100
AcDbBlockReference
  2
Block_11
 10
0.0
 20
0.0
 30
0.0
  0
ENDSEC
  0
SECTION
  2
OBJECTS
  0
DICTIONARY
  5
C
330
0
100
AcDbDictionary
281
     1
  3
ACAD_COLOR
350
63
  3
ACAD_DETAILVIEWSTYLE
350
6A
  3
ACAD_GROUP
350
D
  3
ACAD_LAYOUT
350
62
  3
ACAD_MATERIAL
350
10
  3
ACAD_MLEADERSTYLE
350
66
  3
ACAD_MLINESTYLE
350
5F
  3
ACAD_PLOTSETTINGS
350
61
  3
ACAD_PLOTSTYLENAME
350
E
  3
ACAD_SCALELIST
350
42
  3
ACAD_SECTIONVIEWSTYLE
350
68
  3
ACAD_TABLESTYLE
350
64
  3
ACAD_VISUALSTYLE
350
29
  3
ACDB_RECOMPOSE_DATA
350
18D
  3
AcDbVariableDictionary
350
185
  0
DICTIONARY
  5
63
102
{ACAD_REACTORS
330
C
102
}
330
C
100
AcDbDictionary
281
     1
  0
DICTIONARY
  5
6A
102
{ACAD_REACTORS
330
C
102
}
330
C
100
AcDbDictionary
281
     1
  3
Imperial24
350
6B
  0
DICTIONARY
  5
D
102
{ACAD_REACTORS
330
C
102
}
330
C
100
AcDbDictionary
281
     1
  0
DICTIONARY
  5
62
102
{ACAD_REACTORS
330
C
102
}
330
C
100
AcDbDictionary
281
     1
  3
Layout1
350
6F
  3
Layout2
350
77
  3
Model
350
73
  0
DICTIONARY
  5
10
102
{ACAD_REACTORS
330
C
102
}
330
C
100
AcDbDictionary
281
     1
  3
ByBlock
350
19
  3
ByLayer
350
11
  3
Global
350
21
  0
DICTIONARY
  5
66
102
{ACAD_REACTORS
330
C
102
}
330
C
100
AcDbDictionary
281
     1
  3
Standard
350
67
  0
DICTIONARY
  5
5F
102
{ACAD_REACTORS
330
C
102
}
330
C
100
AcDbDictionary
281
     1
  3
Standard
350
60
  0
DICTIONARY
  5
61
102
{ACAD_REACTORS
330
C
102
}
330
C
100
AcDbDictionary
281
     1
  0
ACDBDICTIONARYWDFLT
  5
E
102
{ACAD_REACTORS
330
C
102
}
330
C
100
AcDbDictionary
281
     1
  3
Normal
350
F
100
AcDbDictionaryWithDefault
340
F
  0
DICTIONARY
  5
42
102
{ACAD_REACTORS
330
C
102
}
330
C
100
AcDbDictionary
281
     1
  3
A0
350
43
  3
A1
350
44
  3
A2
350
45
  3
A3
350
46
  3
A4
350
47
  3
A5
350
48
  3
A6
350
49
  3
A7
350
4A
  3
A8
350
4B
  3
A9
350
4C
  3
B0
350
4D
  3
B1
350
4E
  3
B2
350
4F
  3
B3
350
50
  3
B4
350
51
  3
B5
350
52
  3
B6
350
53
  0
DICTIONARY
  5
68
102
{ACAD_REACTORS
330
C
102
}
330
C
100
AcDbDictionary
281
     1
  3
Imperial24
350
69
  0
DICTIONARY
  5
64
102
{ACAD_REACTORS
330
C
102
}
330
C
100
AcDbDictionary
281
     1
  3
Standard
350
65
  0
DICTIONARY
  5
29
102
{ACAD_REACTORS
330
C
102
}
330
C
100
AcDbDictionary
281
     1
  3
2dWireframe
350
2F
  3
Basic
350
2E
  3
Brighten
350
35
  3
ColorChange
350
39
  3
Conceptual
350
32
  3
Dim
350
34
  3
EdgeColorOff
350
41
  3
Facepattern
350
38
  3
Flat
350
2A
  3
FlatWithEdges
350
2B
  3
Gouraud
350
2C
  3
GouraudWithEdges
350
2D
  3
Hidden
350
31
  3
JitterOff
350
3F
  3
Linepattern
350
37
  3
OverhangOff
350
40
  3
Realistic
350
33
  3
Shaded
350
3E
  3
Shaded with edges
350
3D
  3
Shades of Gray
350
3A
  3
Sketchy
350
3B
  3
Thicken
350
36
  3
Wireframe
350
30
  3
X-Ray
350
3C
  0
XRECORD
  5
18D
102
{ACAD_REACTORS
330
C
102
}
330
C
100
AcDbXrecord
280
     1
 90
        1
330
65
  0
DICTIONARY
  5
185
102
{ACAD_REACTORS
330
C
102
}
330
C
100
AcDbDictionary
281
     1
  3
CANNOSCALE
350
18A
  3
CMLEADERSTYLE
350
187
  3
CTABLESTYLE
350
186
  3
CVIEWDETAILSTYLE
350
188
  3
CVIEWSECTIONSTYLE
350
189
  0
ACDBDETAILVIEWSTYLE
  5
6B
102
{ACAD_REACTORS
330
6A
102
}
330
6A
100
AcDbModelDocViewStyle
 70
     0
  3
Imperial24
290
     1
300
Imperial24
 90
        0
100
AcDbDetailViewStyle
 70
     0
 71
     0
 90
        3
 71
     1
340
55
 62
   256
 40
0.24
340
0
 62
   256
 40
0.24
300

 40
0.36
280
     3
 71
     2
340
5D
 90
       25
 62
   256
 71
     3
340
55
 62
   256
 40
0.24
 90
        1
 40
0.75
 90
        1
300
%<\AcVar ViewType \f "%tc1">% %<\AcVar ViewDetailId>%\PSCALE %<\AcVar ViewScale \f "%sn">%
 71
     4
340
5D
 90
       25
 62
   256
340
5D
 90
       25
 62
   256
280
     0
  0
LAYOUT
  5
6F
102
{ACAD_REACTORS
330
62
102
}
330
62
100
AcDbPlotSettings
  1

  2

  4

  6

 40
0.0
 41
0.0
 42
0.0
 43
0.0
 44
0.0
 45
0.0
 46
0.0
 47
0.0
 48
0.0
 49
0.0
140
0.0
141
0.0
142
1.0
143
1.0
 70
   688
 72
     0
 73
     0
 74
     5
  7

 75
    16
147
1.0
 76
     0
 77
     2
 78
   300
148
0.0
149
0.0
100
AcDbLayout
  1
Layout1
 70
     1
 71
     1
 10
0.0
 20
0.0
 11
12.0
 21
9.0
 12
0.0
 22
0.0
 32
0.0
 14
0.0
 24
0.0
 34
0.0
 15
0.0
 25
0.0
 35
0.0
146
0.0
 13
0.0
 23
0.0
 33
0.0
 16
1.0
 26
0.0
 36
0.0
 17
0.0
 27
1.0
 37
0.0
 76
     0
330
6C
  0
LAYOUT
  5
77
102
{ACAD_REACTORS
330
62
102
}
330
62
100
AcDbPlotSettings
  1

  2

  4

  6

 40
0.0
 41
0.0
 42
0.0
 43
0.0
 44
0.0
 45
0.0
 46
0.0
 47
0.0
 48
0.0
 49
0.0
140
0.0
141
0.0
142
1.0
143
1.0
 70
   688
 72
     0
 73
     0
 74
     5
  7

 75
    16
147
1.0
 76
     0
 77
     2
 78
   300
148
0.0
149
0.0
100
AcDbLayout
  1
Layout2
 70
     1
 71
     2
 10
0.0
 20
0.0
 11
12.0
 21
9.0
 12
0.0
 22
0.0
 32
0.0
 14
0.0
 24
0.0
 34
0.0
 15
0.0
 25
0.0
 35
0.0
146
0.0
 13
0.0
 23
0.0
 33
0.0
 16
1.0
 26
0.0
 36
0.0
 17
0.0
 27
1.0
 37
0.0
 76
     0
330
74
  0
LAYOUT
  5
73
102
{ACAD_REACTORS
330
62
102
}
330
62
100
AcDbPlotSettings
  1

  2

  4

  6

 40
0.0
 41
0.0
 42
0.0
 43
0.0
 44
0.0
 45
0.0
 46
0.0
 47
0.0
 48
0.0
 49
0.0
140
0.0
141
0.0
142
1.0
143
1.0
 70
  1712
 72
     0
 73
     0
 74
     0
  7

 75
     0
147
1.0
 76
     0
 77
     2
 78
   300
148
0.0
149
0.0
100
AcDbLayout
  1
Model
 70
     1
 71
     0
 10
0.0
 20
0.0
 11
12.0
 21
9.0
 12
0.0
 22
0.0
 32
0.0
 14
0.0
 24
0.0
 34
0.0
 15
0.0
 25
0.0
 35
0.0
146
0.0
 13
0.0
 23
0.0
 33
0.0
 16
1.0
 26
0.0
 36
0.0
 17
0.0
 27
1.0
 37
0.0
 76
     0
330
70
  0
MATERIAL
  5
19
102
{ACAD_XDICTIONARY
360
1A
102
}
102
{ACAD_REACTORS
330
10
102
}
330
10
100
AcDbMaterial
  1
ByBlock
 72
     0
 43
0.0208333333333333
 43
0.0
 43
0.0
 43
0.0
 43
0.0
 43
0.0208333333333333
 43
0.0
 43
0.0
 43
0.0
 43
0.0
 43
1.0
 43
0.0
 43
0.0
 43
0.0
 43
0.0
 43
1.0
 77
     0
 47
0.0208333333333333
 47
0.0
 47
0.0
 47
0.0
 47
0.0
 47
0.0208333333333333
 47
0.0
 47
0.0
 47
0.0
 47
0.0
 47
1.0
 47
0.0
 47
0.0
 47
0.0
 47
0.0
 47
1.0
171
     0
 49
0.0208333333333333
 49
0.0
 49
0.0
 49
0.0
 49
0.0
 49
0.0208333333333333
 49
0.0
 49
0.0
 49
0.0
 49
0.0
 49
1.0
 49
0.0
 49
0.0
 49
0.0
 49
0.0
 49
1.0
175
     0
142
0.0208333333333333
142
0.0
142
0.0
142
0.0
142
0.0
142
0.0208333333333333
142
0.0
142
0.0
142
0.0
142
0.0
142
1.0
142
0.0
142
0.0
142
0.0
142
0.0
142
1.0
179
     0
144
0.0208333333333333
144
0.0
144
0.0
144
0.0
144
0.0
144
0.0208333333333333
144
0.0
144
0.0
144
0.0
144
0.0
144
1.0
144
0.0
144
0.0
144
0.0
144
0.0
144
1.0
147
0.0208333333333333
147
0.0
147
0.0
147
0.0
147
0.0
147
0.0208333333333333
147
0.0
147
0.0
147
0.0
147
0.0
147
1.0
147
0.0
147
0.0
147
0.0
147
0.0
147
1.0
  0
MATERIAL
  5
11
102
{ACAD_XDICTIONARY
360
12
102
}
102
{ACAD_REACTORS
330
10
102
}
330
10
100
AcDbMaterial
  1
ByLayer
 72
     0
 43
0.0208333333333333
 43
0.0
 43
0.0
 43
0.0
 43
0.0
 43
0.0208333333333333
 43
0.0
 43
0.0
 43
0.0
 43
0.0
 43
1.0
 43
0.0
 43
0.0
 43
0.0
 43
0.0
 43
1.0
 77
     0
 47
0.0208333333333333
 47
0.0
 47
0.0
 47
0.0
 47
0.0
 47
0.0208333333333333
 47
0.0
 47
0.0
 47
0.0
 47
0.0
 47
1.0
 47
0.0
 47
0.0
 47
0.0
 47
0.0
 47
1.0
171
     0
 49
0.0208333333333333
 49
0.0
 49
0.0
 49
0.0
 49
0.0
 49
0.0208333333333333
 49
0.0
 49
0.0
 49
0.0
 49
0.0
 49
1.0
 49
0.0
 49
0.0
 49
0.0
 49
0.0
 49
1.0
175
     0
142
0.0208333333333333
142
0.0
142
0.0
142
0.0
142
0.0
142
0.0208333333333333
142
0.0
142
0.0
142
0.0
142
0.0
142
1.0
142
0.0
142
0.0
142
0.0
142
0.0
142
1.0
179
     0
144
0.0208333333333333
144
0.0
144
0.0
144
0.0
144
0.0
144
0.0208333333333333
144
0.0
144
0.0
144
0.0
144
0.0
144
1.0
144
0.0
144
0.0
144
0.0
144
0.0
144
1.0
147
0.0208333333333333
147
0.0
147
0.0
147
0.0
147
0.0
147
0.0208333333333333
147
0.0
147
0.0
147
0.0
147
0.0
147
1.0
147
0.0
147
0.0
147
0.0
147
0.0
147
1.0
  0
MATERIAL
  5
21
102
{ACAD_XDICTIONARY
360
22
102
}
102
{ACAD_REACTORS
330
10
102
}
330
10
100
AcDbMaterial
  1
Global
 72
     0
 43
0.0208333333333333
 43
0.0
 43
0.0
 43
0.0
 43
0.0
 43
0.0208333333333333
 43
0.0
 43
0.0
 43
0.0
 43
0.0
 43
1.0
 43
0.0
 43
0.0
 43
0.0
 43
0.0
 43
1.0
 77
     0
 47
0.0208333333333333
 47
0.0
 47
0.0
 47
0.0
 47
0.0
 47
0.0208333333333333
 47
0.0
 47
0.0
 47
0.0
 47
0.0
 47
1.0
 47
0.0
 47
0.0
 47
0.0
 47
0.0
 47
1.0
171
     0
 49
0.0208333333333333
 49
0.0
 49
0.0
 49
0.0
 49
0.0
 49
0.0208333333333333
 49
0.0
 49
0.0
 49
0.0
 49
0.0
 49
1.0
 49
0.0
 49
0.0
 49
0.0
 49
0.0
 49
1.0
175
     0
142
0.0208333333333333
142
0.0
142
0.0
142
0.0
142
0.0
142
0.0208333333333333
142
0.0
142
0.0
142
0.0
142
0.0
142
1.0
142
0.0
142
0.0
142
0.0
142
0.0
142
1.0
179
     0
144
0.0208333333333333
144
0.0
144
0.0
144
0.0
144
0.0
144
0.0208333333333333
144
0.0
144
0.0
144
0.0
144
0.0
144
1.0
144
0.0
144
0.0
144
0.0
144
0.0
144
1.0
147
0.0208333333333333
147
0.0
147
0.0
147
0.0
147
0.0
147
0.0208333333333333
147
0.0
147
0.0
147
0.0
147
0.0
147
1.0
147
0.0
147
0.0
147
0.0
147
0.0
147
1.0
  0
MLEADERSTYLE
  5
67
102
{ACAD_REACTORS
330
66
102
}
330
66
100
AcDbMLeaderStyle
179
     2
170
     2
171
     1
172
     0
 90
        2
 40
0.0
 41
0.0
173
     1
 91
-1056964608
340
5B
 92
       -2
290
     1
 42
0.09
291
     1
 43
0.36
  3
Standard
 44
0.18
300

342
55
174
     1
178
     6
175
     1
176
     0
 93
-1056964608
 45
0.18
292
     0
297
     0
 46
0.18
 94
-1056964608
 47
1.0
 49
1.0
140
1.0
293
     1
141
0.0
294
     1
177
     0
142
1.0
295
     1
296
     0
143
0.125
271
     0
272
     9
273
     9
298
     1
  0
MLINESTYLE
  5
60
102
{ACAD_REACTORS
330
5F
102
}
330
5F
100
AcDbMlineStyle
  2
STANDARD
 70
     0
  3

 62
   256
 51
90.0
 52
90.0
 71
     2
 49
0.5
 62
   256
  6
BYLAYER
 49
-0.5
 62
   256
  6
BYLAYER
  0
ACDBPLACEHOLDER
  5
F
102
{ACAD_REACTORS
330
E
102
}
330
E
  0
SCALE
  5
43
102
{ACAD_REACTORS
330
42
102
}
330
42
100
AcDbScale
 70
     0
300
1:1
140
1.0
141
1.0
290
     1
  0
SCALE
  5
44
102
{ACAD_REACTORS
330
42
102
}
330
42
100
AcDbScale
 70
     0
300
1/128" = 1'-0"
140
0.0078125
141
12.0
290
     0
  0
SCALE
  5
45
102
{ACAD_REACTORS
330
42
102
}
330
42
100
AcDbScale
 70
     0
300
1/64" = 1'-0"
140
0.015625
141
12.0
290
     0
  0
SCALE
  5
46
102
{ACAD_REACTORS
330
42
102
}
330
42
100
AcDbScale
 70
     0
300
1/32" = 1'-0"
140
0.03125
141
12.0
290
     0
  0
SCALE
  5
47
102
{ACAD_REACTORS
330
42
102
}
330
42
100
AcDbScale
 70
     0
300
1/16" = 1'-0"
140
0.0625
141
12.0
290
     0
  0
SCALE
  5
48
102
{ACAD_REACTORS
330
42
102
}
330
42
100
AcDbScale
 70
     0
300
3/32" = 1'-0"
140
0.09375
141
12.0
290
     0
  0
SCALE
  5
49
102
{ACAD_REACTORS
330
42
102
}
330
42
100
AcDbScale
 70
     0
300
1/8" = 1'-0"
140
0.125
141
12.0
290
     0
  0
SCALE
  5
4A
102
{ACAD_REACTORS
330
42
102
}
330
42
100
AcDbScale
 70
     0
300
3/16" = 1'-0"
140
0.1875
141
12.0
290
     0
  0
SCALE
  5
4B
102
{ACAD_REACTORS
330
42
102
}
330
42
100
AcDbScale
 70
     0
300
1/4" = 1'-0"
140
0.25
141
12.0
290
     0
  0
SCALE
  5
4C
102
{ACAD_REACTORS
330
42
102
}
330
42
100
AcDbScale
 70
     0
300
3/8" = 1'-0"
140
0.375
141
12.0
290
     0
  0
SCALE
  5
4D
102
{ACAD_REACTORS
330
42
102
}
330
42
100
AcDbScale
 70
     0
300
1/2" = 1'-0"
140
0.5
141
12.0
290
     0
  0
SCALE
  5
4E
102
{ACAD_REACTORS
330
42
102
}
330
42
100
AcDbScale
 70
     0
300
3/4" = 1'-0"
140
0.75
141
12.0
290
     0
  0
SCALE
  5
4F
102
{ACAD_REACTORS
330
42
102
}
330
42
100
AcDbScale
 70
     0
300
1" = 1'-0"
140
1.0
141
12.0
290
     0
  0
SCALE
  5
50
102
{ACAD_REACTORS
330
42
102
}
330
42
100
AcDbScale
 70
     0
300
1-1/2" = 1'-0"
140
1.5
141
12.0
290
     0
  0
SCALE
  5
51
102
{ACAD_REACTORS
330
42
102
}
330
42
100
AcDbScale
 70
     0
300
3" = 1'-0"
140
3.0
141
12.0
290
     0
  0
SCALE
  5
52
102
{ACAD_REACTORS
330
42
102
}
330
42
100
AcDbScale
 70
     0
300
6" = 1'-0"
140
6.0
141
12.0
290
     0
  0
SCALE
  5
53
102
{ACAD_REACTORS
330
42
102
}
330
42
100
AcDbScale
 70
     0
300
1'-0" = 1'-0"
140
12.0
141
12.0
290
     0
  0
ACDBSECTIONVIEWSTYLE
  5
69
102
{ACAD_REACTORS
330
68
102
}
330
68
100
AcDbModelDocViewStyle
 70
     0
  3
Imperial24
290
     1
300
Imperial24
 90
        0
100
AcDbSectionViewStyle
 70
     0
 71
     0
 90
       78
 71
     1
340
55
 62
   256
 40
0.24
340
0
340
0
 62
   256
 40
0.24
300
I, O, Q, S, X, Z
 40
0.48
 90
        3
 40
0.18
 90
        1
 71
     2
340
5D
 90
       25
 62
   256
340
5D
 90
       50
 62
   256
 40
0.24
 40
0.0
 40
0.24
 71
     3
340
55
 62
   256
 40
0.24
 90
        1
 40
0.75
 90
        1
300
%<\AcVar ViewType \f "%tc1">% %<\AcVar ViewSectionStartId>%-%<\AcVar ViewSectionEndId>%\PSCALE %<\AcVar ViewScale \f "%sn">%
 71
     4
 62
   256
 62
   257
300
ANSI31
 40
1.0
 90
        0
290
     0
290
     0
 90
        6
 40
0.0
 40
1.570796326794896
 40
0.2617993877991494
 40
1.308996938995747
 40
-0.2617993877991494
 40
1.832595714594046
  0
TABLESTYLE
  5
65
102
{ACAD_XDICTIONARY
360
18B
102
}
102
{ACAD_REACTORS
330
64
102
}
330
64
100
AcDbTableStyle
280
     0
  3
Standard
 70
     0
 71
     0
 40
0.06
 41
0.06
280
     0
281
     0
  7
Standard
140
0.18
170
     2
 62
     0
 63
     7
283
     0
 90
      512
 91
        0
  1

274
    -2
284
     1
 64
     0
275
    -2
285
     1
 65
     0
276
    -2
286
     1
 66
     0
277
    -2
287
     1
 67
     0
278
    -2
288
     1
 68
     0
279
    -2
289
     1
 69
     0
  7
Standard
140
0.25
170
     5
 62
     0
 63
     7
283
     0
 90
      512
 91
        0
  1

274
    -2
284
     1
 64
     0
275
    -2
285
     1
 65
     0
276
    -2
286
     1
 66
     0
277
    -2
287
     1
 67
     0
278
    -2
288
     1
 68
     0
279
    -2
289
     1
 69
     0
  7
Standard
140
0.18
170
     5
 62
     0
 63
     7
283
     0
 90
      512
 91
        0
  1

274
    -2
284
     1
 64
     0
275
    -2
285
     1
 65
     0
276
    -2
286
     1
 66
     0
277
    -2
287
     1
 67
     0
278
    -2
288
     1
 68
     0
279
    -2
289
     1
 69
     0
  0
VISUALSTYLE
  5
2F
102
{ACAD_REACTORS
330
29
102
}
330
29
100
AcDbVisualStyle
  2
2dWireframe
 70
     4
177
     3
291
     0
 70
    58
 90
        0
176
     1
 90
        2
176
     1
 90
        0
176
     1
 90
        0
176
     1
 40
0.6
176
     1
 40
30.0
176
     1
 62
     7
420
 16777215
176
     1
 90
        1
176
     1
 90
        4
176
     1
 62
     7
176
     1
 62
   257
176
     1
 90
        1
176
     1
 90
        1
176
     1
 40
1.0
176
     1
 90
        0
176
     1
 62
   257
176
     1
 40
1.0
176
     1
 90
        1
176
     1
 90
        6
176
     1
 90
        2
176
     1
 62
     7
176
     1
 90
        5
176
     1
 90
        0
176
     1
 90
        0
176
     1
290
     0
176
     1
 90
        1
176
     1
 40
0.0
176
     1
 90
        0
176
     1
290
     1
176
     1
290
     1
176
     1
290
     0
176
     1
290
     0
176
     1
290
     0
176
     1
290
     0
176
     1
290
     0
176
     1
290
     0
176
     1
290
     0
176
     1
 90
       50
176
     1
 40
0.0
176
     1
 40
1.0
176
     1
 90
        0
176
     1
 62
    18
420
        0
176
     1
 90
       50
176
     1
 90
        3
176
     1
 62
     5
420
      255
176
     1
290
     0
176
     1
 90
       50
176
     1
 90
       50
176
     1
 90
       50
176
     1
290
     0
176
     1
 90
       50
176
     1
 62
   256
176
     0
 40
1.0
176
     0
 90
        2
176
     1
  1
strokes_ogs.tif
176
     1
290
     0
176
     1
 40
1.0
176
     1
 40
1.0
176
     1
  0
VISUALSTYLE
  5
2E
102
{ACAD_REACTORS
330
29
102
}
330
29
100
AcDbVisualStyle
  2
Basic
 70
     7
177
     3
291
     1
 70
    58
 90
        1
176
     1
 90
        0
176
     1
 90
        1
176
     1
 90
        0
176
     1
 40
0.6
176
     1
 40
30.0
176
     1
 62
     7
420
 16777215
176
     1
 90
        0
176
     1
 90
        4
176
     1
 62
     7
176
     1
 62
   257
176
     1
 90
        1
176
     1
 90
        1
176
     1
 40
1.0
176
     1
 90
        8
176
     1
 62
     7
176
     1
 40
1.0
176
     1
 90
        1
176
     1
 90
        6
176
     1
 90
        2
176
     1
 62
     7
176
     1
 90
        5
176
     1
 90
        0
176
     1
 90
        0
176
     1
290
     0
176
     1
 90
        1
176
     1
 40
0.0
176
     1
 90
        0
176
     1
290
     0
176
     1
290
     1
176
     1
290
     1
176
     1
290
     0
176
     1
290
     0
176
     1
290
     0
176
     1
290
     0
176
     1
290
     0
176
     1
290
     0
176
     1
 90
       50
176
     1
 40
0.0
176
     1
 40
1.0
176
     1
 90
        0
176
     1
 62
    18
420
        0
176
     1
 90
       50
176
     1
 90
        3
176
     1
 62
     5
420
      255
176
     1
290
     0
176
     1
 90
       50
176
     1
 90
       50
176
     1
 90
       50
176
     1
290
     0
176
     1
 90
       50
176
     1
 62
   256
176
     0
 40
1.0
176
     0
 90
        2
176
     1
  1
strokes_ogs.tif
176
     1
290
     0
176
     1
 40
1.0
176
     1
 40
1.0
176
     1
  0
VISUALSTYLE
  5
35
102
{ACAD_REACTORS
330
29
102
}
330
29
100
AcDbVisualStyle
  2
Brighten
 70
    12
177
     3
291
     1
 70
    58
 90
        2
176
     1
 90
        2
176
     1
 90
        0
176
     1
 90
        0
176
     1
 40
0.6
176
     1
 40
30.0
176
     1
 62
     7
420
 16777215
176
     1
 90
        1
176
     1
 90
        4
176
     1
 62
     7
176
     1
 62
   257
176
     1
 90
        1
176
     1
 90
        1
176
     1
 40
1.0
176
     1
 90
        8
176
     1
 62
     7
176
     1
 40
1.0
176
     1
 90
        1
176
     1
 90
        6
176
     1
 90
        2
176
     1
 62
     7
176
     1
 90
        5
176
     1
 90
        0
176
     1
 90
        0
176
     1
290
     0
176
     1
 90
        1
176
     1
 40
50.0
176
     1
 90
        0
176
     1
290
     0
176
     1
290
     1
176
     1
290
     1
176
     1
290
     0
176
     1
290
     0
176
     1
290
     0
176
     1
290
     0
176
     1
290
     0
176
     1
290
     0
176
     1
 90
       50
176
     1
 40
0.0
176
     1
 40
1.0
176
     1
 90
        0
176
     1
 62
    18
420
        0
176
     1
 90
       50
176
     1
 90
        3
176
     1
 62
     5
420
      255
176
     1
290
     0
176
     1
 90
       50
176
     1
 90
       50
176
     1
 90
       50
176
     1
290
     0
176
     1
 90
       50
176
     1
 62
   256
176
     0
 40
1.0
176
     0
 90
        2
176
     1
  1
strokes_ogs.tif
176
     1
290
     0
176
     1
 40
1.0
176
     1
 40
1.0
176
     1
  0
VISUALSTYLE
  5
39
102
{ACAD_REACTORS
330
29
102
}
330
29
100
AcDbVisualStyle
  2
ColorChange
 70
    16
177
     3
291
     1
 70
    58
 90
        2
176
     1
 90
        2
176
     1
 90
        3
176
     1
 90
        0
176
     1
 40
0.6
176
     1
 40
30.0
176
     1
 62
     8
420
  8421504
176
     1
 90
        1
176
     1
 90
        4
176
     1
 62
     7
176
     1
 62
   257
176
     1
 90
        1
176
     1
 90
        1
176
     1
 40
1.0
176
     1
 90
        8
176
     1
 62
     8
420
  8421504
176
     1
 40
1.0
176
     1
 90
        1
176
     1
 90
        6
176
     1
 90
        2
176
     1
 62
     7
176
     1
 90
        5
176
     1
 90
        0
176
     1
 90
        0
176
     1
290
     0
176
     1
 90
        1
176
     1
 40
0.0
176
     1
 90
        0
176
     1
290
     0
176
     1
290
     1
176
     1
290
     1
176
     1
290
     0
176
     1
290
     0
176
     1
290
     0
176
     1
290
     0
176
     1
290
     0
176
     1
290
     0
176
     1
 90
       50
176
     1
 40
0.0
176
     1
 40
1.0
176
     1
 90
        0
176
     1
 62
    18
420
        0
176
     1
 90
       50
176
     1
 90
        3
176
     1
 62
     5
420
      255
176
     1
290
     0
176
     1
 90
       50
176
     1
 90
       50
176
     1
 90
       50
176
     1
290
     0
176
     1
 90
       50
176
     1
 62
   256
176
     0
 40
1.0
176
     0
 90
        2
176
     1
  1
strokes_ogs.tif
176
     1
290
     0
176
     1
 40
1.0
176
     1
 40
1.0
176
     1
  0
VISUALSTYLE
  5
32
102
{ACAD_REACTORS
330
29
102
}
330
29
100
AcDbVisualStyle
  2
Conceptual
 70
     9
177
     3
291
     0
 70
    58
 90
        3
176
     1
 90
        2
176
     1
 90
        0
176
     1
 90
        0
176
     1
 40
0.6
176
     1
 40
30.0
176
     1
 62
     7
420
 16777215
176
     1
 90
        2
176
     1
 90
        2
176
     1
 62
     7
176
     1
 62
   257
176
     1
 90
        1
176
     1
 90
        1
176
     1
 40
179.0
176
     1
 90
        8
176
     1
 62
     7
176
     1
 40
1.0
176
     1
 90
        1
176
     1
 90
        6
176
     1
 90
        2
176
     1
 62
     7
176
     1
 90
        3
176
     1
 90
        0
176
     1
 90
        0
176
     1
290
     0
176
     1
 90
        1
176
     1
 40
0.0
176
     1
 90
        0
176
     1
290
     0
176
     1
290
     1
176
     1
290
     1
176
     1
290
     0
176
     1
290
     0
176
     1
290
     0
176
     1
290
     0
176
     1
290
     0
176
     1
290
     0
176
     1
 90
       50
176
     1
 40
0.0
176
     1
 40
1.0
176
     1
 90
        0
176
     1
 62
    18
420
        0
176
     1
 90
       50
176
     1
 90
        3
176
     1
 62
     5
420
      255
176
     1
290
     0
176
     1
 90
       50
176
     1
 90
       50
176
     1
 90
       50
176
     1
290
     0
176
     1
 90
       50
176
     1
 62
   256
176
     0
 40
1.0
176
     0
 90
        2
176
     1
  1
strokes_ogs.tif
176
     1
290
     0
176
     1
 40
1.0
176
     1
 40
1.0
176
     1
  0
VISUALSTYLE
  5
34
102
{ACAD_REACTORS
330
29
102
}
330
29
100
AcDbVisualStyle
  2
Dim
 70
    11
177
     3
291
     1
 70
    58
 90
        2
176
     1
 90
        2
176
     1
 90
        0
176
     1
 90
        0
176
     1
 40
0.6
176
     1
 40
30.0
176
     1
 62
     7
420
 16777215
176
     1
 90
        1
176
     1
 90
        4
176
     1
 62
     7
176
     1
 62
   257
176
     1
 90
        1
176
     1
 90
        1
176
     1
 40
1.0
176
     1
 90
        8
176
     1
 62
     7
176
     1
 40
1.0
176
     1
 90
        1
176
     1
 90
        6
176
     1
 90
        2
176
     1
 62
     7
176
     1
 90
        5
176
     1
 90
        0
176
     1
 90
        0
176
     1
290
     0
176
     1
 90
        1
176
     1
 40
-50.0
176
     1
 90
        0
176
     1
290
     0
176
     1
290
     1
176
     1
290
     1
176
     1
290
     0
176
     1
290
     0
176
     1
290
     0
176
     1
290
     0
176
     1
290
     0
176
     1
290
     0
176
     1
 90
       50
176
     1
 40
0.0
176
     1
 40
1.0
176
     1
 90
        0
176
     1
 62
    18
420
        0
176
     1
 90
       50
176
     1
 90
        3
176
     1
 62
     5
420
      255
176
     1
290
     0
176
     1
 90
       50
176
     1
 90
       50
176
     1
 90
       50
176
     1
290
     0
176
     1
 90
       50
176
     1
 62
   256
176
     0
 40
1.0
176
     0
 90
        2
176
     1
  1
strokes_ogs.tif
176
     1
290
     0
176
     1
 40
1.0
176
     1
 40
1.0
176
     1
  0
VISUALSTYLE
  5
41
102
{ACAD_REACTORS
330
29
102
}
330
29
100
AcDbVisualStyle
  2
EdgeColorOff
 70
    22
177
     3
291
     1
 70
    58
 90
        2
176
     0
 90
        2
176
     0
 90
        0
176
     0
 90
        0
176
     0
 40
0.6
176
     0
 40
30.0
176
     0
 62
     7
420
 16777215
176
     0
 90
        1
176
     0
 90
        4
176
     0
 62
     7
176
     0
 62
   257
176
     0
 90
        1
176
     0
 90
        1
176
     0
 40
1.0
176
     0
 90
        8
176
     2
 62
     7
176
     0
 40
1.0
176
     0
 90
        1
176
     0
 90
        6
176
     0
 90
        2
176
     0
 62
     7
176
     0
 90
        5
176
     0
 90
        0
176
     0
 90
        0
176
     0
290
     0
176
     0
 90
        1
176
     0
 40
0.0
176
     0
 90
        0
176
     0
290
     0
176
     0
290
     1
176
     0
290
     1
176
     0
290
     0
176
     0
290
     0
176
     0
290
     0
176
     0
290
     0
176
     0
290
     0
176
     0
290
     0
176
     0
 90
       50
176
     0
 40
0.0
176
     0
 40
1.0
176
     0
 90
        0
176
     0
 62
    18
420
        0
176
     0
 90
       50
176
     0
 90
        3
176
     0
 62
     5
420
      255
176
     0
290
     0
176
     0
 90
       50
176
     0
 90
       50
176
     0
 90
       50
176
     0
290
     0
176
     0
 90
       50
176
     0
 62
   256
176
     0
 40
1.0
176
     0
 90
        2
176
     0
  1
strokes_ogs.tif
176
     0
290
     0
176
     0
 40
1.0
176
     0
 40
1.0
176
     0
  0
VISUALSTYLE
  5
38
102
{ACAD_REACTORS
330
29
102
}
330
29
100
AcDbVisualStyle
  2
Facepattern
 70
    15
177
     3
291
     1
 70
    58
 90
        2
176
     1
 90
        2
176
     1
 90
        0
176
     1
 90
        0
176
     1
 40
0.6
176
     1
 40
30.0
176
     1
 62
     7
420
 16777215
176
     1
 90
        1
176
     1
 90
        4
176
     1
 62
     7
176
     1
 62
   257
176
     1
 90
        1
176
     1
 90
        1
176
     1
 40
1.0
176
     1
 90
        8
176
     1
 62
     7
176
     1
 40
1.0
176
     1
 90
        1
176
     1
 90
        6
176
     1
 90
        2
176
     1
 62
     7
176
     1
 90
        5
176
     1
 90
        0
176
     1
 90
        0
176
     1
290
     0
176
     1
 90
        1
176
     1
 40
0.0
176
     1
 90
        0
176
     1
290
     0
176
     1
290
     1
176
     1
290
     1
176
     1
290
     0
176
     1
290
     0
176
     1
290
     0
176
     1
290
     0
176
     1
290
     0
176
     1
290
     0
176
     1
 90
       50
176
     1
 40
0.0
176
     1
 40
1.0
176
     1
 90
        0
176
     1
 62
    18
420
        0
176
     1
 90
       50
176
     1
 90
        3
176
     1
 62
     5
420
      255
176
     1
290
     0
176
     1
 90
       50
176
     1
 90
       50
176
     1
 90
       50
176
     1
290
     0
176
     1
 90
       50
176
     1
 62
   256
176
     0
 40
1.0
176
     0
 90
        2
176
     1
  1
strokes_ogs.tif
176
     1
290
     0
176
     1
 40
1.0
176
     1
 40
1.0
176
     1
  0
VISUALSTYLE
  5
2A
102
{ACAD_REACTORS
330
29
102
}
330
29
100
AcDbVisualStyle
  2
Flat
 70
     0
177
     3
291
     1
 70
    58
 90
        2
176
     1
 90
        1
176
     1
 90
        1
176
     1
 90
        2
176
     1
 40
0.6
176
     1
 40
30.0
176
     1
 62
     7
420
 16777215
176
     1
 90
        0
176
     1
 90
        0
176
     1
 62
     7
176
     1
 62
   257
176
     1
 90
        1
176
     1
 90
        1
176
     1
 40
1.0
176
     1
 90
        8
176
     1
 62
     7
176
     1
 40
1.0
176
     1
 90
        1
176
     1
 90
        6
176
     1
 90
        2
176
     1
 62
     7
176
     1
 90
        5
176
     1
 90
        0
176
     1
 90
        0
176
     1
290
     0
176
     1
 90
       13
176
     1
 40
0.0
176
     1
 90
        0
176
     1
290
     0
176
     1
290
     1
176
     1
290
     1
176
     1
290
     0
176
     1
290
     0
176
     1
290
     0
176
     1
290
     0
176
     1
290
     0
176
     1
290
     0
176
     1
 90
       50
176
     1
 40
0.0
176
     1
 40
1.0
176
     1
 90
        0
176
     1
 62
    18
420
        0
176
     1
 90
       50
176
     1
 90
        3
176
     1
 62
     5
420
      255
176
     1
290
     0
176
     1
 90
       50
176
     1
 90
       50
176
     1
 90
       50
176
     1
290
     0
176
     1
 90
       50
176
     1
 62
   256
176
     0
 40
1.0
176
     0
 90
        2
176
     1
  1
strokes_ogs.tif
176
     1
290
     0
176
     1
 40
1.0
176
     1
 40
1.0
176
     1
  0
VISUALSTYLE
  5
2B
102
{ACAD_REACTORS
330
29
102
}
330
29
100
AcDbVisualStyle
  2
FlatWithEdges
 70
     1
177
     3
291
     1
 70
    58
 90
        2
176
     1
 90
        1
176
     1
 90
        1
176
     1
 90
        2
176
     1
 40
0.6
176
     1
 40
30.0
176
     1
 62
     7
420
 16777215
176
     1
 90
        1
176
     1
 90
        0
176
     1
 62
     7
176
     1
 62
   257
176
     1
 90
        1
176
     1
 90
        1
176
     1
 40
1.0
176
     1
 90
        0
176
     1
 62
   257
176
     1
 40
1.0
176
     1
 90
        1
176
     1
 90
        6
176
     1
 90
        2
176
     1
 62
     7
176
     1
 90
        5
176
     1
 90
        0
176
     1
 90
        0
176
     1
290
     0
176
     1
 90
       13
176
     1
 40
0.0
176
     1
 90
        0
176
     1
290
     0
176
     1
290
     1
176
     1
290
     1
176
     1
290
     0
176
     1
290
     0
176
     1
290
     0
176
     1
290
     0
176
     1
290
     0
176
     1
290
     0
176
     1
 90
       50
176
     1
 40
0.0
176
     1
 40
1.0
176
     1
 90
        0
176
     1
 62
    18
420
        0
176
     1
 90
       50
176
     1
 90
        3
176
     1
 62
     5
420
      255
176
     1
290
     0
176
     1
 90
       50
176
     1
 90
       50
176
     1
 90
       50
176
     1
290
     0
176
     1
 90
       50
176
     1
 62
   256
176
     0
 40
1.0
176
     0
 90
        2
176
     1
  1
strokes_ogs.tif
176
     1
290
     0
176
     1
 40
1.0
176
     1
 40
1.0
176
     1
  0
VISUALSTYLE
  5
2C
102
{ACAD_REACTORS
330
29
102
}
330
29
100
AcDbVisualStyle
  2
Gouraud
 70
     2
177
     3
291
     1
 70
    58
 90
        2
176
     1
 90
        2
176
     1
 90
        1
176
     1
 90
        2
176
     1
 40
0.6
176
     1
 40
30.0
176
     1
 62
     7
420
 16777215
176
     1
 90
        0
176
     1
 90
        0
176
     1
 62
     7
176
     1
 62
   257
176
     1
 90
        1
176
     1
 90
        1
176
     1
 40
1.0
176
     1
 90
        0
176
     1
 62
     7
176
     1
 40
1.0
176
     1
 90
        1
176
     1
 90
        6
176
     1
 90
        2
176
     1
 62
     7
176
     1
 90
        5
176
     1
 90
        0
176
     1
 90
        0
176
     1
290
     0
176
     1
 90
       13
176
     1
 40
0.0
176
     1
 90
        0
176
     1
290
     0
176
     1
290
     1
176
     1
290
     1
176
     1
290
     0
176
     1
290
     0
176
     1
290
     0
176
     1
290
     0
176
     1
290
     0
176
     1
290
     0
176
     1
 90
       50
176
     1
 40
0.0
176
     1
 40
1.0
176
     1
 90
        0
176
     1
 62
    18
420
        0
176
     1
 90
       50
176
     1
 90
        3
176
     1
 62
     5
420
      255
176
     1
290
     0
176
     1
 90
       50
176
     1
 90
       50
176
     1
 90
       50
176
     1
290
     0
176
     1
 90
       50
176
     1
 62
   256
176
     0
 40
1.0
176
     0
 90
        2
176
     1
  1
strokes_ogs.tif
176
     1
290
     0
176
     1
 40
1.0
176
     1
 40
1.0
176
     1
  0
VISUALSTYLE
  5
2D
102
{ACAD_REACTORS
330
29
102
}
330
29
100
AcDbVisualStyle
  2
GouraudWithEdges
 70
     3
177
     3
291
     1
 70
    58
 90
        2
176
     1
 90
        2
176
     1
 90
        1
176
     1
 90
        2
176
     1
 40
0.6
176
     1
 40
30.0
176
     1
 62
     7
420
 16777215
176
     1
 90
        1
176
     1
 90
        0
176
     1
 62
     7
176
     1
 62
   257
176
     1
 90
        1
176
     1
 90
        1
176
     1
 40
1.0
176
     1
 90
        0
176
     1
 62
   257
176
     1
 40
1.0
176
     1
 90
        1
176
     1
 90
        6
176
     1
 90
        2
176
     1
 62
     7
176
     1
 90
        5
176
     1
 90
        0
176
     1
 90
        0
176
     1
290
     0
176
     1
 90
       13
176
     1
 40
0.0
176
     1
 90
        0
176
     1
290
     0
176
     1
290
     1
176
     1
290
     1
176
     1
290
     0
176
     1
290
     0
176
     1
290
     0
176
     1
290
     0
176
     1
290
     0
176
     1
290
     0
176
     1
 90
       50
176
     1
 40
0.0
176
     1
 40
1.0
176
     1
 90
        0
176
     1
 62
    18
420
        0
176
     1
 90
       50
176
     1
 90
        3
176
     1
 62
     5
420
      255
176
     1
290
     0
176
     1
 90
       50
176
     1
 90
       50
176
     1
 90
       50
176
     1
290
     0
176
     1
 90
       50
176
     1
 62
   256
176
     0
 40
1.0
176
     0
 90
        2
176
     1
  1
strokes_ogs.tif
176
     1
290
     0
176
     1
 40
1.0
176
     1
 40
1.0
176
     1
  0
VISUALSTYLE
  5
31
102
{ACAD_REACTORS
330
29
102
}
330
29
100
AcDbVisualStyle
  2
Hidden
 70
     6
177
     3
291
     0
 70
    58
 90
        1
176
     1
 90
        2
176
     1
 90
        2
176
     1
 90
        0
176
     1
 40
0.6
176
     1
 40
30.0
176
     1
 62
     7
420
 16777215
176
     1
 90
        2
176
     1
 90
        2
176
     1
 62
     7
176
     1
 62
   257
176
     1
 90
        2
176
     1
 90
        1
176
     1
 40
40.0
176
     1
 90
        0
176
     1
 62
   257
176
     1
 40
1.0
176
     1
 90
        1
176
     1
 90
        6
176
     1
 90
        2
176
     1
 62
     7
176
     1
 90
        3
176
     1
 90
        0
176
     1
 90
        0
176
     1
290
     0
176
     1
 90
        1
176
     1
 40
0.0
176
     1
 90
        0
176
     1
290
     0
176
     1
290
     1
176
     1
290
     1
176
     1
290
     0
176
     1
290
     0
176
     1
290
     0
176
     1
290
     0
176
     1
290
     0
176
     1
290
     0
176
     1
 90
       50
176
     1
 40
0.0
176
     1
 40
1.0
176
     1
 90
        0
176
     1
 62
    18
420
        0
176
     1
 90
       50
176
     1
 90
        3
176
     1
 62
     5
420
      255
176
     1
290
     0
176
     1
 90
       50
176
     1
 90
       50
176
     1
 90
       50
176
     1
290
     0
176
     1
 90
       50
176
     1
 62
   256
176
     0
 40
1.0
176
     0
 90
        2
176
     1
  1
strokes_ogs.tif
176
     1
290
     0
176
     1
 40
1.0
176
     1
 40
1.0
176
     1
  0
VISUALSTYLE
  5
3F
102
{ACAD_REACTORS
330
29
102
}
330
29
100
AcDbVisualStyle
  2
JitterOff
 70
    20
177
     3
291
     1
 70
    58
 90
        2
176
     0
 90
        2
176
     0
 90
        0
176
     0
 90
        0
176
     0
 40
0.6
176
     0
 40
30.0
176
     0
 62
     7
420
 16777215
176
     0
 90
        1
176
     0
 90
        4
176
     0
 62
     7
176
     0
 62
   257
176
     0
 90
        1
176
     0
 90
        1
176
     0
 40
1.0
176
     0
 90
       10
176
     2
 62
     7
176
     0
 40
1.0
176
     0
 90
        1
176
     0
 90
        6
176
     0
 90
        2
176
     0
 62
     7
176
     0
 90
        5
176
     0
 90
        0
176
     0
 90
        0
176
     0
290
     0
176
     0
 90
        1
176
     0
 40
0.0
176
     0
 90
        0
176
     0
290
     0
176
     0
290
     1
176
     0
290
     1
176
     0
290
     0
176
     0
290
     0
176
     0
290
     0
176
     0
290
     0
176
     0
290
     0
176
     0
290
     0
176
     0
 90
       50
176
     0
 40
0.0
176
     0
 40
1.0
176
     0
 90
        0
176
     0
 62
    18
420
        0
176
     0
 90
       50
176
     0
 90
        3
176
     0
 62
     5
420
      255
176
     0
290
     0
176
     0
 90
       50
176
     0
 90
       50
176
     0
 90
       50
176
     0
290
     0
176
     0
 90
       50
176
     0
 62
   256
176
     0
 40
1.0
176
     0
 90
        2
176
     0
  1
strokes_ogs.tif
176
     0
290
     0
176
     0
 40
1.0
176
     0
 40
1.0
176
     0
  0
VISUALSTYLE
  5
37
102
{ACAD_REACTORS
330
29
102
}
330
29
100
AcDbVisualStyle
  2
Linepattern
 70
    14
177
     3
291
     1
 70
    58
 90
        2
176
     1
 90
        2
176
     1
 90
        0
176
     1
 90
        0
176
     1
 40
0.6
176
     1
 40
30.0
176
     1
 62
     7
420
 16777215
176
     1
 90
        1
176
     1
 90
        4
176
     1
 62
     7
176
     1
 62
   257
176
     1
 90
        7
176
     1
 90
        7
176
     1
 40
1.0
176
     1
 90
        8
176
     1
 62
     7
176
     1
 40
1.0
176
     1
 90
        1
176
     1
 90
        6
176
     1
 90
        2
176
     1
 62
     7
176
     1
 90
        5
176
     1
 90
        0
176
     1
 90
        0
176
     1
290
     0
176
     1
 90
        1
176
     1
 40
0.0
176
     1
 90
        0
176
     1
290
     0
176
     1
290
     1
176
     1
290
     1
176
     1
290
     0
176
     1
290
     0
176
     1
290
     0
176
     1
290
     0
176
     1
290
     0
176
     1
290
     0
176
     1
 90
       50
176
     1
 40
0.0
176
     1
 40
1.0
176
     1
 90
        0
176
     1
 62
    18
420
        0
176
     1
 90
       50
176
     1
 90
        3
176
     1
 62
     5
420
      255
176
     1
290
     0
176
     1
 90
       50
176
     1
 90
       50
176
     1
 90
       50
176
     1
290
     0
176
     1
 90
       50
176
     1
 62
   256
176
     0
 40
1.0
176
     0
 90
        2
176
     1
  1
strokes_ogs.tif
176
     1
290
     0
176
     1
 40
1.0
176
     1
 40
1.0
176
     1
  0
VISUALSTYLE
  5
40
102
{ACAD_REACTORS
330
29
102
}
330
29
100
AcDbVisualStyle
  2
OverhangOff
 70
    21
177
     3
291
     1
 70
    58
 90
        2
176
     0
 90
        2
176
     0
 90
        0
176
     0
 90
        0
176
     0
 40
0.6
176
     0
 40
30.0
176
     0
 62
     7
420
 16777215
176
     0
 90
        1
176
     0
 90
        4
176
     0
 62
     7
176
     0
 62
   257
176
     0
 90
        1
176
     0
 90
        1
176
     0
 40
1.0
176
     0
 90
        9
176
     2
 62
     7
176
     0
 40
1.0
176
     0
 90
        1
176
     0
 90
        6
176
     0
 90
        2
176
     0
 62
     7
176
     0
 90
        5
176
     0
 90
        0
176
     0
 90
        0
176
     0
290
     0
176
     0
 90
        1
176
     0
 40
0.0
176
     0
 90
        0
176
     0
290
     0
176
     0
290
     1
176
     0
290
     1
176
     0
290
     0
176
     0
290
     0
176
     0
290
     0
176
     0
290
     0
176
     0
290
     0
176
     0
290
     0
176
     0
 90
       50
176
     0
 40
0.0
176
     0
 40
1.0
176
     0
 90
        0
176
     0
 62
    18
420
        0
176
     0
 90
       50
176
     0
 90
        3
176
     0
 62
     5
420
      255
176
     0
290
     0
176
     0
 90
       50
176
     0
 90
       50
176
     0
 90
       50
176
     0
290
     0
176
     0
 90
       50
176
     0
 62
   256
176
     0
 40
1.0
176
     0
 90
        2
176
     0
  1
strokes_ogs.tif
176
     0
290
     0
176
     0
 40
1.0
176
     0
 40
1.0
176
     0
  0
VISUALSTYLE
  5
33
102
{ACAD_REACTORS
330
29
102
}
330
29
100
AcDbVisualStyle
  2
Realistic
 70
     8
177
     3
291
     0
 70
    58
 90
        2
176
     1
 90
        3
176
     1
 90
        0
176
     1
 90
        2
176
     1
 40
0.6
176
     1
 40
30.0
176
     1
 62
     7
420
 16777215
176
     1
 90
        0
176
     1
 90
        0
176
     1
 62
     7
176
     1
 62
   257
176
     1
 90
        1
176
     1
 90
        1
176
     1
 40
1.0
176
     1
 90
        8
176
     1
 62
   257
176
     1
 40
1.0
176
     1
 90
        1
176
     1
 90
        6
176
     1
 90
        2
176
     1
 62
     7
176
     1
 90
        3
176
     1
 90
        0
176
     1
 90
        0
176
     1
290
     0
176
     1
 90
       13
176
     1
 40
0.0
176
     1
 90
        0
176
     1
290
     0
176
     1
290
     1
176
     1
290
     1
176
     1
290
     0
176
     1
290
     0
176
     1
290
     0
176
     1
290
     0
176
     1
290
     0
176
     1
290
     0
176
     1
 90
       50
176
     1
 40
0.0
176
     1
 40
1.0
176
     1
 90
        0
176
     1
 62
    18
420
        0
176
     1
 90
       50
176
     1
 90
        3
176
     1
 62
     5
420
      255
176
     1
290
     0
176
     1
 90
       50
176
     1
 90
       50
176
     1
 90
       50
176
     1
290
     0
176
     1
 90
       50
176
     1
 62
   256
176
     0
 40
1.0
176
     0
 90
        2
176
     1
  1
strokes_ogs.tif
176
     1
290
     0
176
     1
 40
1.0
176
     1
 40
1.0
176
     1
  0
VISUALSTYLE
  5
3E
102
{ACAD_REACTORS
330
29
102
}
330
29
100
AcDbVisualStyle
  2
Shaded
 70
    27
177
     3
291
     0
 70
    58
 90
        2
176
     1
 90
        2
176
     1
 90
        1
176
     1
 90
        2
176
     1
 40
0.6
176
     1
 40
30.0
176
     1
 62
     7
420
 16777215
176
     1
 90
        0
176
     1
 90
        4
176
     1
 62
     7
176
     1
 62
   257
176
     1
 90
        1
176
     1
 90
        1
176
     1
 40
1.0
176
     1
 90
        8
176
     1
 62
   257
176
     1
 40
1.0
176
     1
 90
        1
176
     1
 90
        6
176
     1
 90
        2
176
     1
 62
     8
420
  7895160
176
     1
 90
        3
176
     1
 90
        0
176
     1
 90
        0
176
     1
290
     0
176
     1
 90
        5
176
     1
 40
0.0
176
     1
 90
        0
176
     1
290
     0
176
     1
290
     1
176
     1
290
     1
176
     1
290
     0
176
     1
290
     0
176
     1
290
     0
176
     1
290
     0
176
     1
290
     0
176
     1
290
     0
176
     1
 90
       50
176
     1
 40
0.0
176
     1
 40
1.0
176
     1
 90
        0
176
     1
 62
    18
420
        0
176
     1
 90
       50
176
     1
 90
        3
176
     1
 62
     5
420
      255
176
     1
290
     0
176
     1
 90
       50
176
     1
 90
       50
176
     1
 90
       50
176
     1
290
     0
176
     1
 90
       50
176
     1
 62
   256
176
     0
 40
1.0
176
     0
 90
        2
176
     1
  1
strokes_ogs.tif
176
     1
290
     0
176
     1
 40
1.0
176
     1
 40
1.0
176
     1
  0
VISUALSTYLE
  5
3D
102
{ACAD_REACTORS
330
29
102
}
330
29
100
AcDbVisualStyle
  2
Shaded with edges
 70
    26
177
     3
291
     0
 70
    58
 90
        2
176
     1
 90
        2
176
     1
 90
        1
176
     1
 90
        2
176
     1
 40
0.6
176
     1
 40
30.0
176
     1
 62
     7
420
 16777215
176
     1
 90
        1
176
     1
 90
        2
176
     1
 62
     7
176
     1
 62
   257
176
     1
 90
        2
176
     1
 90
        1
176
     1
 40
1.0
176
     1
 90
        8
176
     1
 62
   257
176
     1
 40
1.0
176
     1
 90
        1
176
     1
 90
        6
176
     1
 90
        2
176
     1
 62
     7
176
     1
 90
        3
176
     1
 90
        0
176
     1
 90
        0
176
     1
290
     0
176
     1
 90
        5
176
     1
 40
0.0
176
     1
 90
        0
176
     1
290
     0
176
     1
290
     1
176
     1
290
     1
176
     1
290
     0
176
     1
290
     0
176
     1
290
     0
176
     1
290
     0
176
     1
290
     0
176
     1
290
     0
176
     1
 90
       50
176
     1
 40
0.0
176
     1
 40
1.0
176
     1
 90
        0
176
     1
 62
    18
420
        0
176
     1
 90
       50
176
     1
 90
        3
176
     1
 62
     5
420
      255
176
     1
290
     0
176
     1
 90
       50
176
     1
 90
       50
176
     1
 90
       50
176
     1
290
     0
176
     1
 90
       50
176
     1
 62
   256
176
     0
 40
1.0
176
     0
 90
        2
176
     1
  1
strokes_ogs.tif
176
     1
290
     0
176
     1
 40
1.0
176
     1
 40
1.0
176
     1
  0
VISUALSTYLE
  5
3A
102
{ACAD_REACTORS
330
29
102
}
330
29
100
AcDbVisualStyle
  2
Shades of Gray
 70
    23
177
     3
291
     0
 70
    58
 90
        2
176
     1
 90
        2
176
     1
 90
        3
176
     1
 90
        0
176
     1
 40
0.6
176
     1
 40
30.0
176
     1
 62
     7
420
 16777215
176
     1
 90
        2
176
     1
 90
        2
176
     1
 62
     7
176
     1
 62
     7
176
     1
 90
        1
176
     1
 90
        1
176
     1
 40
40.0
176
     1
 90
        8
176
     1
 62
     7
176
     1
 40
1.0
176
     1
 90
        1
176
     1
 90
        6
176
     1
 90
        2
176
     1
 62
     7
176
     1
 90
        3
176
     1
 90
        0
176
     1
 90
        0
176
     1
290
     0
176
     1
 90
        1
176
     1
 40
0.0
176
     1
 90
        0
176
     1
290
     0
176
     1
290
     1
176
     1
290
     1
176
     1
290
     0
176
     1
290
     0
176
     1
290
     0
176
     1
290
     0
176
     1
290
     0
176
     1
290
     0
176
     1
 90
       50
176
     1
 40
0.0
176
     1
 40
1.0
176
     1
 90
        0
176
     1
 62
    18
420
        0
176
     1
 90
       50
176
     1
 90
        3
176
     1
 62
     5
420
      255
176
     1
290
     0
176
     1
 90
       50
176
     1
 90
       50
176
     1
 90
       50
176
     1
290
     0
176
     1
 90
       50
176
     1
 62
   256
176
     0
 40
1.0
176
     0
 90
        2
176
     1
  1
strokes_ogs.tif
176
     1
290
     0
176
     1
 40
1.0
176
     1
 40
1.0
176
     1
  0
VISUALSTYLE
  5
3B
102
{ACAD_REACTORS
330
29
102
}
330
29
100
AcDbVisualStyle
  2
Sketchy
 70
    24
177
     3
291
     0
 70
    58
 90
        1
176
     1
 90
        2
176
     1
 90
        2
176
     1
 90
        0
176
     1
 40
0.6
176
     1
 40
30.0
176
     1
 62
     7
420
 16777215
176
     1
 90
        2
176
     1
 90
        2
176
     1
 62
     7
176
     1
 62
     7
176
     1
 90
        1
176
     1
 90
        1
176
     1
 40
40.0
176
     1
 90
       11
176
     1
 62
     7
176
     1
 40
1.0
176
     1
 90
        1
176
     1
 90
        6
176
     1
 90
        2
176
     1
 62
     7
176
     1
 90
        6
176
     1
 90
        0
176
     1
 90
        0
176
     1
290
     0
176
     1
 90
        1
176
     1
 40
0.0
176
     1
 90
        0
176
     1
290
     0
176
     1
290
     1
176
     1
290
     1
176
     1
290
     0
176
     1
290
     0
176
     1
290
     0
176
     1
290
     0
176
     1
290
     0
176
     1
290
     0
176
     1
 90
       50
176
     1
 40
0.0
176
     1
 40
1.0
176
     1
 90
        0
176
     1
 62
    18
420
        0
176
     1
 90
       50
176
     1
 90
        3
176
     1
 62
     5
420
      255
176
     1
290
     0
176
     1
 90
       50
176
     1
 90
       50
176
     1
 90
       50
176
     1
290
     0
176
     1
 90
       50
176
     1
 62
   256
176
     0
 40
1.0
176
     0
 90
        2
176
     1
  1
strokes_ogs.tif
176
     1
290
     0
176
     1
 40
1.0
176
     1
 40
1.0
176
     1
  0
VISUALSTYLE
  5
36
102
{ACAD_REACTORS
330
29
102
}
330
29
100
AcDbVisualStyle
  2
Thicken
 70
    13
177
     3
291
     1
 70
    58
 90
        2
176
     1
 90
        2
176
     1
 90
        0
176
     1
 90
        0
176
     1
 40
0.6
176
     1
 40
30.0
176
     1
 62
     7
420
 16777215
176
     1
 90
        1
176
     1
 90
        4
176
     1
 62
     7
176
     1
 62
   257
176
     1
 90
        1
176
     1
 90
        1
176
     1
 40
1.0
176
     1
 90
       12
176
     1
 62
     7
176
     1
 40
1.0
176
     1
 90
        1
176
     1
 90
        6
176
     1
 90
        2
176
     1
 62
     7
176
     1
 90
        5
176
     1
 90
        0
176
     1
 90
        0
176
     1
290
     0
176
     1
 90
        1
176
     1
 40
0.0
176
     1
 90
        0
176
     1
290
     0
176
     1
290
     1
176
     1
290
     1
176
     1
290
     0
176
     1
290
     0
176
     1
290
     0
176
     1
290
     0
176
     1
290
     0
176
     1
290
     0
176
     1
 90
       50
176
     1
 40
0.0
176
     1
 40
1.0
176
     1
 90
        0
176
     1
 62
    18
420
        0
176
     1
 90
       50
176
     1
 90
        3
176
     1
 62
     5
420
      255
176
     1
290
     0
176
     1
 90
       50
176
     1
 90
       50
176
     1
 90
       50
176
     1
290
     0
176
     1
 90
       50
176
     1
 62
   256
176
     0
 40
1.0
176
     0
 90
        2
176
     1
  1
strokes_ogs.tif
176
     1
290
     0
176
     1
 40
1.0
176
     1
 40
1.0
176
     1
  0
VISUALSTYLE
  5
30
102
{ACAD_REACTORS
330
29
102
}
330
29
100
AcDbVisualStyle
  2
Wireframe
 70
     5
177
     3
291
     0
 70
    58
 90
        0
176
     1
 90
        2
176
     1
 90
        0
176
     1
 90
        0
176
     1
 40
0.6
176
     1
 40
30.0
176
     1
 62
     7
420
 16777215
176
     1
 90
        1
176
     1
 90
        4
176
     1
 62
     7
176
     1
 62
   257
176
     1
 90
        1
176
     1
 90
        1
176
     1
 40
1.0
176
     1
 90
        0
176
     1
 62
   257
176
     1
 40
1.0
176
     1
 90
        1
176
     1
 90
        6
176
     1
 90
        2
176
     1
 62
     7
176
     1
 90
        3
176
     1
 90
        0
176
     1
 90
        0
176
     1
290
     0
176
     1
 90
        1
176
     1
 40
0.0
176
     1
 90
        0
176
     1
290
     0
176
     1
290
     1
176
     1
290
     1
176
     1
290
     0
176
     1
290
     0
176
     1
290
     0
176
     1
290
     0
176
     1
290
     0
176
     1
290
     0
176
     1
 90
       50
176
     1
 40
0.0
176
     1
 40
1.0
176
     1
 90
        0
176
     1
 62
    18
420
        0
176
     1
 90
       50
176
     1
 90
        3
176
     1
 62
     5
420
      255
176
     1
290
     0
176
     1
 90
       50
176
     1
 90
       50
176
     1
 90
       50
176
     1
290
     0
176
     1
 90
       50
176
     1
 62
   256
176
     0
 40
1.0
176
     0
 90
        2
176
     1
  1
strokes_ogs.tif
176
     1
290
     0
176
     1
 40
1.0
176
     1
 40
1.0
176
     1
  0
VISUALSTYLE
  5
3C
102
{ACAD_REACTORS
330
29
102
}
330
29
100
AcDbVisualStyle
  2
X-Ray
 70
    25
177
     3
291
     0
 70
    58
 90
        2
176
     1
 90
        2
176
     1
 90
        1
176
     1
 90
        1
176
     1
 40
0.5
176
     1
 40
30.0
176
     1
 62
     7
420
 16777215
176
     1
 90
        1
176
     1
 90
        0
176
     1
 62
     7
176
     1
 62
   257
176
     1
 90
        1
176
     1
 90
        1
176
     1
 40
1.0
176
     1
 90
        8
176
     1
 62
     7
176
     1
 40
1.0
176
     1
 90
        1
176
     1
 90
        6
176
     1
 90
        2
176
     1
 62
     7
176
     1
 90
        3
176
     1
 90
        0
176
     1
 90
        0
176
     1
290
     0
176
     1
 90
       13
176
     1
 40
0.0
176
     1
 90
        0
176
     1
290
     0
176
     1
290
     1
176
     1
290
     1
176
     1
290
     0
176
     1
290
     0
176
     1
290
     0
176
     1
290
     0
176
     1
290
     0
176
     1
290
     0
176
     1
 90
       50
176
     1
 40
0.0
176
     1
 40
1.0
176
     1
 90
        0
176
     1
 62
    18
420
        0
176
     1
 90
       50
176
     1
 90
        3
176
     1
 62
     5
420
      255
176
     1
290
     0
176
     1
 90
       50
176
     1
 90
       50
176
     1
 90
       50
176
     1
290
     0
176
     1
 90
       50
176
     1
 62
   256
176
     0
 40
1.0
176
     0
 90
        2
176
     1
  1
strokes_ogs.tif
176
     1
290
     0
176
     1
 40
1.0
176
     1
 40
1.0
176
     1
  0
DICTIONARYVAR
  5
18A
102
{ACAD_REACTORS
330
185
102
}
330
185
100
DictionaryVariables
280
     0
  1
1:1
  0
DICTIONARYVAR
  5
187
102
{ACAD_REACTORS
330
185
102
}
330
185
100
DictionaryVariables
280
     0
  1
STANDARD
  0
DICTIONARYVAR
  5
186
102
{ACAD_REACTORS
330
185
102
}
330
185
100
DictionaryVariables
280
     0
  1
STANDARD
  0
DICTIONARYVAR
  5
188
102
{ACAD_REACTORS
330
185
102
}
330
185
100
DictionaryVariables
280
     0
  1
Imperial24
  0
DICTIONARYVAR
  5
189
102
{ACAD_REACTORS
330
185
102
}
330
185
100
DictionaryVariables
280
     0
  1
Imperial24
  0
DICTIONARY
  5
1A
330
19
100
AcDbDictionary
280
     1
281
     1
  3
BUMPTILE
360
1C
  3
DIFFUSETILE
360
1B
  3
OPACITYTILE
360
1F
  3
REFLECTIONTILE
360
1E
  3
REFRACTIONTILE
360
20
  3
SPECULARTILE
360
1D
  0
DICTIONARY
  5
12
330
11
100
AcDbDictionary
280
     1
281
     1
  3
BUMPTILE
360
14
  3
DIFFUSETILE
360
13
  3
OPACITYTILE
360
17
  3
REFLECTIONTILE
360
16
  3
REFRACTIONTILE
360
18
  3
SPECULARTILE
360
15
  0
DICTIONARY
  5
22
330
21
100
AcDbDictionary
280
     1
281
     1
  3
BUMPTILE
360
24
  3
DIFFUSETILE
360
23
  3
OPACITYTILE
360
27
  3
REFLECTIONTILE
360
26
  3
REFRACTIONTILE
360
28
  3
SPECULARTILE
360
25
  0
DICTIONARY
  5
18B
330
65
100
AcDbDictionary
280
     1
281
     1
  3
ACAD_ROUNDTRIP_2008_TABLESTYLE_CELLSTYLEMAP
360
18C
  0
XRECORD
  5
1C
102
{ACAD_REACTORS
330
1A
102
}
330
1A
100
AcDbXrecord
280
     1
270
     1
271
     1
  0
XRECORD
  5
1B
102
{ACAD_REACTORS
330
1A
102
}
330
1A
100
AcDbXrecord
280
     1
270
     1
271
     1
  0
XRECORD
  5
1F
102
{ACAD_REACTORS
330
1A
102
}
330
1A
100
AcDbXrecord
280
     1
270
     1
271
     1
  0
XRECORD
  5
1E
102
{ACAD_REACTORS
330
1A
102
}
330
1A
100
AcDbXrecord
280
     1
270
     1
271
     1
  0
XRECORD
  5
20
102
{ACAD_REACTORS
330
1A
102
}
330
1A
100
AcDbXrecord
280
     1
270
     1
271
     1
  0
XRECORD
  5
1D
102
{ACAD_REACTORS
330
1A
102
}
330
1A
100
AcDbXrecord
280
     1
270
     1
271
     1
  0
XRECORD
  5
14
102
{ACAD_REACTORS
330
12
102
}
330
12
100
AcDbXrecord
280
     1
270
     1
271
     1
  0
XRECORD
  5
13
102
{ACAD_REACTORS
330
12
102
}
330
12
100
AcDbXrecord
280
     1
270
     1
271
     1
  0
XRECORD
  5
17
102
{ACAD_REACTORS
330
12
102
}
330
12
100
AcDbXrecord
280
     1
270
     1
271
     1
  0
XRECORD
  5
16
102
{ACAD_REACTORS
330
12
102
}
330
12
100
AcDbXrecord
280
     1
270
     1
271
     1
  0
XRECORD
  5
18
102
{ACAD_REACTORS
330
12
102
}
330
12
100
AcDbXrecord
280
     1
270
     1
271
     1
  0
XRECORD
  5
15
102
{ACAD_REACTORS
330
12
102
}
330
12
100
AcDbXrecord
280
     1
270
     1
271
     1
  0
XRECORD
  5
24
102
{ACAD_REACTORS
330
22
102
}
330
22
100
AcDbXrecord
280
     1
270
     1
271
     1
  0
XRECORD
  5
23
102
{ACAD_REACTORS
330
22
102
}
330
22
100
AcDbXrecord
280
     1
270
     1
271
     1
  0
XRECORD
  5
27
102
{ACAD_REACTORS
330
22
102
}
330
22
100
AcDbXrecord
280
     1
270
     1
271
     1
  0
XRECORD
  5
26
102
{ACAD_REACTORS
330
22
102
}
330
22
100
AcDbXrecord
280
     1
270
     1
271
     1
  0
XRECORD
  5
28
102
{ACAD_REACTORS
330
22
102
}
330
22
100
AcDbXrecord
280
     1
270
     1
271
     1
  0
XRECORD
  5
25
102
{ACAD_REACTORS
330
22
102
}
330
22
100
AcDbXrecord
280
     1
270
     1
271
     1
  0
CELLSTYLEMAP
  5
18C
102
{ACAD_REACTORS
330
18B
102
}
330
18B
100
AcDbCellStyleMap
 90
        3
300
CELLSTYLE
  1
TABLEFORMAT_BEGIN
 90
        5
170
     1
 91
        0
 92
    32768
 62
   257
 93
        1
300
CONTENTFORMAT
  1
CONTENTFORMAT_BEGIN
 90
        0
 91
        0
 92
      512
 93
        0
300

 40
0.0
140
1.0
 94
        5
 62
     0
340
55
144
0.25
309
CONTENTFORMAT_END
171
     0
 94
        0
309
TABLEFORMAT_END
  1
CELLSTYLE_BEGIN
 90
        1
 91
        1
300
_TITLE
309
CELLSTYLE_END
300
CELLSTYLE
  1
TABLEFORMAT_BEGIN
 90
        5
170
     1
 91
        0
 92
        0
 62
   257
 93
        1
300
CONTENTFORMAT
  1
CONTENTFORMAT_BEGIN
 90
        0
 91
        0
 92
      512
 93
        0
300

 40
0.0
140
1.0
 94
        5
 62
     0
340
55
144
0.18
309
CONTENTFORMAT_END
171
     0
 94
        0
309
TABLEFORMAT_END
  1
CELLSTYLE_BEGIN
 90
        2
 91
        1
300
_HEADER
309
CELLSTYLE_END
300
CELLSTYLE
  1
TABLEFORMAT_BEGIN
 90
        5
170
     1
 91
        0
 92
        0
 62
   257
 93
        1
300
CONTENTFORMAT
  1
CONTENTFORMAT_BEGIN
 90
        0
 91
        0
 92
      512
 93
        0
300

 40
0.0
140
1.0
 94
        2
 62
     0
340
55
144
0.18
309
CONTENTFORMAT_END
171
     0
 94
        0
309
TABLEFORMAT_END
  1
CELLSTYLE_BEGIN
 90
        3
 91
        2
300
_DATA
309
CELLSTYLE_END
  0
ENDSEC
  0
EOF
